ISO-10303-21;
HEADER;
FILE_DESCRIPTION((''),'1');
FILE_NAME('T:/02_3D_Field-HP\X2\FF71FF6FFF8CFF9F5916\X0\2013/02_Step_Field-HP\X2\FF71FF6FFF8CFF9F5916\X0\2013/MGT6-d-150_031025-060049.stp','2017-02-08T07:47:22',(''),(''),'Spatial Interop R21 SP3','Kubotek KeyCreator 2011 V10.0.2 (22737)',' ');
FILE_SCHEMA(('automotive_design'));
ENDSEC;
DATA;
#1=MECHANICAL_DESIGN_GEOMETRIC_PRESENTATION_REPRESENTATION(' ',(#10,#11,#12,#13,#14,#15,#16,#17,#18,#19,#20,#21,#22,#23,#24,#25,#26,#27,#28,#29,#30,#31,#32,#33,#34,#35,#36,#37),#6);
#2=PRODUCT_DEFINITION_CONTEXT('',#38,'design');
#3=APPLICATION_PROTOCOL_DEFINITION('INTERNATIONAL STANDARD','automotive_design',1994,#38);
#4=PRODUCT_CATEGORY_RELATIONSHIP('NONE','NONE',#39,#40);
#5=SHAPE_DEFINITION_REPRESENTATION(#41,#42);
#6= (GEOMETRIC_REPRESENTATION_CONTEXT(3)GLOBAL_UNCERTAINTY_ASSIGNED_CONTEXT((#45))GLOBAL_UNIT_ASSIGNED_CONTEXT((#47,#48,#49))REPRESENTATION_CONTEXT('NONE','WORKSPACE'));
#10=STYLED_ITEM('',(#51,#52),#53);
#11=STYLED_ITEM('',(#54,#55),#56);
#12=STYLED_ITEM('',(#57,#58),#59);
#13=STYLED_ITEM('',(#60,#61),#62);
#14=STYLED_ITEM('',(#63),#64);
#15=STYLED_ITEM('',(#65,#66),#67);
#16=STYLED_ITEM('',(#68,#69),#70);
#17=STYLED_ITEM('',(#71),#72);
#18=STYLED_ITEM('',(#73,#74),#75);
#19=STYLED_ITEM('',(#76),#77);
#20=STYLED_ITEM('',(#78),#79);
#21=STYLED_ITEM('',(#80),#81);
#22=STYLED_ITEM('',(#82,#83),#84);
#23=STYLED_ITEM('',(#85),#86);
#24=STYLED_ITEM('',(#87,#88),#89);
#25=STYLED_ITEM('',(#90,#91),#92);
#26=STYLED_ITEM('',(#93,#94),#95);
#27=STYLED_ITEM('',(#96,#97),#98);
#28=STYLED_ITEM('',(#99),#100);
#29=STYLED_ITEM('',(#101),#102);
#30=STYLED_ITEM('',(#103),#104);
#31=STYLED_ITEM('',(#105),#106);
#32=STYLED_ITEM('',(#107),#108);
#33=STYLED_ITEM('',(#109,#110),#111);
#34=STYLED_ITEM('',(#112,#113),#114);
#35=STYLED_ITEM('',(#115),#116);
#36=STYLED_ITEM('',(#117),#118);
#37=STYLED_ITEM('',(#119,#120),#121);
#38=APPLICATION_CONTEXT(' ');
#39=PRODUCT_CATEGORY('part','NONE');
#40=PRODUCT_RELATED_PRODUCT_CATEGORY('detail',' ',(#122));
#41=PRODUCT_DEFINITION_SHAPE('NONE','NONE',#123);
#42=ADVANCED_BREP_SHAPE_REPRESENTATION('240[2]',(#89,#124),#6);
#45=UNCERTAINTY_MEASURE_WITH_UNIT(LENGTH_MEASURE(1.0E-006),#47,'','');
#47= (CONVERSION_BASED_UNIT('MILLIMETRE',#127)LENGTH_UNIT()NAMED_UNIT(#130));
#48= (NAMED_UNIT(#132)PLANE_ANGLE_UNIT()SI_UNIT($,.RADIAN.));
#49= (NAMED_UNIT(#132)SOLID_ANGLE_UNIT()SI_UNIT($,.STERADIAN.));
#51=PRESENTATION_STYLE_ASSIGNMENT((#138));
#52=PRESENTATION_STYLE_ASSIGNMENT((#139));
#53=ADVANCED_FACE('240[2]',(#140,#141),#142,.T.);
#54=PRESENTATION_STYLE_ASSIGNMENT((#143));
#55=PRESENTATION_STYLE_ASSIGNMENT((#144));
#56=ADVANCED_FACE('240[2]',(#145,#146),#147,.T.);
#57=PRESENTATION_STYLE_ASSIGNMENT((#148));
#58=PRESENTATION_STYLE_ASSIGNMENT((#149));
#59=ADVANCED_FACE('240[2]',(#150,#151),#152,.T.);
#60=PRESENTATION_STYLE_ASSIGNMENT((#153));
#61=PRESENTATION_STYLE_ASSIGNMENT((#154));
#62=ADVANCED_FACE('240[2]',(#155,#156),#157,.T.);
#63=PRESENTATION_STYLE_ASSIGNMENT((#158));
#64=EDGE_CURVE('240[2]',#159,#159,#160,.T.);
#65=PRESENTATION_STYLE_ASSIGNMENT((#161));
#66=PRESENTATION_STYLE_ASSIGNMENT((#162));
#67=ADVANCED_FACE('240[2]',(#163,#164),#165,.T.);
#68=PRESENTATION_STYLE_ASSIGNMENT((#166));
#69=PRESENTATION_STYLE_ASSIGNMENT((#167));
#70=ADVANCED_FACE('240[2]',(#168,#169),#170,.T.);
#71=PRESENTATION_STYLE_ASSIGNMENT((#171));
#72=EDGE_CURVE('240[2]',#172,#172,#173,.T.);
#73=PRESENTATION_STYLE_ASSIGNMENT((#174));
#74=PRESENTATION_STYLE_ASSIGNMENT((#175));
#75=ADVANCED_FACE('240[2]',(#176),#177,.T.);
#76=PRESENTATION_STYLE_ASSIGNMENT((#178));
#77=EDGE_CURVE('240[2]',#179,#179,#180,.T.);
#78=PRESENTATION_STYLE_ASSIGNMENT((#181));
#79=EDGE_CURVE('240[2]',#182,#182,#183,.T.);
#80=PRESENTATION_STYLE_ASSIGNMENT((#184));
#81=EDGE_CURVE('240[2]',#185,#185,#186,.T.);
#82=PRESENTATION_STYLE_ASSIGNMENT((#187));
#83=PRESENTATION_STYLE_ASSIGNMENT((#188));
#84=ADVANCED_FACE('240[2]',(#189,#190),#191,.T.);
#85=PRESENTATION_STYLE_ASSIGNMENT((#192));
#86=EDGE_CURVE('240[2]',#193,#193,#194,.T.);
#87=PRESENTATION_STYLE_ASSIGNMENT((#195));
#88=PRESENTATION_STYLE_ASSIGNMENT((#196));
#89=MANIFOLD_SOLID_BREP('240[2]',#197);
#90=PRESENTATION_STYLE_ASSIGNMENT((#198));
#91=PRESENTATION_STYLE_ASSIGNMENT((#199));
#92=ADVANCED_FACE('240[2]',(#200,#201),#202,.T.);
#93=PRESENTATION_STYLE_ASSIGNMENT((#203));
#94=PRESENTATION_STYLE_ASSIGNMENT((#204));
#95=ADVANCED_FACE('240[2]',(#205),#206,.T.);
#96=PRESENTATION_STYLE_ASSIGNMENT((#207));
#97=PRESENTATION_STYLE_ASSIGNMENT((#208));
#98=ADVANCED_FACE('240[2]',(#209,#210),#211,.T.);
#99=PRESENTATION_STYLE_ASSIGNMENT((#212));
#100=EDGE_CURVE('240[2]',#213,#213,#214,.T.);
#101=PRESENTATION_STYLE_ASSIGNMENT((#215));
#102=EDGE_CURVE('240[2]',#216,#216,#217,.T.);
#103=PRESENTATION_STYLE_ASSIGNMENT((#218));
#104=EDGE_CURVE('240[2]',#219,#219,#220,.T.);
#105=PRESENTATION_STYLE_ASSIGNMENT((#221));
#106=EDGE_CURVE('240[2]',#222,#222,#223,.T.);
#107=PRESENTATION_STYLE_ASSIGNMENT((#224));
#108=EDGE_CURVE('240[2]',#225,#225,#226,.T.);
#109=PRESENTATION_STYLE_ASSIGNMENT((#227));
#110=PRESENTATION_STYLE_ASSIGNMENT((#228));
#111=ADVANCED_FACE('240[2]',(#229,#230),#231,.T.);
#112=PRESENTATION_STYLE_ASSIGNMENT((#232));
#113=PRESENTATION_STYLE_ASSIGNMENT((#233));
#114=ADVANCED_FACE('240[2]',(#234,#235),#236,.T.);
#115=PRESENTATION_STYLE_ASSIGNMENT((#237));
#116=EDGE_CURVE('240[2]',#238,#238,#239,.T.);
#117=PRESENTATION_STYLE_ASSIGNMENT((#240));
#118=EDGE_CURVE('240[2]',#241,#241,#242,.T.);
#119=PRESENTATION_STYLE_ASSIGNMENT((#243));
#120=PRESENTATION_STYLE_ASSIGNMENT((#244));
#121=ADVANCED_FACE('240[2]',(#245,#246),#247,.T.);
#122=PRODUCT('240[2]','240[2]','PART-240[2]-DESC',(#248));
#123=PRODUCT_DEFINITION('NONE','NONE',#249,#2);
#124=AXIS2_PLACEMENT_3D('',#250,#251,#252);
#127=LENGTH_MEASURE_WITH_UNIT(LENGTH_MEASURE(1.0),#253);
#130=DIMENSIONAL_EXPONENTS(1.0,0.0,0.0,0.0,0.0,0.0,0.0);
#132=DIMENSIONAL_EXPONENTS(0.0,0.0,0.0,0.0,0.0,0.0,0.0);
#138=SURFACE_STYLE_USAGE(.BOTH.,#254);
#139=CURVE_STYLE('',#255,POSITIVE_LENGTH_MEASURE(1000.0),#256);
#140=FACE_BOUND('',#257,.T.);
#141=FACE_BOUND('',#258,.T.);
#142=CYLINDRICAL_SURFACE('',#259,7.99999999999966);
#143=SURFACE_STYLE_USAGE(.BOTH.,#260);
#144=CURVE_STYLE('',#261,POSITIVE_LENGTH_MEASURE(1000.0),#262);
#145=FACE_BOUND('',#263,.T.);
#146=FACE_BOUND('',#264,.T.);
#147=CYLINDRICAL_SURFACE('',#265,8.00000000000018);
#148=SURFACE_STYLE_USAGE(.BOTH.,#266);
#149=CURVE_STYLE('',#267,POSITIVE_LENGTH_MEASURE(1000.0),#268);
#150=FACE_OUTER_BOUND('',#269,.T.);
#151=FACE_BOUND('',#270,.T.);
#152=PLANE('',#271);
#153=SURFACE_STYLE_USAGE(.BOTH.,#272);
#154=CURVE_STYLE('',#273,POSITIVE_LENGTH_MEASURE(1000.0),#274);
#155=FACE_BOUND('',#275,.T.);
#156=FACE_BOUND('',#276,.T.);
#157=CYLINDRICAL_SURFACE('',#277,8.1499999999993);
#158=CURVE_STYLE('',#278,POSITIVE_LENGTH_MEASURE(1000.0),#279);
#159=VERTEX_POINT('',#280);
#160=CIRCLE('',#281,8.00000000000071);
#161=SURFACE_STYLE_USAGE(.BOTH.,#282);
#162=CURVE_STYLE('',#283,POSITIVE_LENGTH_MEASURE(1000.0),#284);
#163=FACE_BOUND('',#285,.T.);
#164=FACE_BOUND('',#286,.T.);
#165=CYLINDRICAL_SURFACE('',#287,6.20000000000312);
#166=SURFACE_STYLE_USAGE(.BOTH.,#288);
#167=CURVE_STYLE('',#289,POSITIVE_LENGTH_MEASURE(1000.0),#290);
#168=FACE_BOUND('',#291,.T.);
#169=FACE_BOUND('',#292,.T.);
#170=CYLINDRICAL_SURFACE('',#293,11.0000000000001);
#171=CURVE_STYLE('',#294,POSITIVE_LENGTH_MEASURE(1000.0),#295);
#172=VERTEX_POINT('',#296);
#173=CIRCLE('',#297,10.5000000000001);
#174=SURFACE_STYLE_USAGE(.BOTH.,#298);
#175=CURVE_STYLE('',#299,POSITIVE_LENGTH_MEASURE(1000.0),#300);
#176=FACE_OUTER_BOUND('',#301,.T.);
#177=PLANE('',#302);
#178=CURVE_STYLE('',#303,POSITIVE_LENGTH_MEASURE(1000.0),#304);
#179=VERTEX_POINT('',#305);
#180=CIRCLE('',#306,11.0000000000001);
#181=CURVE_STYLE('',#307,POSITIVE_LENGTH_MEASURE(1000.0),#308);
#182=VERTEX_POINT('',#309);
#183=CIRCLE('',#310,11.0000000000001);
#184=CURVE_STYLE('',#311,POSITIVE_LENGTH_MEASURE(1000.0),#312);
#185=VERTEX_POINT('',#313);
#186=CIRCLE('',#314,8.1499999999993);
#187=SURFACE_STYLE_USAGE(.BOTH.,#315);
#188=CURVE_STYLE('',#316,POSITIVE_LENGTH_MEASURE(1000.0),#317);
#189=FACE_BOUND('',#318,.T.);
#190=FACE_BOUND('',#319,.T.);
#191=CONICAL_SURFACE('',#320,10.7500000000001,0.349065850398565);
#192=CURVE_STYLE('',#321,POSITIVE_LENGTH_MEASURE(1000.0),#322);
#193=VERTEX_POINT('',#323);
#194=CIRCLE('',#324,8.1499999999993);
#195=SURFACE_STYLE_USAGE(.BOTH.,#325);
#196=CURVE_STYLE('',#326,POSITIVE_LENGTH_MEASURE(1000.0),#327);
#197=CLOSED_SHELL('',(#59,#95,#75,#111,#84,#70,#98,#56,#114,#67,#121,#62,#92,#53));
#198=SURFACE_STYLE_USAGE(.BOTH.,#328);
#199=CURVE_STYLE('',#329,POSITIVE_LENGTH_MEASURE(1000.0),#330);
#200=FACE_BOUND('',#331,.T.);
#201=FACE_BOUND('',#332,.T.);
#202=CONICAL_SURFACE('',#333,8.07499999999948,0.124354994546199);
#203=SURFACE_STYLE_USAGE(.BOTH.,#334);
#204=CURVE_STYLE('',#335,POSITIVE_LENGTH_MEASURE(1000.0),#336);
#205=FACE_OUTER_BOUND('',#337,.T.);
#206=PLANE('',#338);
#207=SURFACE_STYLE_USAGE(.BOTH.,#339);
#208=CURVE_STYLE('',#340,POSITIVE_LENGTH_MEASURE(1000.0),#341);
#209=FACE_BOUND('',#342,.T.);
#210=FACE_BOUND('',#343,.T.);
#211=CONICAL_SURFACE('',#344,9.50000000000041,1.30899693899587);
#212=CURVE_STYLE('',#345,POSITIVE_LENGTH_MEASURE(1000.0),#346);
#213=VERTEX_POINT('',#347);
#214=CIRCLE('',#348,6.20000000000312);
#215=CURVE_STYLE('',#349,POSITIVE_LENGTH_MEASURE(1000.0),#350);
#216=VERTEX_POINT('',#351);
#217=CIRCLE('',#352,6.20000000000312);
#218=CURVE_STYLE('',#353,POSITIVE_LENGTH_MEASURE(1000.0),#354);
#219=VERTEX_POINT('',#355);
#220=CIRCLE('',#356,7.99999999999966);
#221=CURVE_STYLE('',#357,POSITIVE_LENGTH_MEASURE(1000.0),#358);
#222=VERTEX_POINT('',#359);
#223=CIRCLE('',#360,7.99999999999965);
#224=CURVE_STYLE('',#361,POSITIVE_LENGTH_MEASURE(1000.0),#362);
#225=VERTEX_POINT('',#363);
#226=CIRCLE('',#364,7.99999999999966);
#227=SURFACE_STYLE_USAGE(.BOTH.,#365);
#228=CURVE_STYLE('',#366,POSITIVE_LENGTH_MEASURE(1000.0),#367);
#229=FACE_BOUND('',#368,.T.);
#230=FACE_BOUND('',#369,.T.);
#231=CYLINDRICAL_SURFACE('',#370,7.99999999999966);
#232=SURFACE_STYLE_USAGE(.BOTH.,#371);
#233=CURVE_STYLE('',#372,POSITIVE_LENGTH_MEASURE(1000.0),#373);
#234=FACE_OUTER_BOUND('',#374,.T.);
#235=FACE_BOUND('',#375,.T.);
#236=PLANE('',#376);
#237=CURVE_STYLE('',#377,POSITIVE_LENGTH_MEASURE(1000.0),#378);
#238=VERTEX_POINT('',#379);
#239=CIRCLE('',#380,7.99999999999966);
#240=CURVE_STYLE('',#381,POSITIVE_LENGTH_MEASURE(1000.0),#382);
#241=VERTEX_POINT('',#383);
#242=CIRCLE('',#384,7.99999999999966);
#243=SURFACE_STYLE_USAGE(.BOTH.,#385);
#244=CURVE_STYLE('',#386,POSITIVE_LENGTH_MEASURE(1000.0),#387);
#245=FACE_OUTER_BOUND('',#388,.T.);
#246=FACE_BOUND('',#389,.T.);
#247=PLANE('',#390);
#248=PRODUCT_CONTEXT('',#38,'mechanical');
#249=PRODUCT_DEFINITION_FORMATION_WITH_SPECIFIED_SOURCE(' ','NONE',#122,.NOT_KNOWN.);
#250=CARTESIAN_POINT('',(0.0,0.0,0.0));
#251=DIRECTION('',(0.0,0.0,1.0));
#252=DIRECTION('',(1.0,0.0,0.0));
#253= (NAMED_UNIT(#130)LENGTH_UNIT()SI_UNIT(.MILLI.,.METRE.));
#254=SURFACE_SIDE_STYLE('',(#392));
#255=DRAUGHTING_PRE_DEFINED_CURVE_FONT('continuous');
#256=COLOUR_RGB('',0.0,1.0,1.0);
#257=EDGE_LOOP('',(#393));
#258=EDGE_LOOP('',(#394));
#259=AXIS2_PLACEMENT_3D('',#395,#396,#397);
#260=SURFACE_SIDE_STYLE('',(#398));
#261=DRAUGHTING_PRE_DEFINED_CURVE_FONT('continuous');
#262=COLOUR_RGB('',0.0,1.0,1.0);
#263=EDGE_LOOP('',(#399));
#264=EDGE_LOOP('',(#400));
#265=AXIS2_PLACEMENT_3D('',#401,#402,#403);
#266=SURFACE_SIDE_STYLE('',(#404));
#267=DRAUGHTING_PRE_DEFINED_CURVE_FONT('continuous');
#268=COLOUR_RGB('',0.0,1.0,1.0);
#269=EDGE_LOOP('',(#405));
#270=EDGE_LOOP('',(#406));
#271=AXIS2_PLACEMENT_3D('',#407,#408,#409);
#272=SURFACE_SIDE_STYLE('',(#410));
#273=DRAUGHTING_PRE_DEFINED_CURVE_FONT('continuous');
#274=COLOUR_RGB('',0.0,1.0,1.0);
#275=EDGE_LOOP('',(#411));
#276=EDGE_LOOP('',(#412));
#277=AXIS2_PLACEMENT_3D('',#413,#414,#415);
#278=DRAUGHTING_PRE_DEFINED_CURVE_FONT('continuous');
#279=COLOUR_RGB('',0.0,1.0,1.0);
#280=CARTESIAN_POINT('',(-9.13562952547823E-015,8.00000000000069,149.196152422704));
#281=AXIS2_PLACEMENT_3D('',#416,#417,#418);
#282=SURFACE_SIDE_STYLE('',(#419));
#283=DRAUGHTING_PRE_DEFINED_CURVE_FONT('continuous');
#284=COLOUR_RGB('',0.0,1.0,1.0);
#285=EDGE_LOOP('',(#420));
#286=EDGE_LOOP('',(#421));
#287=AXIS2_PLACEMENT_3D('',#422,#423,#424);
#288=SURFACE_SIDE_STYLE('',(#425));
#289=DRAUGHTING_PRE_DEFINED_CURVE_FONT('continuous');
#290=COLOUR_RGB('',0.0,1.0,1.0);
#291=EDGE_LOOP('',(#426));
#292=EDGE_LOOP('',(#427));
#293=AXIS2_PLACEMENT_3D('',#428,#429,#430);
#294=DRAUGHTING_PRE_DEFINED_CURVE_FONT('continuous');
#295=COLOUR_RGB('',0.0,1.0,1.0);
#296=CARTESIAN_POINT('',(-9.58286120332788E-015,10.5000000000001,156.499999999998));
#297=AXIS2_PLACEMENT_3D('',#431,#432,#433);
#298=SURFACE_SIDE_STYLE('',(#434));
#299=DRAUGHTING_PRE_DEFINED_CURVE_FONT('continuous');
#300=COLOUR_RGB('',0.0,1.0,1.0);
#301=EDGE_LOOP('',(#435));
#302=AXIS2_PLACEMENT_3D('',#436,#437,#438);
#303=DRAUGHTING_PRE_DEFINED_CURVE_FONT('continuous');
#304=COLOUR_RGB('',0.0,1.0,1.0);
#305=CARTESIAN_POINT('',(-9.49874396764118E-015,11.0000000000001,155.126261290269));
#306=AXIS2_PLACEMENT_3D('',#439,#440,#441);
#307=DRAUGHTING_PRE_DEFINED_CURVE_FONT('continuous');
#308=COLOUR_RGB('',0.0,1.0,1.0);
#309=CARTESIAN_POINT('',(-9.18485099360493E-015,11.0000000000001,149.999999999996));
#310=AXIS2_PLACEMENT_3D('',#442,#443,#444);
#311=DRAUGHTING_PRE_DEFINED_CURVE_FONT('continuous');
#312=COLOUR_RGB('',0.0,1.0,1.0);
#313=CARTESIAN_POINT('',(-1.1634144591908E-015,8.14999999999929,19.0000000000132));
#314=AXIS2_PLACEMENT_3D('',#445,#446,#447);
#315=SURFACE_SIDE_STYLE('',(#448));
#316=DRAUGHTING_PRE_DEFINED_CURVE_FONT('continuous');
#317=COLOUR_RGB('',0.0,1.0,1.0);
#318=EDGE_LOOP('',(#449));
#319=EDGE_LOOP('',(#450));
#320=AXIS2_PLACEMENT_3D('',#451,#452,#453);
#321=DRAUGHTING_PRE_DEFINED_CURVE_FONT('continuous');
#322=COLOUR_RGB('',0.0,1.0,1.0);
#323=CARTESIAN_POINT('',(-1.04094977927532E-015,8.14999999999929,17.0000000000011));
#324=AXIS2_PLACEMENT_3D('',#454,#455,#456);
#325=SURFACE_SIDE_STYLE('',(#457));
#326=DRAUGHTING_PRE_DEFINED_CURVE_FONT('continuous');
#327=COLOUR_RGB('',0.0,1.0,1.0);
#328=SURFACE_SIDE_STYLE('',(#458));
#329=DRAUGHTING_PRE_DEFINED_CURVE_FONT('continuous');
#330=COLOUR_RGB('',0.0,1.0,1.0);
#331=EDGE_LOOP('',(#459));
#332=EDGE_LOOP('',(#460));
#333=AXIS2_PLACEMENT_3D('',#461,#462,#463);
#334=SURFACE_SIDE_STYLE('',(#464));
#335=DRAUGHTING_PRE_DEFINED_CURVE_FONT('continuous');
#336=COLOUR_RGB('',0.0,1.0,1.0);
#337=EDGE_LOOP('',(#465));
#338=AXIS2_PLACEMENT_3D('',#466,#467,#468);
#339=SURFACE_SIDE_STYLE('',(#469));
#340=DRAUGHTING_PRE_DEFINED_CURVE_FONT('continuous');
#341=COLOUR_RGB('',0.0,1.0,1.0);
#342=EDGE_LOOP('',(#470));
#343=EDGE_LOOP('',(#471));
#344=AXIS2_PLACEMENT_3D('',#472,#473,#474);
#345=DRAUGHTING_PRE_DEFINED_CURVE_FONT('continuous');
#346=COLOUR_RGB('',0.0,1.0,1.0);
#347=CARTESIAN_POINT('',(-1.22464679914294E-015,6.20000000000311,19.999999999928));
#348=AXIS2_PLACEMENT_3D('',#475,#476,#477);
#349=DRAUGHTING_PRE_DEFINED_CURVE_FONT('continuous');
#350=COLOUR_RGB('',0.0,1.0,1.0);
#351=CARTESIAN_POINT('',(-1.16341445918709E-015,6.20000000000311,18.9999999999526));
#352=AXIS2_PLACEMENT_3D('',#478,#479,#480);
#353=DRAUGHTING_PRE_DEFINED_CURVE_FONT('continuous');
#354=COLOUR_RGB('',0.0,1.0,1.0);
#355=CARTESIAN_POINT('',(-1.20933871415803E-014,7.99999999999963,197.500000000003));
#356=AXIS2_PLACEMENT_3D('',#481,#482,#483);
#357=DRAUGHTING_PRE_DEFINED_CURVE_FONT('continuous');
#358=COLOUR_RGB('',0.0,1.0,1.0);
#359=CARTESIAN_POINT('',(-1.22464679914794E-015,7.99999999999965,20.0000000000095));
#360=AXIS2_PLACEMENT_3D('',#484,#485,#486);
#361=DRAUGHTING_PRE_DEFINED_CURVE_FONT('continuous');
#362=COLOUR_RGB('',0.0,1.0,1.0);
#363=CARTESIAN_POINT('',(-9.67470971326317E-016,7.99999999999965,15.7999999999985));
#364=AXIS2_PLACEMENT_3D('',#487,#488,#489);
#365=SURFACE_SIDE_STYLE('',(#490));
#366=DRAUGHTING_PRE_DEFINED_CURVE_FONT('continuous');
#367=COLOUR_RGB('',0.0,1.0,1.0);
#368=EDGE_LOOP('',(#491));
#369=EDGE_LOOP('',(#492));
#370=AXIS2_PLACEMENT_3D('',#493,#494,#495);
#371=SURFACE_SIDE_STYLE('',(#496));
#372=DRAUGHTING_PRE_DEFINED_CURVE_FONT('continuous');
#373=COLOUR_RGB('',0.0,1.0,1.0);
#374=EDGE_LOOP('',(#497));
#375=EDGE_LOOP('',(#498));
#376=AXIS2_PLACEMENT_3D('',#499,#500,#501);
#377=DRAUGHTING_PRE_DEFINED_CURVE_FONT('continuous');
#378=COLOUR_RGB('',0.0,1.0,1.0);
#379=CARTESIAN_POINT('',(-9.79717439317861E-015,7.99999999999964,156.499999999998));
#380=AXIS2_PLACEMENT_3D('',#502,#503,#504);
#381=DRAUGHTING_PRE_DEFINED_CURVE_FONT('continuous');
#382=COLOUR_RGB('',0.0,1.0,1.0);
#383=CARTESIAN_POINT('',(0.0,7.99999999999966,0.0));
#384=AXIS2_PLACEMENT_3D('',#505,#506,#507);
#385=SURFACE_SIDE_STYLE('',(#508));
#386=DRAUGHTING_PRE_DEFINED_CURVE_FONT('continuous');
#387=COLOUR_RGB('',0.0,1.0,1.0);
#388=EDGE_LOOP('',(#509));
#389=EDGE_LOOP('',(#510));
#390=AXIS2_PLACEMENT_3D('',#511,#512,#513);
#392=SURFACE_STYLE_FILL_AREA(#514);
#393=ORIENTED_EDGE('',*,*,#118,.F.);
#394=ORIENTED_EDGE('',*,*,#108,.T.);
#395=CARTESIAN_POINT('',(-4.83735485663159E-016,-9.67470971326317E-016,7.89999999999926));
#396=DIRECTION('',(-6.12323399573677E-017,-1.22464679914735E-016,1.0));
#397=DIRECTION('',(-1.23259516440783E-032,1.0,1.22464679914735E-016));
#398=SURFACE_STYLE_FILL_AREA(#515);
#399=ORIENTED_EDGE('',*,*,#106,.F.);
#400=ORIENTED_EDGE('',*,*,#64,.T.);
#401=CARTESIAN_POINT('',(-1.22464679914794E-015,-1.38631545731671E-015,20.0000000000095));
#402=DIRECTION('',(6.12323399573677E-017,1.33523551339119E-016,-1.0));
#403=DIRECTION('',(-1.22460635382237E-016,-1.0,-1.33523551339119E-016));
#404=SURFACE_STYLE_FILL_AREA(#516);
#405=ORIENTED_EDGE('',*,*,#72,.F.);
#406=ORIENTED_EDGE('',*,*,#116,.T.);
#407=CARTESIAN_POINT('',(-7.87347880381494,1.41715614025818,156.499999999998));
#408=DIRECTION('',(0.0,0.0,1.0));
#409=DIRECTION('',(1.0,-0.0,0.0));
#410=SURFACE_STYLE_FILL_AREA(#517);
#411=ORIENTED_EDGE('',*,*,#86,.F.);
#412=ORIENTED_EDGE('',*,*,#81,.T.);
#413=CARTESIAN_POINT('',(-1.10218211923306E-015,-2.20436423846611E-015,18.0000000000071));
#414=DIRECTION('',(-6.12323399573677E-017,-1.22464679914735E-016,1.0));
#415=DIRECTION('',(-1.23259516440783E-032,1.0,1.22464679914735E-016));
#416=CARTESIAN_POINT('',(-9.13562952547823E-015,-1.82712590509564E-014,149.196152422704));
#417=DIRECTION('',(6.12323399573676E-017,1.22464679914735E-016,-1.0));
#418=DIRECTION('',(-1.23259516440783E-032,1.0,1.22464679914735E-016));
#419=SURFACE_STYLE_FILL_AREA(#518);
#420=ORIENTED_EDGE('',*,*,#102,.F.);
#421=ORIENTED_EDGE('',*,*,#100,.T.);
#422=CARTESIAN_POINT('',(-1.19403062916598E-015,-2.38806125833195E-015,19.499999999956));
#423=DIRECTION('',(-6.12323399573677E-017,-1.22464679914735E-016,1.0));
#424=DIRECTION('',(-1.23259516440783E-032,1.0,1.22464679914735E-016));
#425=SURFACE_STYLE_FILL_AREA(#519);
#426=ORIENTED_EDGE('',*,*,#79,.F.);
#427=ORIENTED_EDGE('',*,*,#77,.T.);
#428=CARTESIAN_POINT('',(-9.34179748062306E-015,-1.86835949612461E-014,152.563130645133));
#429=DIRECTION('',(-6.12323399573677E-017,-1.22464679914735E-016,1.0));
#430=DIRECTION('',(-1.23259516440783E-032,1.0,1.22464679914735E-016));
#431=CARTESIAN_POINT('',(-9.58286120332788E-015,-1.91657224066557E-014,156.499999999998));
#432=DIRECTION('',(6.12323399573677E-017,1.22464679914735E-016,-1.0));
#433=DIRECTION('',(-1.23259516440783E-032,1.0,1.22464679914735E-016));
#434=SURFACE_STYLE_FILL_AREA(#520);
#435=ORIENTED_EDGE('',*,*,#104,.F.);
#436=CARTESIAN_POINT('',(-1.20933871415803E-014,3.9999999999998,197.500000000003));
#437=DIRECTION('',(1.84859665588233E-064,-1.22464679914735E-016,1.0));
#438=DIRECTION('',(1.0,1.50949372273655E-048,0.0));
#439=CARTESIAN_POINT('',(-9.49874396764118E-015,-1.89974879352823E-014,155.126261290269));
#440=DIRECTION('',(6.12323399573677E-017,1.22464679914735E-016,-1.0));
#441=DIRECTION('',(-1.23259516440783E-032,1.0,1.22464679914735E-016));
#442=CARTESIAN_POINT('',(-9.18485099360493E-015,-1.83697019872098E-014,149.999999999996));
#443=DIRECTION('',(6.12323399573677E-017,1.22464679914735E-016,-1.0));
#444=DIRECTION('',(-1.23259516440783E-032,1.0,1.22464679914735E-016));
#445=CARTESIAN_POINT('',(-1.1634144591908E-015,-2.32682891838158E-015,19.0000000000132));
#446=DIRECTION('',(6.12323399573677E-017,1.22464679914735E-016,-1.0));
#447=DIRECTION('',(-1.23259516440783E-032,1.0,1.22464679914735E-016));
#448=SURFACE_STYLE_FILL_AREA(#521);
#449=ORIENTED_EDGE('',*,*,#72,.T.);
#450=ORIENTED_EDGE('',*,*,#77,.F.);
#451=CARTESIAN_POINT('',(-9.54080258548453E-015,-1.9081605170969E-014,155.813130645134));
#452=DIRECTION('',(6.12323399573677E-017,1.22464679914735E-016,-1.0));
#453=DIRECTION('',(-1.23259516440783E-032,1.0,1.22464679914735E-016));
#454=CARTESIAN_POINT('',(-1.04094977927532E-015,-2.08189955855063E-015,17.0000000000011));
#455=DIRECTION('',(6.12323399573677E-017,1.22464679914735E-016,-1.0));
#456=DIRECTION('',(-1.23259516440783E-032,1.0,1.22464679914735E-016));
#457=SURFACE_STYLE_FILL_AREA(#522);
#458=SURFACE_STYLE_FILL_AREA(#523);
#459=ORIENTED_EDGE('',*,*,#108,.F.);
#460=ORIENTED_EDGE('',*,*,#86,.T.);
#461=CARTESIAN_POINT('',(-1.00421037530082E-015,-2.00842075060163E-015,16.3999999999998));
#462=DIRECTION('',(-6.12323399573677E-017,-1.22464679914735E-016,1.0));
#463=DIRECTION('',(-1.23259516440783E-032,1.0,1.22464679914735E-016));
#464=SURFACE_STYLE_FILL_AREA(#524);
#465=ORIENTED_EDGE('',*,*,#118,.T.);
#466=CARTESIAN_POINT('',(0.0,3.99999999999983,0.0));
#467=DIRECTION('',(6.12323399573677E-017,1.22464679914735E-016,-1.0));
#468=DIRECTION('',(-1.0,0.0,-6.12323399573677E-017));
#469=SURFACE_STYLE_FILL_AREA(#525);
#470=ORIENTED_EDGE('',*,*,#64,.F.);
#471=ORIENTED_EDGE('',*,*,#79,.T.);
#472=CARTESIAN_POINT('',(-9.16024025954158E-015,-1.83204805190831E-014,149.59807621135));
#473=DIRECTION('',(-6.12323399573677E-017,-1.22464679914735E-016,1.0));
#474=DIRECTION('',(-1.23259516440783E-032,1.0,1.22464679914735E-016));
#475=CARTESIAN_POINT('',(-3.3646837944475E-016,-1.11702596873956E-015,19.9999999999595));
#476=DIRECTION('',(6.12323399573676E-017,1.22464679914735E-016,-1.0));
#477=DIRECTION('',(-1.43254583822529E-016,1.0,1.22464679914735E-016));
#478=CARTESIAN_POINT('',(-1.16341445918709E-015,-2.32682891837417E-015,18.9999999999526));
#479=DIRECTION('',(6.12323399573677E-017,1.22464679914735E-016,-1.0));
#480=DIRECTION('',(-1.23259516440783E-032,1.0,1.22464679914735E-016));
#481=CARTESIAN_POINT('',(-1.20933871415803E-014,-2.41867742831607E-014,197.500000000003));
#482=DIRECTION('',(6.12323399573677E-017,1.22464679914735E-016,-1.0));
#483=DIRECTION('',(-1.23259516440783E-032,1.0,1.22464679914735E-016));
#484=CARTESIAN_POINT('',(-3.36468379447812E-016,-2.44929359829587E-015,20.0000000000095));
#485=DIRECTION('',(6.12323399573677E-017,1.22464679914735E-016,-1.0));
#486=DIRECTION('',(-1.11022302462521E-016,1.0,1.22464679914735E-016));
#487=CARTESIAN_POINT('',(-9.67470971326317E-016,-1.93494194265263E-015,15.7999999999985));
#488=DIRECTION('',(6.12323399573677E-017,1.22464679914735E-016,-1.0));
#489=DIRECTION('',(-1.23259516440783E-032,1.0,1.22464679914735E-016));
#490=SURFACE_STYLE_FILL_AREA(#526);
#491=ORIENTED_EDGE('',*,*,#116,.F.);
#492=ORIENTED_EDGE('',*,*,#104,.T.);
#493=CARTESIAN_POINT('',(-1.09452807673795E-014,-2.18905615347589E-014,178.750000000001));
#494=DIRECTION('',(-6.12323399573677E-017,-1.22464679914735E-016,1.0));
#495=DIRECTION('',(-1.23259516440783E-032,1.0,1.22464679914735E-016));
#496=SURFACE_STYLE_FILL_AREA(#527);
#497=ORIENTED_EDGE('',*,*,#106,.T.);
#498=ORIENTED_EDGE('',*,*,#100,.F.);
#499=CARTESIAN_POINT('',(8.00000009999965,-8.00000009999965,19.9999999995649));
#500=DIRECTION('',(6.12323399573677E-017,2.7788264622418E-011,-1.0));
#501=DIRECTION('',(-1.0,0.0,-6.12323399573677E-017));
#502=CARTESIAN_POINT('',(-9.79717439317861E-015,-1.95943487863572E-014,156.499999999998));
#503=DIRECTION('',(6.12323399573677E-017,1.22464679914735E-016,-1.0));
#504=DIRECTION('',(-1.23259516440783E-032,1.0,1.22464679914735E-016));
#505=CARTESIAN_POINT('',(0.0,0.0,0.0));
#506=DIRECTION('',(6.12323399573677E-017,1.22464679914735E-016,-1.0));
#507=DIRECTION('',(-1.23259516440783E-032,1.0,1.22464679914735E-016));
#508=SURFACE_STYLE_FILL_AREA(#528);
#509=ORIENTED_EDGE('',*,*,#81,.F.);
#510=ORIENTED_EDGE('',*,*,#102,.T.);
#511=CARTESIAN_POINT('',(-1.16341445918894E-015,7.1750000000012,18.9999999999829));
#512=DIRECTION('',(1.83412815109743E-048,-3.10563057308091E-011,1.0));
#513=DIRECTION('',(1.0,5.90581560793272E-038,0.0));
#514=FILL_AREA_STYLE('',(#529));
#515=FILL_AREA_STYLE('',(#530));
#516=FILL_AREA_STYLE('',(#531));
#517=FILL_AREA_STYLE('',(#532));
#518=FILL_AREA_STYLE('',(#533));
#519=FILL_AREA_STYLE('',(#534));
#520=FILL_AREA_STYLE('',(#535));
#521=FILL_AREA_STYLE('',(#536));
#522=FILL_AREA_STYLE('',(#537));
#523=FILL_AREA_STYLE('',(#538));
#524=FILL_AREA_STYLE('',(#539));
#525=FILL_AREA_STYLE('',(#540));
#526=FILL_AREA_STYLE('',(#541));
#527=FILL_AREA_STYLE('',(#542));
#528=FILL_AREA_STYLE('',(#543));
#529=FILL_AREA_STYLE_COLOUR('',#544);
#530=FILL_AREA_STYLE_COLOUR('',#545);
#531=FILL_AREA_STYLE_COLOUR('',#546);
#532=FILL_AREA_STYLE_COLOUR('',#547);
#533=FILL_AREA_STYLE_COLOUR('',#548);
#534=FILL_AREA_STYLE_COLOUR('',#549);
#535=FILL_AREA_STYLE_COLOUR('',#550);
#536=FILL_AREA_STYLE_COLOUR('',#551);
#537=FILL_AREA_STYLE_COLOUR('',#552);
#538=FILL_AREA_STYLE_COLOUR('',#553);
#539=FILL_AREA_STYLE_COLOUR('',#554);
#540=FILL_AREA_STYLE_COLOUR('',#555);
#541=FILL_AREA_STYLE_COLOUR('',#556);
#542=FILL_AREA_STYLE_COLOUR('',#557);
#543=FILL_AREA_STYLE_COLOUR('',#558);
#544=COLOUR_RGB('',0.0,1.0,1.0);
#545=COLOUR_RGB('',0.0,1.0,1.0);
#546=COLOUR_RGB('',0.0,1.0,1.0);
#547=COLOUR_RGB('',0.0,1.0,1.0);
#548=COLOUR_RGB('',0.0,1.0,1.0);
#549=COLOUR_RGB('',0.0,1.0,1.0);
#550=COLOUR_RGB('',0.0,1.0,1.0);
#551=COLOUR_RGB('',0.0,1.0,1.0);
#552=COLOUR_RGB('',0.0,1.0,1.0);
#553=COLOUR_RGB('',0.0,1.0,1.0);
#554=COLOUR_RGB('',0.0,1.0,1.0);
#555=COLOUR_RGB('',0.0,1.0,1.0);
#556=COLOUR_RGB('',0.0,1.0,1.0);
#557=COLOUR_RGB('',0.0,1.0,1.0);
#558=COLOUR_RGB('',0.0,1.0,1.0);
ENDSEC;
END-ISO-10303-21;
