ISO-10303-21;
HEADER;
FILE_DESCRIPTION((''),'1');
FILE_NAME('T:/02_3D_Field-HP\X2\FF71FF6FFF8CFF9F5916\X0\2013/02_Step_Field-HP\X2\FF71FF6FFF8CFF9F5916\X0\2013/MGT6-d-100_M2-6.stp','2017-02-08T05:46:25',(''),(''),'Spatial Interop R21 SP3','Kubotek KeyCreator 2011 V10.0.2 (22737)',' ');
FILE_SCHEMA(('automotive_design'));
ENDSEC;
DATA;
#1=MECHANICAL_DESIGN_GEOMETRIC_PRESENTATION_REPRESENTATION(' ',(#10,#11,#12,#13,#14,#15,#16,#17,#18,#19,#20,#21,#22,#23,#24,#25,#26,#27,#28,#29,#30,#31,#32,#33,#34,#35,#36,#37),#6);
#2=PRODUCT_DEFINITION_CONTEXT('',#38,'design');
#3=APPLICATION_PROTOCOL_DEFINITION('INTERNATIONAL STANDARD','automotive_design',1994,#38);
#4=PRODUCT_CATEGORY_RELATIONSHIP('NONE','NONE',#39,#40);
#5=SHAPE_DEFINITION_REPRESENTATION(#41,#42);
#6= (GEOMETRIC_REPRESENTATION_CONTEXT(3)GLOBAL_UNCERTAINTY_ASSIGNED_CONTEXT((#45))GLOBAL_UNIT_ASSIGNED_CONTEXT((#47,#48,#49))REPRESENTATION_CONTEXT('NONE','WORKSPACE'));
#10=STYLED_ITEM('',(#51,#52),#53);
#11=STYLED_ITEM('',(#54),#55);
#12=STYLED_ITEM('',(#56,#57),#58);
#13=STYLED_ITEM('',(#59),#60);
#14=STYLED_ITEM('',(#61,#62),#63);
#15=STYLED_ITEM('',(#64),#65);
#16=STYLED_ITEM('',(#66),#67);
#17=STYLED_ITEM('',(#68),#69);
#18=STYLED_ITEM('',(#70),#71);
#19=STYLED_ITEM('',(#72),#73);
#20=STYLED_ITEM('',(#74,#75),#76);
#21=STYLED_ITEM('',(#77,#78),#79);
#22=STYLED_ITEM('',(#80),#81);
#23=STYLED_ITEM('',(#82,#83),#84);
#24=STYLED_ITEM('',(#85,#86),#87);
#25=STYLED_ITEM('',(#88),#89);
#26=STYLED_ITEM('',(#90,#91),#92);
#27=STYLED_ITEM('',(#93,#94),#95);
#28=STYLED_ITEM('',(#96),#97);
#29=STYLED_ITEM('',(#98,#99),#100);
#30=STYLED_ITEM('',(#101,#102),#103);
#31=STYLED_ITEM('',(#104,#105),#106);
#32=STYLED_ITEM('',(#107,#108),#109);
#33=STYLED_ITEM('',(#110),#111);
#34=STYLED_ITEM('',(#112,#113),#114);
#35=STYLED_ITEM('',(#115,#116),#117);
#36=STYLED_ITEM('',(#118),#119);
#37=STYLED_ITEM('',(#120),#121);
#38=APPLICATION_CONTEXT(' ');
#39=PRODUCT_CATEGORY('part','NONE');
#40=PRODUCT_RELATED_PRODUCT_CATEGORY('detail',' ',(#122));
#41=PRODUCT_DEFINITION_SHAPE('NONE','NONE',#123);
#42=ADVANCED_BREP_SHAPE_REPRESENTATION('240[2]',(#92,#124),#6);
#45=UNCERTAINTY_MEASURE_WITH_UNIT(LENGTH_MEASURE(1.0E-006),#47,'','');
#47= (CONVERSION_BASED_UNIT('MILLIMETRE',#127)LENGTH_UNIT()NAMED_UNIT(#130));
#48= (NAMED_UNIT(#132)PLANE_ANGLE_UNIT()SI_UNIT($,.RADIAN.));
#49= (NAMED_UNIT(#132)SOLID_ANGLE_UNIT()SI_UNIT($,.STERADIAN.));
#51=PRESENTATION_STYLE_ASSIGNMENT((#138));
#52=PRESENTATION_STYLE_ASSIGNMENT((#139));
#53=ADVANCED_FACE('240[2]',(#140,#141),#142,.T.);
#54=PRESENTATION_STYLE_ASSIGNMENT((#143));
#55=EDGE_CURVE('240[2]',#144,#144,#145,.T.);
#56=PRESENTATION_STYLE_ASSIGNMENT((#146));
#57=PRESENTATION_STYLE_ASSIGNMENT((#147));
#58=ADVANCED_FACE('240[2]',(#148,#149),#150,.T.);
#59=PRESENTATION_STYLE_ASSIGNMENT((#151));
#60=EDGE_CURVE('240[2]',#152,#152,#153,.T.);
#61=PRESENTATION_STYLE_ASSIGNMENT((#154));
#62=PRESENTATION_STYLE_ASSIGNMENT((#155));
#63=ADVANCED_FACE('240[2]',(#156,#157),#158,.T.);
#64=PRESENTATION_STYLE_ASSIGNMENT((#159));
#65=EDGE_CURVE('240[2]',#160,#160,#161,.T.);
#66=PRESENTATION_STYLE_ASSIGNMENT((#162));
#67=EDGE_CURVE('240[2]',#163,#163,#164,.T.);
#68=PRESENTATION_STYLE_ASSIGNMENT((#165));
#69=EDGE_CURVE('240[2]',#166,#166,#167,.T.);
#70=PRESENTATION_STYLE_ASSIGNMENT((#168));
#71=EDGE_CURVE('240[2]',#169,#169,#170,.T.);
#72=PRESENTATION_STYLE_ASSIGNMENT((#171));
#73=EDGE_CURVE('240[2]',#172,#172,#173,.T.);
#74=PRESENTATION_STYLE_ASSIGNMENT((#174));
#75=PRESENTATION_STYLE_ASSIGNMENT((#175));
#76=ADVANCED_FACE('240[2]',(#176,#177),#178,.T.);
#77=PRESENTATION_STYLE_ASSIGNMENT((#179));
#78=PRESENTATION_STYLE_ASSIGNMENT((#180));
#79=ADVANCED_FACE('240[2]',(#181,#182),#183,.T.);
#80=PRESENTATION_STYLE_ASSIGNMENT((#184));
#81=EDGE_CURVE('240[2]',#185,#185,#186,.T.);
#82=PRESENTATION_STYLE_ASSIGNMENT((#187));
#83=PRESENTATION_STYLE_ASSIGNMENT((#188));
#84=ADVANCED_FACE('240[2]',(#189,#190),#191,.T.);
#85=PRESENTATION_STYLE_ASSIGNMENT((#192));
#86=PRESENTATION_STYLE_ASSIGNMENT((#193));
#87=ADVANCED_FACE('240[2]',(#194,#195),#196,.T.);
#88=PRESENTATION_STYLE_ASSIGNMENT((#197));
#89=EDGE_CURVE('240[2]',#198,#198,#199,.T.);
#90=PRESENTATION_STYLE_ASSIGNMENT((#200));
#91=PRESENTATION_STYLE_ASSIGNMENT((#201));
#92=MANIFOLD_SOLID_BREP('240[2]',#202);
#93=PRESENTATION_STYLE_ASSIGNMENT((#203));
#94=PRESENTATION_STYLE_ASSIGNMENT((#204));
#95=ADVANCED_FACE('240[2]',(#205,#206),#207,.T.);
#96=PRESENTATION_STYLE_ASSIGNMENT((#208));
#97=EDGE_CURVE('240[2]',#209,#209,#210,.T.);
#98=PRESENTATION_STYLE_ASSIGNMENT((#211));
#99=PRESENTATION_STYLE_ASSIGNMENT((#212));
#100=ADVANCED_FACE('240[2]',(#213,#214),#215,.T.);
#101=PRESENTATION_STYLE_ASSIGNMENT((#216));
#102=PRESENTATION_STYLE_ASSIGNMENT((#217));
#103=ADVANCED_FACE('240[2]',(#218,#219),#220,.T.);
#104=PRESENTATION_STYLE_ASSIGNMENT((#221));
#105=PRESENTATION_STYLE_ASSIGNMENT((#222));
#106=ADVANCED_FACE('240[2]',(#223),#224,.T.);
#107=PRESENTATION_STYLE_ASSIGNMENT((#225));
#108=PRESENTATION_STYLE_ASSIGNMENT((#226));
#109=ADVANCED_FACE('240[2]',(#227,#228),#229,.T.);
#110=PRESENTATION_STYLE_ASSIGNMENT((#230));
#111=EDGE_CURVE('240[2]',#231,#231,#232,.T.);
#112=PRESENTATION_STYLE_ASSIGNMENT((#233));
#113=PRESENTATION_STYLE_ASSIGNMENT((#234));
#114=ADVANCED_FACE('240[2]',(#235),#236,.T.);
#115=PRESENTATION_STYLE_ASSIGNMENT((#237));
#116=PRESENTATION_STYLE_ASSIGNMENT((#238));
#117=ADVANCED_FACE('240[2]',(#239,#240),#241,.T.);
#118=PRESENTATION_STYLE_ASSIGNMENT((#242));
#119=EDGE_CURVE('240[2]',#243,#243,#244,.T.);
#120=PRESENTATION_STYLE_ASSIGNMENT((#245));
#121=EDGE_CURVE('240[2]',#246,#246,#247,.T.);
#122=PRODUCT('240[2]','240[2]','PART-240[2]-DESC',(#248));
#123=PRODUCT_DEFINITION('NONE','NONE',#249,#2);
#124=AXIS2_PLACEMENT_3D('',#250,#251,#252);
#127=LENGTH_MEASURE_WITH_UNIT(LENGTH_MEASURE(1.0),#253);
#130=DIMENSIONAL_EXPONENTS(1.0,0.0,0.0,0.0,0.0,0.0,0.0);
#132=DIMENSIONAL_EXPONENTS(0.0,0.0,0.0,0.0,0.0,0.0,0.0);
#138=SURFACE_STYLE_USAGE(.BOTH.,#254);
#139=CURVE_STYLE('',#255,POSITIVE_LENGTH_MEASURE(1000.0),#256);
#140=FACE_BOUND('',#257,.T.);
#141=FACE_BOUND('',#258,.T.);
#142=CONICAL_SURFACE('',#259,10.7500000000001,0.349065850398565);
#143=CURVE_STYLE('',#260,POSITIVE_LENGTH_MEASURE(1000.0),#261);
#144=VERTEX_POINT('',#262);
#145=CIRCLE('',#263,8.00000000000071);
#146=SURFACE_STYLE_USAGE(.BOTH.,#264);
#147=CURVE_STYLE('',#265,POSITIVE_LENGTH_MEASURE(1000.0),#266);
#148=FACE_BOUND('',#267,.T.);
#149=FACE_BOUND('',#268,.T.);
#150=CYLINDRICAL_SURFACE('',#269,6.20000000000312);
#151=CURVE_STYLE('',#270,POSITIVE_LENGTH_MEASURE(1000.0),#271);
#152=VERTEX_POINT('',#272);
#153=CIRCLE('',#273,7.99999999999966);
#154=SURFACE_STYLE_USAGE(.BOTH.,#274);
#155=CURVE_STYLE('',#275,POSITIVE_LENGTH_MEASURE(1000.0),#276);
#156=FACE_BOUND('',#277,.T.);
#157=FACE_BOUND('',#278,.T.);
#158=CYLINDRICAL_SURFACE('',#279,7.99999999999966);
#159=CURVE_STYLE('',#280,POSITIVE_LENGTH_MEASURE(1000.0),#281);
#160=VERTEX_POINT('',#282);
#161=CIRCLE('',#283,11.0000000000001);
#162=CURVE_STYLE('',#284,POSITIVE_LENGTH_MEASURE(1000.0),#285);
#163=VERTEX_POINT('',#286);
#164=CIRCLE('',#287,7.99999999999966);
#165=CURVE_STYLE('',#288,POSITIVE_LENGTH_MEASURE(1000.0),#289);
#166=VERTEX_POINT('',#290);
#167=CIRCLE('',#291,6.20000000000312);
#168=CURVE_STYLE('',#292,POSITIVE_LENGTH_MEASURE(1000.0),#293);
#169=VERTEX_POINT('',#294);
#170=CIRCLE('',#295,10.5000000000001);
#171=CURVE_STYLE('',#296,POSITIVE_LENGTH_MEASURE(1000.0),#297);
#172=VERTEX_POINT('',#298);
#173=CIRCLE('',#299,7.99999999999966);
#174=SURFACE_STYLE_USAGE(.BOTH.,#300);
#175=CURVE_STYLE('',#301,POSITIVE_LENGTH_MEASURE(1000.0),#302);
#176=FACE_BOUND('',#303,.T.);
#177=FACE_BOUND('',#304,.T.);
#178=CYLINDRICAL_SURFACE('',#305,8.00000000000018);
#179=SURFACE_STYLE_USAGE(.BOTH.,#306);
#180=CURVE_STYLE('',#307,POSITIVE_LENGTH_MEASURE(1000.0),#308);
#181=FACE_OUTER_BOUND('',#309,.T.);
#182=FACE_BOUND('',#310,.T.);
#183=PLANE('',#311);
#184=CURVE_STYLE('',#312,POSITIVE_LENGTH_MEASURE(1000.0),#313);
#185=VERTEX_POINT('',#314);
#186=CIRCLE('',#315,8.1499999999993);
#187=SURFACE_STYLE_USAGE(.BOTH.,#316);
#188=CURVE_STYLE('',#317,POSITIVE_LENGTH_MEASURE(1000.0),#318);
#189=FACE_BOUND('',#319,.T.);
#190=FACE_BOUND('',#320,.T.);
#191=CONICAL_SURFACE('',#321,8.07499999999948,0.124354994546199);
#192=SURFACE_STYLE_USAGE(.BOTH.,#322);
#193=CURVE_STYLE('',#323,POSITIVE_LENGTH_MEASURE(1000.0),#324);
#194=FACE_BOUND('',#325,.T.);
#195=FACE_BOUND('',#326,.T.);
#196=CYLINDRICAL_SURFACE('',#327,8.1499999999993);
#197=CURVE_STYLE('',#328,POSITIVE_LENGTH_MEASURE(1000.0),#329);
#198=VERTEX_POINT('',#330);
#199=CIRCLE('',#331,7.99999999999965);
#200=SURFACE_STYLE_USAGE(.BOTH.,#332);
#201=CURVE_STYLE('',#333,POSITIVE_LENGTH_MEASURE(1000.0),#334);
#202=CLOSED_SHELL('',(#103,#114,#106,#63,#53,#100,#95,#76,#117,#58,#79,#87,#84,#109));
#203=SURFACE_STYLE_USAGE(.BOTH.,#335);
#204=CURVE_STYLE('',#336,POSITIVE_LENGTH_MEASURE(1000.0),#337);
#205=FACE_BOUND('',#338,.T.);
#206=FACE_BOUND('',#339,.T.);
#207=CONICAL_SURFACE('',#340,9.50000000000041,1.30899693899587);
#208=CURVE_STYLE('',#341,POSITIVE_LENGTH_MEASURE(1000.0),#342);
#209=VERTEX_POINT('',#343);
#210=CIRCLE('',#344,11.0000000000001);
#211=SURFACE_STYLE_USAGE(.BOTH.,#345);
#212=CURVE_STYLE('',#346,POSITIVE_LENGTH_MEASURE(1000.0),#347);
#213=FACE_BOUND('',#348,.T.);
#214=FACE_BOUND('',#349,.T.);
#215=CYLINDRICAL_SURFACE('',#350,11.0000000000001);
#216=SURFACE_STYLE_USAGE(.BOTH.,#351);
#217=CURVE_STYLE('',#352,POSITIVE_LENGTH_MEASURE(1000.0),#353);
#218=FACE_OUTER_BOUND('',#354,.T.);
#219=FACE_BOUND('',#355,.T.);
#220=PLANE('',#356);
#221=SURFACE_STYLE_USAGE(.BOTH.,#357);
#222=CURVE_STYLE('',#358,POSITIVE_LENGTH_MEASURE(1000.0),#359);
#223=FACE_OUTER_BOUND('',#360,.T.);
#224=PLANE('',#361);
#225=SURFACE_STYLE_USAGE(.BOTH.,#362);
#226=CURVE_STYLE('',#363,POSITIVE_LENGTH_MEASURE(1000.0),#364);
#227=FACE_BOUND('',#365,.T.);
#228=FACE_BOUND('',#366,.T.);
#229=CYLINDRICAL_SURFACE('',#367,7.99999999999966);
#230=CURVE_STYLE('',#368,POSITIVE_LENGTH_MEASURE(1000.0),#369);
#231=VERTEX_POINT('',#370);
#232=CIRCLE('',#371,6.20000000000312);
#233=SURFACE_STYLE_USAGE(.BOTH.,#372);
#234=CURVE_STYLE('',#373,POSITIVE_LENGTH_MEASURE(1000.0),#374);
#235=FACE_OUTER_BOUND('',#375,.T.);
#236=PLANE('',#376);
#237=SURFACE_STYLE_USAGE(.BOTH.,#377);
#238=CURVE_STYLE('',#378,POSITIVE_LENGTH_MEASURE(1000.0),#379);
#239=FACE_OUTER_BOUND('',#380,.T.);
#240=FACE_BOUND('',#381,.T.);
#241=PLANE('',#382);
#242=CURVE_STYLE('',#383,POSITIVE_LENGTH_MEASURE(1000.0),#384);
#243=VERTEX_POINT('',#385);
#244=CIRCLE('',#386,7.99999999999966);
#245=CURVE_STYLE('',#387,POSITIVE_LENGTH_MEASURE(1000.0),#388);
#246=VERTEX_POINT('',#389);
#247=CIRCLE('',#390,8.1499999999993);
#248=PRODUCT_CONTEXT('',#38,'mechanical');
#249=PRODUCT_DEFINITION_FORMATION_WITH_SPECIFIED_SOURCE(' ','NONE',#122,.NOT_KNOWN.);
#250=CARTESIAN_POINT('',(0.0,0.0,0.0));
#251=DIRECTION('',(0.0,0.0,1.0));
#252=DIRECTION('',(1.0,0.0,0.0));
#253= (NAMED_UNIT(#130)LENGTH_UNIT()SI_UNIT(.MILLI.,.METRE.));
#254=SURFACE_SIDE_STYLE('',(#392));
#255=DRAUGHTING_PRE_DEFINED_CURVE_FONT('continuous');
#256=COLOUR_RGB('',0.0,1.0,1.0);
#257=EDGE_LOOP('',(#393));
#258=EDGE_LOOP('',(#394));
#259=AXIS2_PLACEMENT_3D('',#395,#396,#397);
#260=DRAUGHTING_PRE_DEFINED_CURVE_FONT('continuous');
#261=COLOUR_RGB('',0.0,1.0,1.0);
#262=CARTESIAN_POINT('',(-6.07401252761006E-015,8.0000000000007,99.196152422707));
#263=AXIS2_PLACEMENT_3D('',#398,#399,#400);
#264=SURFACE_SIDE_STYLE('',(#401));
#265=DRAUGHTING_PRE_DEFINED_CURVE_FONT('continuous');
#266=COLOUR_RGB('',0.0,1.0,1.0);
#267=EDGE_LOOP('',(#402));
#268=EDGE_LOOP('',(#403));
#269=AXIS2_PLACEMENT_3D('',#404,#405,#406);
#270=DRAUGHTING_PRE_DEFINED_CURVE_FONT('continuous');
#271=COLOUR_RGB('',0.0,1.0,1.0);
#272=CARTESIAN_POINT('',(-9.67470971326531E-016,7.99999999999965,15.800000000002));
#273=AXIS2_PLACEMENT_3D('',#407,#408,#409);
#274=SURFACE_SIDE_STYLE('',(#410));
#275=DRAUGHTING_PRE_DEFINED_CURVE_FONT('continuous');
#276=COLOUR_RGB('',0.0,1.0,1.0);
#277=EDGE_LOOP('',(#411));
#278=EDGE_LOOP('',(#412));
#279=AXIS2_PLACEMENT_3D('',#413,#414,#415);
#280=DRAUGHTING_PRE_DEFINED_CURVE_FONT('continuous');
#281=COLOUR_RGB('',0.0,1.0,1.0);
#282=CARTESIAN_POINT('',(-6.12323399573676E-015,11.0000000000001,99.9999999999998));
#283=AXIS2_PLACEMENT_3D('',#416,#417,#418);
#284=DRAUGHTING_PRE_DEFINED_CURVE_FONT('continuous');
#285=COLOUR_RGB('',0.0,1.0,1.0);
#286=CARTESIAN_POINT('',(-9.03177014371218E-015,7.99999999999964,147.500000000007));
#287=AXIS2_PLACEMENT_3D('',#419,#420,#421);
#288=DRAUGHTING_PRE_DEFINED_CURVE_FONT('continuous');
#289=COLOUR_RGB('',0.0,1.0,1.0);
#290=CARTESIAN_POINT('',(-1.22464679914509E-015,6.20000000000311,19.999999999963));
#291=AXIS2_PLACEMENT_3D('',#422,#423,#424);
#292=DRAUGHTING_PRE_DEFINED_CURVE_FONT('continuous');
#293=COLOUR_RGB('',0.0,1.0,1.0);
#294=CARTESIAN_POINT('',(-6.52124420545971E-015,10.5000000000001,106.500000000001));
#295=AXIS2_PLACEMENT_3D('',#425,#426,#427);
#296=DRAUGHTING_PRE_DEFINED_CURVE_FONT('continuous');
#297=COLOUR_RGB('',0.0,1.0,1.0);
#298=CARTESIAN_POINT('',(-6.73555739531044E-015,7.99999999999965,106.500000000001));
#299=AXIS2_PLACEMENT_3D('',#428,#429,#430);
#300=SURFACE_SIDE_STYLE('',(#431));
#301=DRAUGHTING_PRE_DEFINED_CURVE_FONT('continuous');
#302=COLOUR_RGB('',0.0,1.0,1.0);
#303=EDGE_LOOP('',(#432));
#304=EDGE_LOOP('',(#433));
#305=AXIS2_PLACEMENT_3D('',#434,#435,#436);
#306=SURFACE_SIDE_STYLE('',(#437));
#307=DRAUGHTING_PRE_DEFINED_CURVE_FONT('continuous');
#308=COLOUR_RGB('',0.0,1.0,1.0);
#309=EDGE_LOOP('',(#438));
#310=EDGE_LOOP('',(#439));
#311=AXIS2_PLACEMENT_3D('',#440,#441,#442);
#312=DRAUGHTING_PRE_DEFINED_CURVE_FONT('continuous');
#313=COLOUR_RGB('',0.0,1.0,1.0);
#314=CARTESIAN_POINT('',(-1.04094977927553E-015,8.14999999999929,17.0000000000046));
#315=AXIS2_PLACEMENT_3D('',#443,#444,#445);
#316=SURFACE_SIDE_STYLE('',(#446));
#317=DRAUGHTING_PRE_DEFINED_CURVE_FONT('continuous');
#318=COLOUR_RGB('',0.0,1.0,1.0);
#319=EDGE_LOOP('',(#447));
#320=EDGE_LOOP('',(#448));
#321=AXIS2_PLACEMENT_3D('',#449,#450,#451);
#322=SURFACE_SIDE_STYLE('',(#452));
#323=DRAUGHTING_PRE_DEFINED_CURVE_FONT('continuous');
#324=COLOUR_RGB('',0.0,1.0,1.0);
#325=EDGE_LOOP('',(#453));
#326=EDGE_LOOP('',(#454));
#327=AXIS2_PLACEMENT_3D('',#455,#456,#457);
#328=DRAUGHTING_PRE_DEFINED_CURVE_FONT('continuous');
#329=COLOUR_RGB('',0.0,1.0,1.0);
#330=CARTESIAN_POINT('',(-1.22464679914815E-015,7.99999999999965,20.000000000013));
#331=AXIS2_PLACEMENT_3D('',#458,#459,#460);
#332=SURFACE_SIDE_STYLE('',(#461));
#333=DRAUGHTING_PRE_DEFINED_CURVE_FONT('continuous');
#334=COLOUR_RGB('',0.0,1.0,1.0);
#335=SURFACE_SIDE_STYLE('',(#462));
#336=DRAUGHTING_PRE_DEFINED_CURVE_FONT('continuous');
#337=COLOUR_RGB('',0.0,1.0,1.0);
#338=EDGE_LOOP('',(#463));
#339=EDGE_LOOP('',(#464));
#340=AXIS2_PLACEMENT_3D('',#465,#466,#467);
#341=DRAUGHTING_PRE_DEFINED_CURVE_FONT('continuous');
#342=COLOUR_RGB('',0.0,1.0,1.0);
#343=CARTESIAN_POINT('',(-6.43712696977301E-015,11.0000000000001,105.126261290272));
#344=AXIS2_PLACEMENT_3D('',#468,#469,#470);
#345=SURFACE_SIDE_STYLE('',(#471));
#346=DRAUGHTING_PRE_DEFINED_CURVE_FONT('continuous');
#347=COLOUR_RGB('',0.0,1.0,1.0);
#348=EDGE_LOOP('',(#472));
#349=EDGE_LOOP('',(#473));
#350=AXIS2_PLACEMENT_3D('',#474,#475,#476);
#351=SURFACE_SIDE_STYLE('',(#477));
#352=DRAUGHTING_PRE_DEFINED_CURVE_FONT('continuous');
#353=COLOUR_RGB('',0.0,1.0,1.0);
#354=EDGE_LOOP('',(#478));
#355=EDGE_LOOP('',(#479));
#356=AXIS2_PLACEMENT_3D('',#480,#481,#482);
#357=SURFACE_SIDE_STYLE('',(#483));
#358=DRAUGHTING_PRE_DEFINED_CURVE_FONT('continuous');
#359=COLOUR_RGB('',0.0,1.0,1.0);
#360=EDGE_LOOP('',(#484));
#361=AXIS2_PLACEMENT_3D('',#485,#486,#487);
#362=SURFACE_SIDE_STYLE('',(#488));
#363=DRAUGHTING_PRE_DEFINED_CURVE_FONT('continuous');
#364=COLOUR_RGB('',0.0,1.0,1.0);
#365=EDGE_LOOP('',(#489));
#366=EDGE_LOOP('',(#490));
#367=AXIS2_PLACEMENT_3D('',#491,#492,#493);
#368=DRAUGHTING_PRE_DEFINED_CURVE_FONT('continuous');
#369=COLOUR_RGB('',0.0,1.0,1.0);
#370=CARTESIAN_POINT('',(-1.1634144591873E-015,6.20000000000311,18.9999999999561));
#371=AXIS2_PLACEMENT_3D('',#494,#495,#496);
#372=SURFACE_SIDE_STYLE('',(#497));
#373=DRAUGHTING_PRE_DEFINED_CURVE_FONT('continuous');
#374=COLOUR_RGB('',0.0,1.0,1.0);
#375=EDGE_LOOP('',(#498));
#376=AXIS2_PLACEMENT_3D('',#499,#500,#501);
#377=SURFACE_SIDE_STYLE('',(#502));
#378=DRAUGHTING_PRE_DEFINED_CURVE_FONT('continuous');
#379=COLOUR_RGB('',0.0,1.0,1.0);
#380=EDGE_LOOP('',(#503));
#381=EDGE_LOOP('',(#504));
#382=AXIS2_PLACEMENT_3D('',#505,#506,#507);
#383=DRAUGHTING_PRE_DEFINED_CURVE_FONT('continuous');
#384=COLOUR_RGB('',0.0,1.0,1.0);
#385=CARTESIAN_POINT('',(-2.13288759929625E-028,7.99999999999966,3.48263912266381E-012));
#386=AXIS2_PLACEMENT_3D('',#508,#509,#510);
#387=DRAUGHTING_PRE_DEFINED_CURVE_FONT('continuous');
#388=COLOUR_RGB('',0.0,1.0,1.0);
#389=CARTESIAN_POINT('',(-1.16341445919101E-015,8.14999999999929,19.0000000000167));
#390=AXIS2_PLACEMENT_3D('',#511,#512,#513);
#392=SURFACE_STYLE_FILL_AREA(#514);
#393=ORIENTED_EDGE('',*,*,#97,.F.);
#394=ORIENTED_EDGE('',*,*,#71,.T.);
#395=CARTESIAN_POINT('',(-6.47918558761636E-015,-1.29583711752327E-014,105.813130645137));
#396=DIRECTION('',(6.12323399573677E-017,1.22464679914735E-016,-1.0));
#397=DIRECTION('',(-1.23259516440783E-032,1.0,1.22464679914735E-016));
#398=CARTESIAN_POINT('',(-6.07401252761006E-015,-1.21480250552201E-014,99.1961524227071));
#399=DIRECTION('',(6.12323399573676E-017,1.22464679914735E-016,-1.0));
#400=DIRECTION('',(-1.23259516440783E-032,1.0,1.22464679914735E-016));
#401=SURFACE_STYLE_FILL_AREA(#515);
#402=ORIENTED_EDGE('',*,*,#111,.F.);
#403=ORIENTED_EDGE('',*,*,#69,.T.);
#404=CARTESIAN_POINT('',(-1.19403062916619E-015,-2.38806125833238E-015,19.4999999999595));
#405=DIRECTION('',(6.12323399573677E-017,1.22464679914735E-016,-1.0));
#406=DIRECTION('',(-1.23259516440783E-032,1.0,1.22464679914735E-016));
#407=CARTESIAN_POINT('',(-9.67470971326531E-016,-1.93494194265306E-015,15.800000000002));
#408=DIRECTION('',(6.12323399573677E-017,1.22464679914735E-016,-1.0));
#409=DIRECTION('',(-1.23259516440783E-032,1.0,1.22464679914735E-016));
#410=SURFACE_STYLE_FILL_AREA(#516);
#411=ORIENTED_EDGE('',*,*,#73,.F.);
#412=ORIENTED_EDGE('',*,*,#67,.T.);
#413=CARTESIAN_POINT('',(-7.88366376951131E-015,-1.57673275390226E-014,128.750000000004));
#414=DIRECTION('',(6.12323399573677E-017,1.22464679914735E-016,-1.0));
#415=DIRECTION('',(-1.23259516440783E-032,1.0,1.22464679914735E-016));
#416=CARTESIAN_POINT('',(-6.12323399573676E-015,-1.22464679914735E-014,99.9999999999999));
#417=DIRECTION('',(6.12323399573677E-017,1.22464679914735E-016,-1.0));
#418=DIRECTION('',(-1.23259516440783E-032,1.0,1.22464679914735E-016));
#419=CARTESIAN_POINT('',(-9.03177014371218E-015,-1.80635402874244E-014,147.500000000007));
#420=DIRECTION('',(6.12323399573677E-017,1.22464679914735E-016,-1.0));
#421=DIRECTION('',(-1.23259516440783E-032,1.0,1.22464679914735E-016));
#422=CARTESIAN_POINT('',(-1.22464679914509E-015,-2.44929359829017E-015,19.999999999963));
#423=DIRECTION('',(6.12323399573677E-017,1.22464679914735E-016,-1.0));
#424=DIRECTION('',(-1.23259516440783E-032,1.0,1.22464679914735E-016));
#425=CARTESIAN_POINT('',(-6.52124420545971E-015,-1.30424884109194E-014,106.500000000001));
#426=DIRECTION('',(6.12323399573677E-017,1.22464679914735E-016,-1.0));
#427=DIRECTION('',(-1.23259516440783E-032,1.0,1.22464679914735E-016));
#428=CARTESIAN_POINT('',(-6.73555739531044E-015,-1.34711147906209E-014,106.500000000001));
#429=DIRECTION('',(6.12323399573677E-017,1.22464679914735E-016,-1.0));
#430=DIRECTION('',(-1.23259516440783E-032,1.0,1.22464679914735E-016));
#431=SURFACE_STYLE_FILL_AREA(#517);
#432=ORIENTED_EDGE('',*,*,#89,.F.);
#433=ORIENTED_EDGE('',*,*,#55,.T.);
#434=CARTESIAN_POINT('',(-3.6493296633791E-015,-7.29865932675821E-015,59.59807621136));
#435=DIRECTION('',(6.12323399573677E-017,1.22464679914735E-016,-1.0));
#436=DIRECTION('',(-1.23259516440783E-032,1.0,1.22464679914735E-016));
#437=SURFACE_STYLE_FILL_AREA(#518);
#438=ORIENTED_EDGE('',*,*,#121,.F.);
#439=ORIENTED_EDGE('',*,*,#111,.T.);
#440=CARTESIAN_POINT('',(-1.16341445918915E-015,7.1750000000012,18.9999999999864));
#441=DIRECTION('',(1.90165027032885E-027,-3.10563057308091E-011,1.0));
#442=DIRECTION('',(1.0,6.12323399573677E-017,0.0));
#443=CARTESIAN_POINT('',(-1.04094977927553E-015,-2.08189955855106E-015,17.0000000000046));
#444=DIRECTION('',(6.12323399573677E-017,1.22464679914735E-016,-1.0));
#445=DIRECTION('',(-1.23259516440783E-032,1.0,1.22464679914735E-016));
#446=SURFACE_STYLE_FILL_AREA(#519);
#447=ORIENTED_EDGE('',*,*,#60,.F.);
#448=ORIENTED_EDGE('',*,*,#81,.T.);
#449=CARTESIAN_POINT('',(-1.00421037530103E-015,-2.00842075060206E-015,16.4000000000033));
#450=DIRECTION('',(-6.12323399573677E-017,-1.22464679914735E-016,1.0));
#451=DIRECTION('',(-1.23259516440783E-032,1.0,1.22464679914735E-016));
#452=SURFACE_STYLE_FILL_AREA(#520);
#453=ORIENTED_EDGE('',*,*,#81,.F.);
#454=ORIENTED_EDGE('',*,*,#121,.T.);
#455=CARTESIAN_POINT('',(-1.10218211923327E-015,-2.20436423846654E-015,18.0000000000106));
#456=DIRECTION('',(6.12323399573677E-017,1.22464679914735E-016,-1.0));
#457=DIRECTION('',(-1.23259516440783E-032,1.0,1.22464679914735E-016));
#458=CARTESIAN_POINT('',(-1.22464679914815E-015,-2.4492935982963E-015,20.000000000013));
#459=DIRECTION('',(6.12323399573677E-017,1.22464679914735E-016,-1.0));
#460=DIRECTION('',(-1.23259516440783E-032,1.0,1.22464679914735E-016));
#461=SURFACE_STYLE_FILL_AREA(#521);
#462=SURFACE_STYLE_FILL_AREA(#522);
#463=ORIENTED_EDGE('',*,*,#55,.F.);
#464=ORIENTED_EDGE('',*,*,#65,.T.);
#465=CARTESIAN_POINT('',(-6.09862326167341E-015,-1.21972465233468E-014,99.5980762113535));
#466=DIRECTION('',(-6.12323399573677E-017,-1.22464679914735E-016,1.0));
#467=DIRECTION('',(-1.23259516440783E-032,1.0,1.22464679914735E-016));
#468=CARTESIAN_POINT('',(-6.43712696977301E-015,-1.2874253939546E-014,105.126261290272));
#469=DIRECTION('',(6.12323399573677E-017,1.22464679914735E-016,-1.0));
#470=DIRECTION('',(-1.23259516440783E-032,1.0,1.22464679914735E-016));
#471=SURFACE_STYLE_FILL_AREA(#523);
#472=ORIENTED_EDGE('',*,*,#65,.F.);
#473=ORIENTED_EDGE('',*,*,#97,.T.);
#474=CARTESIAN_POINT('',(-6.28018048275489E-015,-1.25603609655098E-014,102.563130645136));
#475=DIRECTION('',(6.12323399573677E-017,1.22464679914735E-016,-1.0));
#476=DIRECTION('',(-1.23259516440783E-032,1.0,1.22464679914735E-016));
#477=SURFACE_STYLE_FILL_AREA(#524);
#478=ORIENTED_EDGE('',*,*,#71,.F.);
#479=ORIENTED_EDGE('',*,*,#73,.T.);
#480=CARTESIAN_POINT('',(-7.87347880381494,1.41715614025819,106.500000000001));
#481=DIRECTION('',(0.0,0.0,1.0));
#482=DIRECTION('',(-1.0,0.0,0.0));
#483=SURFACE_STYLE_FILL_AREA(#525);
#484=ORIENTED_EDGE('',*,*,#67,.F.);
#485=CARTESIAN_POINT('',(-9.03177014371218E-015,3.99999999999981,147.500000000007));
#486=DIRECTION('',(7.49879891330927E-033,-1.22464679914735E-016,1.0));
#487=DIRECTION('',(1.0,6.12323399573677E-017,0.0));
#488=SURFACE_STYLE_FILL_AREA(#526);
#489=ORIENTED_EDGE('',*,*,#119,.F.);
#490=ORIENTED_EDGE('',*,*,#60,.T.);
#491=CARTESIAN_POINT('',(-4.83735485663372E-016,-9.67470971326744E-016,7.90000000000274));
#492=DIRECTION('',(6.12323399573677E-017,1.22464679914735E-016,-1.0));
#493=DIRECTION('',(-1.23259516440783E-032,1.0,1.22464679914735E-016));
#494=CARTESIAN_POINT('',(-1.1634144591873E-015,-2.3268289183746E-015,18.9999999999561));
#495=DIRECTION('',(6.12323399573677E-017,1.22464679914735E-016,-1.0));
#496=DIRECTION('',(-1.23259516440783E-032,1.0,1.22464679914735E-016));
#497=SURFACE_STYLE_FILL_AREA(#527);
#498=ORIENTED_EDGE('',*,*,#119,.T.);
#499=CARTESIAN_POINT('',(-2.13239456123049E-028,3.99999999999983,3.48214926394415E-012));
#500=DIRECTION('',(6.12323399573677E-017,1.22464679914735E-016,-1.0));
#501=DIRECTION('',(-1.0,0.0,-6.12323399573677E-017));
#502=SURFACE_STYLE_FILL_AREA(#528);
#503=ORIENTED_EDGE('',*,*,#89,.T.);
#504=ORIENTED_EDGE('',*,*,#69,.F.);
#505=CARTESIAN_POINT('',(-1.22464679914662E-015,7.10000000000138,19.999999999988));
#506=DIRECTION('',(6.12323399573677E-017,2.7788264622418E-011,-1.0));
#507=DIRECTION('',(-1.0,0.0,-6.12323399573677E-017));
#508=CARTESIAN_POINT('',(-2.13190152316473E-028,-4.26380304632945E-028,3.48165940522449E-012));
#509=DIRECTION('',(6.12323399573677E-017,1.22464679914735E-016,-1.0));
#510=DIRECTION('',(-1.23259516440783E-032,1.0,1.22464679914735E-016));
#511=CARTESIAN_POINT('',(-1.16341445919101E-015,-2.32682891838201E-015,19.0000000000167));
#512=DIRECTION('',(6.12323399573677E-017,1.22464679914735E-016,-1.0));
#513=DIRECTION('',(-1.23259516440783E-032,1.0,1.22464679914735E-016));
#514=FILL_AREA_STYLE('',(#529));
#515=FILL_AREA_STYLE('',(#530));
#516=FILL_AREA_STYLE('',(#531));
#517=FILL_AREA_STYLE('',(#532));
#518=FILL_AREA_STYLE('',(#533));
#519=FILL_AREA_STYLE('',(#534));
#520=FILL_AREA_STYLE('',(#535));
#521=FILL_AREA_STYLE('',(#536));
#522=FILL_AREA_STYLE('',(#537));
#523=FILL_AREA_STYLE('',(#538));
#524=FILL_AREA_STYLE('',(#539));
#525=FILL_AREA_STYLE('',(#540));
#526=FILL_AREA_STYLE('',(#541));
#527=FILL_AREA_STYLE('',(#542));
#528=FILL_AREA_STYLE('',(#543));
#529=FILL_AREA_STYLE_COLOUR('',#544);
#530=FILL_AREA_STYLE_COLOUR('',#545);
#531=FILL_AREA_STYLE_COLOUR('',#546);
#532=FILL_AREA_STYLE_COLOUR('',#547);
#533=FILL_AREA_STYLE_COLOUR('',#548);
#534=FILL_AREA_STYLE_COLOUR('',#549);
#535=FILL_AREA_STYLE_COLOUR('',#550);
#536=FILL_AREA_STYLE_COLOUR('',#551);
#537=FILL_AREA_STYLE_COLOUR('',#552);
#538=FILL_AREA_STYLE_COLOUR('',#553);
#539=FILL_AREA_STYLE_COLOUR('',#554);
#540=FILL_AREA_STYLE_COLOUR('',#555);
#541=FILL_AREA_STYLE_COLOUR('',#556);
#542=FILL_AREA_STYLE_COLOUR('',#557);
#543=FILL_AREA_STYLE_COLOUR('',#558);
#544=COLOUR_RGB('',0.0,1.0,1.0);
#545=COLOUR_RGB('',0.0,1.0,1.0);
#546=COLOUR_RGB('',0.0,1.0,1.0);
#547=COLOUR_RGB('',0.0,1.0,1.0);
#548=COLOUR_RGB('',0.0,1.0,1.0);
#549=COLOUR_RGB('',0.0,1.0,1.0);
#550=COLOUR_RGB('',0.0,1.0,1.0);
#551=COLOUR_RGB('',0.0,1.0,1.0);
#552=COLOUR_RGB('',0.0,1.0,1.0);
#553=COLOUR_RGB('',0.0,1.0,1.0);
#554=COLOUR_RGB('',0.0,1.0,1.0);
#555=COLOUR_RGB('',0.0,1.0,1.0);
#556=COLOUR_RGB('',0.0,1.0,1.0);
#557=COLOUR_RGB('',0.0,1.0,1.0);
#558=COLOUR_RGB('',0.0,1.0,1.0);
ENDSEC;
END-ISO-10303-21;
