ISO-10303-21;
HEADER;
FILE_DESCRIPTION((''),'1');
FILE_NAME('T:/02_3D_Field-HP\X2\FF71FF6FFF8CFF9F5916\X0\2013/02_Step_Field-HP\X2\FF71FF6FFF8CFF9F5916\X0\2013/MGT6-d-100_031025-060049.stp','2017-02-08T07:45:07',(''),(''),'Spatial Interop R21 SP3','Kubotek KeyCreator 2011 V10.0.2 (22737)',' ');
FILE_SCHEMA(('automotive_design'));
ENDSEC;
DATA;
#1=MECHANICAL_DESIGN_GEOMETRIC_PRESENTATION_REPRESENTATION(' ',(#10,#11,#12,#13,#14,#15,#16,#17,#18,#19,#20,#21,#22,#23,#24,#25,#26,#27,#28,#29,#30,#31,#32,#33,#34,#35,#36,#37),#6);
#2=PRODUCT_DEFINITION_CONTEXT('',#38,'design');
#3=APPLICATION_PROTOCOL_DEFINITION('INTERNATIONAL STANDARD','automotive_design',1994,#38);
#4=PRODUCT_CATEGORY_RELATIONSHIP('NONE','NONE',#39,#40);
#5=SHAPE_DEFINITION_REPRESENTATION(#41,#42);
#6= (GEOMETRIC_REPRESENTATION_CONTEXT(3)GLOBAL_UNCERTAINTY_ASSIGNED_CONTEXT((#45))GLOBAL_UNIT_ASSIGNED_CONTEXT((#47,#48,#49))REPRESENTATION_CONTEXT('NONE','WORKSPACE'));
#10=STYLED_ITEM('',(#51,#52),#53);
#11=STYLED_ITEM('',(#54),#55);
#12=STYLED_ITEM('',(#56,#57),#58);
#13=STYLED_ITEM('',(#59,#60),#61);
#14=STYLED_ITEM('',(#62),#63);
#15=STYLED_ITEM('',(#64),#65);
#16=STYLED_ITEM('',(#66,#67),#68);
#17=STYLED_ITEM('',(#69),#70);
#18=STYLED_ITEM('',(#71,#72),#73);
#19=STYLED_ITEM('',(#74,#75),#76);
#20=STYLED_ITEM('',(#77,#78),#79);
#21=STYLED_ITEM('',(#80,#81),#82);
#22=STYLED_ITEM('',(#83,#84),#85);
#23=STYLED_ITEM('',(#86),#87);
#24=STYLED_ITEM('',(#88,#89),#90);
#25=STYLED_ITEM('',(#91),#92);
#26=STYLED_ITEM('',(#93),#94);
#27=STYLED_ITEM('',(#95,#96),#97);
#28=STYLED_ITEM('',(#98),#99);
#29=STYLED_ITEM('',(#100,#101),#102);
#30=STYLED_ITEM('',(#103,#104),#105);
#31=STYLED_ITEM('',(#106),#107);
#32=STYLED_ITEM('',(#108,#109),#110);
#33=STYLED_ITEM('',(#111,#112),#113);
#34=STYLED_ITEM('',(#114),#115);
#35=STYLED_ITEM('',(#116),#117);
#36=STYLED_ITEM('',(#118),#119);
#37=STYLED_ITEM('',(#120),#121);
#38=APPLICATION_CONTEXT(' ');
#39=PRODUCT_CATEGORY('part','NONE');
#40=PRODUCT_RELATED_PRODUCT_CATEGORY('detail',' ',(#122));
#41=PRODUCT_DEFINITION_SHAPE('NONE','NONE',#123);
#42=ADVANCED_BREP_SHAPE_REPRESENTATION('240[2]',(#82,#124),#6);
#45=UNCERTAINTY_MEASURE_WITH_UNIT(LENGTH_MEASURE(1.0E-006),#47,'','');
#47= (CONVERSION_BASED_UNIT('MILLIMETRE',#127)LENGTH_UNIT()NAMED_UNIT(#130));
#48= (NAMED_UNIT(#132)PLANE_ANGLE_UNIT()SI_UNIT($,.RADIAN.));
#49= (NAMED_UNIT(#132)SOLID_ANGLE_UNIT()SI_UNIT($,.STERADIAN.));
#51=PRESENTATION_STYLE_ASSIGNMENT((#138));
#52=PRESENTATION_STYLE_ASSIGNMENT((#139));
#53=ADVANCED_FACE('240[2]',(#140),#141,.T.);
#54=PRESENTATION_STYLE_ASSIGNMENT((#142));
#55=EDGE_CURVE('240[2]',#143,#143,#144,.T.);
#56=PRESENTATION_STYLE_ASSIGNMENT((#145));
#57=PRESENTATION_STYLE_ASSIGNMENT((#146));
#58=ADVANCED_FACE('240[2]',(#147,#148),#149,.T.);
#59=PRESENTATION_STYLE_ASSIGNMENT((#150));
#60=PRESENTATION_STYLE_ASSIGNMENT((#151));
#61=ADVANCED_FACE('240[2]',(#152,#153),#154,.T.);
#62=PRESENTATION_STYLE_ASSIGNMENT((#155));
#63=EDGE_CURVE('240[2]',#156,#156,#157,.T.);
#64=PRESENTATION_STYLE_ASSIGNMENT((#158));
#65=EDGE_CURVE('240[2]',#159,#159,#160,.T.);
#66=PRESENTATION_STYLE_ASSIGNMENT((#161));
#67=PRESENTATION_STYLE_ASSIGNMENT((#162));
#68=ADVANCED_FACE('240[2]',(#163,#164),#165,.T.);
#69=PRESENTATION_STYLE_ASSIGNMENT((#166));
#70=EDGE_CURVE('240[2]',#167,#167,#168,.T.);
#71=PRESENTATION_STYLE_ASSIGNMENT((#169));
#72=PRESENTATION_STYLE_ASSIGNMENT((#170));
#73=ADVANCED_FACE('240[2]',(#171,#172),#173,.T.);
#74=PRESENTATION_STYLE_ASSIGNMENT((#174));
#75=PRESENTATION_STYLE_ASSIGNMENT((#175));
#76=ADVANCED_FACE('240[2]',(#176,#177),#178,.T.);
#77=PRESENTATION_STYLE_ASSIGNMENT((#179));
#78=PRESENTATION_STYLE_ASSIGNMENT((#180));
#79=ADVANCED_FACE('240[2]',(#181,#182),#183,.T.);
#80=PRESENTATION_STYLE_ASSIGNMENT((#184));
#81=PRESENTATION_STYLE_ASSIGNMENT((#185));
#82=MANIFOLD_SOLID_BREP('240[2]',#186);
#83=PRESENTATION_STYLE_ASSIGNMENT((#187));
#84=PRESENTATION_STYLE_ASSIGNMENT((#188));
#85=ADVANCED_FACE('240[2]',(#189,#190),#191,.T.);
#86=PRESENTATION_STYLE_ASSIGNMENT((#192));
#87=EDGE_CURVE('240[2]',#193,#193,#194,.T.);
#88=PRESENTATION_STYLE_ASSIGNMENT((#195));
#89=PRESENTATION_STYLE_ASSIGNMENT((#196));
#90=ADVANCED_FACE('240[2]',(#197,#198),#199,.T.);
#91=PRESENTATION_STYLE_ASSIGNMENT((#200));
#92=EDGE_CURVE('240[2]',#201,#201,#202,.T.);
#93=PRESENTATION_STYLE_ASSIGNMENT((#203));
#94=EDGE_CURVE('240[2]',#204,#204,#205,.T.);
#95=PRESENTATION_STYLE_ASSIGNMENT((#206));
#96=PRESENTATION_STYLE_ASSIGNMENT((#207));
#97=ADVANCED_FACE('240[2]',(#208,#209),#210,.T.);
#98=PRESENTATION_STYLE_ASSIGNMENT((#211));
#99=EDGE_CURVE('240[2]',#212,#212,#213,.T.);
#100=PRESENTATION_STYLE_ASSIGNMENT((#214));
#101=PRESENTATION_STYLE_ASSIGNMENT((#215));
#102=ADVANCED_FACE('240[2]',(#216,#217),#218,.T.);
#103=PRESENTATION_STYLE_ASSIGNMENT((#219));
#104=PRESENTATION_STYLE_ASSIGNMENT((#220));
#105=ADVANCED_FACE('240[2]',(#221,#222),#223,.T.);
#106=PRESENTATION_STYLE_ASSIGNMENT((#224));
#107=EDGE_CURVE('240[2]',#225,#225,#226,.T.);
#108=PRESENTATION_STYLE_ASSIGNMENT((#227));
#109=PRESENTATION_STYLE_ASSIGNMENT((#228));
#110=ADVANCED_FACE('240[2]',(#229),#230,.T.);
#111=PRESENTATION_STYLE_ASSIGNMENT((#231));
#112=PRESENTATION_STYLE_ASSIGNMENT((#232));
#113=ADVANCED_FACE('240[2]',(#233,#234),#235,.T.);
#114=PRESENTATION_STYLE_ASSIGNMENT((#236));
#115=EDGE_CURVE('240[2]',#237,#237,#238,.T.);
#116=PRESENTATION_STYLE_ASSIGNMENT((#239));
#117=EDGE_CURVE('240[2]',#240,#240,#241,.T.);
#118=PRESENTATION_STYLE_ASSIGNMENT((#242));
#119=EDGE_CURVE('240[2]',#243,#243,#244,.T.);
#120=PRESENTATION_STYLE_ASSIGNMENT((#245));
#121=EDGE_CURVE('240[2]',#246,#246,#247,.T.);
#122=PRODUCT('240[2]','240[2]','PART-240[2]-DESC',(#248));
#123=PRODUCT_DEFINITION('NONE','NONE',#249,#2);
#124=AXIS2_PLACEMENT_3D('',#250,#251,#252);
#127=LENGTH_MEASURE_WITH_UNIT(LENGTH_MEASURE(1.0),#253);
#130=DIMENSIONAL_EXPONENTS(1.0,0.0,0.0,0.0,0.0,0.0,0.0);
#132=DIMENSIONAL_EXPONENTS(0.0,0.0,0.0,0.0,0.0,0.0,0.0);
#138=SURFACE_STYLE_USAGE(.BOTH.,#254);
#139=CURVE_STYLE('',#255,POSITIVE_LENGTH_MEASURE(1000.0),#256);
#140=FACE_OUTER_BOUND('',#257,.T.);
#141=PLANE('',#258);
#142=CURVE_STYLE('',#259,POSITIVE_LENGTH_MEASURE(1000.0),#260);
#143=VERTEX_POINT('',#261);
#144=CIRCLE('',#262,6.20000000000312);
#145=SURFACE_STYLE_USAGE(.BOTH.,#263);
#146=CURVE_STYLE('',#264,POSITIVE_LENGTH_MEASURE(1000.0),#265);
#147=FACE_BOUND('',#266,.T.);
#148=FACE_BOUND('',#267,.T.);
#149=CONICAL_SURFACE('',#268,9.50000000000041,1.30899693899587);
#150=SURFACE_STYLE_USAGE(.BOTH.,#269);
#151=CURVE_STYLE('',#270,POSITIVE_LENGTH_MEASURE(1000.0),#271);
#152=FACE_BOUND('',#272,.T.);
#153=FACE_BOUND('',#273,.T.);
#154=CONICAL_SURFACE('',#274,8.07499999999948,0.124354994546199);
#155=CURVE_STYLE('',#275,POSITIVE_LENGTH_MEASURE(1000.0),#276);
#156=VERTEX_POINT('',#277);
#157=CIRCLE('',#278,8.00000000000071);
#158=CURVE_STYLE('',#279,POSITIVE_LENGTH_MEASURE(1000.0),#280);
#159=VERTEX_POINT('',#281);
#160=CIRCLE('',#282,7.99999999999966);
#161=SURFACE_STYLE_USAGE(.BOTH.,#283);
#162=CURVE_STYLE('',#284,POSITIVE_LENGTH_MEASURE(1000.0),#285);
#163=FACE_OUTER_BOUND('',#286,.T.);
#164=FACE_BOUND('',#287,.T.);
#165=PLANE('',#288);
#166=CURVE_STYLE('',#289,POSITIVE_LENGTH_MEASURE(1000.0),#290);
#167=VERTEX_POINT('',#291);
#168=CIRCLE('',#292,7.99999999999966);
#169=SURFACE_STYLE_USAGE(.BOTH.,#293);
#170=CURVE_STYLE('',#294,POSITIVE_LENGTH_MEASURE(1000.0),#295);
#171=FACE_BOUND('',#296,.T.);
#172=FACE_BOUND('',#297,.T.);
#173=CONICAL_SURFACE('',#298,10.7500000000001,0.349065850398565);
#174=SURFACE_STYLE_USAGE(.BOTH.,#299);
#175=CURVE_STYLE('',#300,POSITIVE_LENGTH_MEASURE(1000.0),#301);
#176=FACE_OUTER_BOUND('',#302,.T.);
#177=FACE_BOUND('',#303,.T.);
#178=PLANE('',#304);
#179=SURFACE_STYLE_USAGE(.BOTH.,#305);
#180=CURVE_STYLE('',#306,POSITIVE_LENGTH_MEASURE(1000.0),#307);
#181=FACE_BOUND('',#308,.T.);
#182=FACE_BOUND('',#309,.T.);
#183=CYLINDRICAL_SURFACE('',#310,6.20000000000312);
#184=SURFACE_STYLE_USAGE(.BOTH.,#311);
#185=CURVE_STYLE('',#312,POSITIVE_LENGTH_MEASURE(1000.0),#313);
#186=CLOSED_SHELL('',(#76,#110,#53,#105,#73,#102,#58,#85,#68,#79,#90,#113,#61,#97));
#187=SURFACE_STYLE_USAGE(.BOTH.,#314);
#188=CURVE_STYLE('',#315,POSITIVE_LENGTH_MEASURE(1000.0),#316);
#189=FACE_BOUND('',#317,.T.);
#190=FACE_BOUND('',#318,.T.);
#191=CYLINDRICAL_SURFACE('',#319,8.00000000000018);
#192=CURVE_STYLE('',#320,POSITIVE_LENGTH_MEASURE(1000.0),#321);
#193=VERTEX_POINT('',#322);
#194=CIRCLE('',#323,7.99999999999966);
#195=SURFACE_STYLE_USAGE(.BOTH.,#324);
#196=CURVE_STYLE('',#325,POSITIVE_LENGTH_MEASURE(1000.0),#326);
#197=FACE_OUTER_BOUND('',#327,.T.);
#198=FACE_BOUND('',#328,.T.);
#199=PLANE('',#329);
#200=CURVE_STYLE('',#330,POSITIVE_LENGTH_MEASURE(1000.0),#331);
#201=VERTEX_POINT('',#332);
#202=CIRCLE('',#333,10.5000000000001);
#203=CURVE_STYLE('',#334,POSITIVE_LENGTH_MEASURE(1000.0),#335);
#204=VERTEX_POINT('',#336);
#205=CIRCLE('',#337,7.99999999999965);
#206=SURFACE_STYLE_USAGE(.BOTH.,#338);
#207=CURVE_STYLE('',#339,POSITIVE_LENGTH_MEASURE(1000.0),#340);
#208=FACE_BOUND('',#341,.T.);
#209=FACE_BOUND('',#342,.T.);
#210=CYLINDRICAL_SURFACE('',#343,7.99999999999966);
#211=CURVE_STYLE('',#344,POSITIVE_LENGTH_MEASURE(1000.0),#345);
#212=VERTEX_POINT('',#346);
#213=CIRCLE('',#347,8.1499999999993);
#214=SURFACE_STYLE_USAGE(.BOTH.,#348);
#215=CURVE_STYLE('',#349,POSITIVE_LENGTH_MEASURE(1000.0),#350);
#216=FACE_BOUND('',#351,.T.);
#217=FACE_BOUND('',#352,.T.);
#218=CYLINDRICAL_SURFACE('',#353,11.0000000000001);
#219=SURFACE_STYLE_USAGE(.BOTH.,#354);
#220=CURVE_STYLE('',#355,POSITIVE_LENGTH_MEASURE(1000.0),#356);
#221=FACE_BOUND('',#357,.T.);
#222=FACE_BOUND('',#358,.T.);
#223=CYLINDRICAL_SURFACE('',#359,7.99999999999966);
#224=CURVE_STYLE('',#360,POSITIVE_LENGTH_MEASURE(1000.0),#361);
#225=VERTEX_POINT('',#362);
#226=CIRCLE('',#363,11.0000000000001);
#227=SURFACE_STYLE_USAGE(.BOTH.,#364);
#228=CURVE_STYLE('',#365,POSITIVE_LENGTH_MEASURE(1000.0),#366);
#229=FACE_OUTER_BOUND('',#367,.T.);
#230=PLANE('',#368);
#231=SURFACE_STYLE_USAGE(.BOTH.,#369);
#232=CURVE_STYLE('',#370,POSITIVE_LENGTH_MEASURE(1000.0),#371);
#233=FACE_BOUND('',#372,.T.);
#234=FACE_BOUND('',#373,.T.);
#235=CYLINDRICAL_SURFACE('',#374,8.1499999999993);
#236=CURVE_STYLE('',#375,POSITIVE_LENGTH_MEASURE(1000.0),#376);
#237=VERTEX_POINT('',#377);
#238=CIRCLE('',#378,7.99999999999966);
#239=CURVE_STYLE('',#379,POSITIVE_LENGTH_MEASURE(1000.0),#380);
#240=VERTEX_POINT('',#381);
#241=CIRCLE('',#382,6.20000000000312);
#242=CURVE_STYLE('',#383,POSITIVE_LENGTH_MEASURE(1000.0),#384);
#243=VERTEX_POINT('',#385);
#244=CIRCLE('',#386,8.1499999999993);
#245=CURVE_STYLE('',#387,POSITIVE_LENGTH_MEASURE(1000.0),#388);
#246=VERTEX_POINT('',#389);
#247=CIRCLE('',#390,11.0000000000001);
#248=PRODUCT_CONTEXT('',#38,'mechanical');
#249=PRODUCT_DEFINITION_FORMATION_WITH_SPECIFIED_SOURCE(' ','NONE',#122,.NOT_KNOWN.);
#250=CARTESIAN_POINT('',(0.0,0.0,0.0));
#251=DIRECTION('',(0.0,0.0,1.0));
#252=DIRECTION('',(1.0,0.0,0.0));
#253= (NAMED_UNIT(#130)LENGTH_UNIT()SI_UNIT(.MILLI.,.METRE.));
#254=SURFACE_SIDE_STYLE('',(#392));
#255=DRAUGHTING_PRE_DEFINED_CURVE_FONT('continuous');
#256=COLOUR_RGB('',0.0,1.0,1.0);
#257=EDGE_LOOP('',(#393));
#258=AXIS2_PLACEMENT_3D('',#394,#395,#396);
#259=DRAUGHTING_PRE_DEFINED_CURVE_FONT('continuous');
#260=COLOUR_RGB('',0.0,1.0,1.0);
#261=CARTESIAN_POINT('',(-1.22464679914509E-015,6.20000000000311,19.999999999963));
#262=AXIS2_PLACEMENT_3D('',#397,#398,#399);
#263=SURFACE_SIDE_STYLE('',(#400));
#264=DRAUGHTING_PRE_DEFINED_CURVE_FONT('continuous');
#265=COLOUR_RGB('',0.0,1.0,1.0);
#266=EDGE_LOOP('',(#401));
#267=EDGE_LOOP('',(#402));
#268=AXIS2_PLACEMENT_3D('',#403,#404,#405);
#269=SURFACE_SIDE_STYLE('',(#406));
#270=DRAUGHTING_PRE_DEFINED_CURVE_FONT('continuous');
#271=COLOUR_RGB('',0.0,1.0,1.0);
#272=EDGE_LOOP('',(#407));
#273=EDGE_LOOP('',(#408));
#274=AXIS2_PLACEMENT_3D('',#409,#410,#411);
#275=DRAUGHTING_PRE_DEFINED_CURVE_FONT('continuous');
#276=COLOUR_RGB('',0.0,1.0,1.0);
#277=CARTESIAN_POINT('',(-6.07401252761006E-015,8.0000000000007,99.196152422707));
#278=AXIS2_PLACEMENT_3D('',#412,#413,#414);
#279=DRAUGHTING_PRE_DEFINED_CURVE_FONT('continuous');
#280=COLOUR_RGB('',0.0,1.0,1.0);
#281=CARTESIAN_POINT('',(-9.67470971326531E-016,7.99999999999965,15.800000000002));
#282=AXIS2_PLACEMENT_3D('',#415,#416,#417);
#283=SURFACE_SIDE_STYLE('',(#418));
#284=DRAUGHTING_PRE_DEFINED_CURVE_FONT('continuous');
#285=COLOUR_RGB('',0.0,1.0,1.0);
#286=EDGE_LOOP('',(#419));
#287=EDGE_LOOP('',(#420));
#288=AXIS2_PLACEMENT_3D('',#421,#422,#423);
#289=DRAUGHTING_PRE_DEFINED_CURVE_FONT('continuous');
#290=COLOUR_RGB('',0.0,1.0,1.0);
#291=CARTESIAN_POINT('',(-9.03177014371218E-015,7.99999999999964,147.500000000007));
#292=AXIS2_PLACEMENT_3D('',#424,#425,#426);
#293=SURFACE_SIDE_STYLE('',(#427));
#294=DRAUGHTING_PRE_DEFINED_CURVE_FONT('continuous');
#295=COLOUR_RGB('',0.0,1.0,1.0);
#296=EDGE_LOOP('',(#428));
#297=EDGE_LOOP('',(#429));
#298=AXIS2_PLACEMENT_3D('',#430,#431,#432);
#299=SURFACE_SIDE_STYLE('',(#433));
#300=DRAUGHTING_PRE_DEFINED_CURVE_FONT('continuous');
#301=COLOUR_RGB('',0.0,1.0,1.0);
#302=EDGE_LOOP('',(#434));
#303=EDGE_LOOP('',(#435));
#304=AXIS2_PLACEMENT_3D('',#436,#437,#438);
#305=SURFACE_SIDE_STYLE('',(#439));
#306=DRAUGHTING_PRE_DEFINED_CURVE_FONT('continuous');
#307=COLOUR_RGB('',0.0,1.0,1.0);
#308=EDGE_LOOP('',(#440));
#309=EDGE_LOOP('',(#441));
#310=AXIS2_PLACEMENT_3D('',#442,#443,#444);
#311=SURFACE_SIDE_STYLE('',(#445));
#312=DRAUGHTING_PRE_DEFINED_CURVE_FONT('continuous');
#313=COLOUR_RGB('',0.0,1.0,1.0);
#314=SURFACE_SIDE_STYLE('',(#446));
#315=DRAUGHTING_PRE_DEFINED_CURVE_FONT('continuous');
#316=COLOUR_RGB('',0.0,1.0,1.0);
#317=EDGE_LOOP('',(#447));
#318=EDGE_LOOP('',(#448));
#319=AXIS2_PLACEMENT_3D('',#449,#450,#451);
#320=DRAUGHTING_PRE_DEFINED_CURVE_FONT('continuous');
#321=COLOUR_RGB('',0.0,1.0,1.0);
#322=CARTESIAN_POINT('',(-2.13288759929625E-028,7.99999999999966,3.48263912266381E-012));
#323=AXIS2_PLACEMENT_3D('',#452,#453,#454);
#324=SURFACE_SIDE_STYLE('',(#455));
#325=DRAUGHTING_PRE_DEFINED_CURVE_FONT('continuous');
#326=COLOUR_RGB('',0.0,1.0,1.0);
#327=EDGE_LOOP('',(#456));
#328=EDGE_LOOP('',(#457));
#329=AXIS2_PLACEMENT_3D('',#458,#459,#460);
#330=DRAUGHTING_PRE_DEFINED_CURVE_FONT('continuous');
#331=COLOUR_RGB('',0.0,1.0,1.0);
#332=CARTESIAN_POINT('',(-6.52124420545971E-015,10.5000000000001,106.500000000001));
#333=AXIS2_PLACEMENT_3D('',#461,#462,#463);
#334=DRAUGHTING_PRE_DEFINED_CURVE_FONT('continuous');
#335=COLOUR_RGB('',0.0,1.0,1.0);
#336=CARTESIAN_POINT('',(-1.22464679914815E-015,7.99999999999965,20.000000000013));
#337=AXIS2_PLACEMENT_3D('',#464,#465,#466);
#338=SURFACE_SIDE_STYLE('',(#467));
#339=DRAUGHTING_PRE_DEFINED_CURVE_FONT('continuous');
#340=COLOUR_RGB('',0.0,1.0,1.0);
#341=EDGE_LOOP('',(#468));
#342=EDGE_LOOP('',(#469));
#343=AXIS2_PLACEMENT_3D('',#470,#471,#472);
#344=DRAUGHTING_PRE_DEFINED_CURVE_FONT('continuous');
#345=COLOUR_RGB('',0.0,1.0,1.0);
#346=CARTESIAN_POINT('',(-1.16341445919101E-015,8.14999999999929,19.0000000000167));
#347=AXIS2_PLACEMENT_3D('',#473,#474,#475);
#348=SURFACE_SIDE_STYLE('',(#476));
#349=DRAUGHTING_PRE_DEFINED_CURVE_FONT('continuous');
#350=COLOUR_RGB('',0.0,1.0,1.0);
#351=EDGE_LOOP('',(#477));
#352=EDGE_LOOP('',(#478));
#353=AXIS2_PLACEMENT_3D('',#479,#480,#481);
#354=SURFACE_SIDE_STYLE('',(#482));
#355=DRAUGHTING_PRE_DEFINED_CURVE_FONT('continuous');
#356=COLOUR_RGB('',0.0,1.0,1.0);
#357=EDGE_LOOP('',(#483));
#358=EDGE_LOOP('',(#484));
#359=AXIS2_PLACEMENT_3D('',#485,#486,#487);
#360=DRAUGHTING_PRE_DEFINED_CURVE_FONT('continuous');
#361=COLOUR_RGB('',0.0,1.0,1.0);
#362=CARTESIAN_POINT('',(-6.43712696977301E-015,11.0000000000001,105.126261290272));
#363=AXIS2_PLACEMENT_3D('',#488,#489,#490);
#364=SURFACE_SIDE_STYLE('',(#491));
#365=DRAUGHTING_PRE_DEFINED_CURVE_FONT('continuous');
#366=COLOUR_RGB('',0.0,1.0,1.0);
#367=EDGE_LOOP('',(#492));
#368=AXIS2_PLACEMENT_3D('',#493,#494,#495);
#369=SURFACE_SIDE_STYLE('',(#496));
#370=DRAUGHTING_PRE_DEFINED_CURVE_FONT('continuous');
#371=COLOUR_RGB('',0.0,1.0,1.0);
#372=EDGE_LOOP('',(#497));
#373=EDGE_LOOP('',(#498));
#374=AXIS2_PLACEMENT_3D('',#499,#500,#501);
#375=DRAUGHTING_PRE_DEFINED_CURVE_FONT('continuous');
#376=COLOUR_RGB('',0.0,1.0,1.0);
#377=CARTESIAN_POINT('',(-6.73555739531044E-015,7.99999999999965,106.500000000001));
#378=AXIS2_PLACEMENT_3D('',#502,#503,#504);
#379=DRAUGHTING_PRE_DEFINED_CURVE_FONT('continuous');
#380=COLOUR_RGB('',0.0,1.0,1.0);
#381=CARTESIAN_POINT('',(-1.1634144591873E-015,6.20000000000311,18.9999999999561));
#382=AXIS2_PLACEMENT_3D('',#505,#506,#507);
#383=DRAUGHTING_PRE_DEFINED_CURVE_FONT('continuous');
#384=COLOUR_RGB('',0.0,1.0,1.0);
#385=CARTESIAN_POINT('',(-1.04094977927553E-015,8.14999999999929,17.0000000000046));
#386=AXIS2_PLACEMENT_3D('',#508,#509,#510);
#387=DRAUGHTING_PRE_DEFINED_CURVE_FONT('continuous');
#388=COLOUR_RGB('',0.0,1.0,1.0);
#389=CARTESIAN_POINT('',(-6.12323399573676E-015,11.0000000000001,99.9999999999998));
#390=AXIS2_PLACEMENT_3D('',#511,#512,#513);
#392=SURFACE_STYLE_FILL_AREA(#514);
#393=ORIENTED_EDGE('',*,*,#70,.F.);
#394=CARTESIAN_POINT('',(-9.03177014371218E-015,3.99999999999981,147.500000000007));
#395=DIRECTION('',(-9.18338008663382E-049,-1.22464679914735E-016,1.0));
#396=DIRECTION('',(1.0,-7.49879891330927E-033,0.0));
#397=CARTESIAN_POINT('',(-1.22464679914509E-015,-2.44929359829017E-015,19.999999999963));
#398=DIRECTION('',(6.12323399573677E-017,1.22464679914735E-016,-1.0));
#399=DIRECTION('',(-1.23259516440783E-032,1.0,1.22464679914735E-016));
#400=SURFACE_STYLE_FILL_AREA(#515);
#401=ORIENTED_EDGE('',*,*,#63,.F.);
#402=ORIENTED_EDGE('',*,*,#121,.T.);
#403=CARTESIAN_POINT('',(-6.09862326167341E-015,-1.21972465233468E-014,99.5980762113535));
#404=DIRECTION('',(-6.12323399573677E-017,-1.22464679914735E-016,1.0));
#405=DIRECTION('',(-1.23259516440783E-032,1.0,1.22464679914735E-016));
#406=SURFACE_STYLE_FILL_AREA(#516);
#407=ORIENTED_EDGE('',*,*,#65,.F.);
#408=ORIENTED_EDGE('',*,*,#119,.T.);
#409=CARTESIAN_POINT('',(-1.00421037530103E-015,-2.00842075060206E-015,16.4000000000033));
#410=DIRECTION('',(-6.12323399573677E-017,-1.22464679914735E-016,1.0));
#411=DIRECTION('',(-1.23259516440783E-032,1.0,1.22464679914735E-016));
#412=CARTESIAN_POINT('',(-6.07401252761006E-015,-1.21480250552201E-014,99.1961524227071));
#413=DIRECTION('',(6.12323399573676E-017,1.22464679914735E-016,-1.0));
#414=DIRECTION('',(-1.23259516440783E-032,1.0,1.22464679914735E-016));
#415=CARTESIAN_POINT('',(-9.67470971326531E-016,-1.93494194265306E-015,15.800000000002));
#416=DIRECTION('',(6.12323399573677E-017,1.22464679914735E-016,-1.0));
#417=DIRECTION('',(-1.23259516440783E-032,1.0,1.22464679914735E-016));
#418=SURFACE_STYLE_FILL_AREA(#517);
#419=ORIENTED_EDGE('',*,*,#94,.T.);
#420=ORIENTED_EDGE('',*,*,#55,.F.);
#421=CARTESIAN_POINT('',(-1.22464679914662E-015,7.10000000000138,19.999999999988));
#422=DIRECTION('',(6.12323399573677E-017,2.7788264622418E-011,-1.0));
#423=DIRECTION('',(-1.0,0.0,-6.12323399573677E-017));
#424=CARTESIAN_POINT('',(-9.03177014371218E-015,-1.80635402874244E-014,147.500000000007));
#425=DIRECTION('',(6.12323399573677E-017,1.22464679914735E-016,-1.0));
#426=DIRECTION('',(-1.23259516440783E-032,1.0,1.22464679914735E-016));
#427=SURFACE_STYLE_FILL_AREA(#518);
#428=ORIENTED_EDGE('',*,*,#107,.F.);
#429=ORIENTED_EDGE('',*,*,#92,.T.);
#430=CARTESIAN_POINT('',(-6.47918558761636E-015,-1.29583711752327E-014,105.813130645137));
#431=DIRECTION('',(6.12323399573677E-017,1.22464679914735E-016,-1.0));
#432=DIRECTION('',(-1.23259516440783E-032,1.0,1.22464679914735E-016));
#433=SURFACE_STYLE_FILL_AREA(#519);
#434=ORIENTED_EDGE('',*,*,#92,.F.);
#435=ORIENTED_EDGE('',*,*,#115,.T.);
#436=CARTESIAN_POINT('',(-7.87347880381494,1.41715614025819,106.500000000001));
#437=DIRECTION('',(0.0,0.0,1.0));
#438=DIRECTION('',(1.0,-0.0,0.0));
#439=SURFACE_STYLE_FILL_AREA(#520);
#440=ORIENTED_EDGE('',*,*,#117,.F.);
#441=ORIENTED_EDGE('',*,*,#55,.T.);
#442=CARTESIAN_POINT('',(-1.19403062916619E-015,-2.38806125833238E-015,19.4999999999595));
#443=DIRECTION('',(-6.12323399573677E-017,-1.22464679914735E-016,1.0));
#444=DIRECTION('',(-1.23259516440783E-032,1.0,1.22464679914735E-016));
#445=SURFACE_STYLE_FILL_AREA(#521);
#446=SURFACE_STYLE_FILL_AREA(#522);
#447=ORIENTED_EDGE('',*,*,#94,.F.);
#448=ORIENTED_EDGE('',*,*,#63,.T.);
#449=CARTESIAN_POINT('',(-3.6493296633791E-015,-7.29865932675821E-015,59.59807621136));
#450=DIRECTION('',(-6.12323399573677E-017,-1.22464679914735E-016,1.0));
#451=DIRECTION('',(-1.23259516440783E-032,1.0,1.22464679914735E-016));
#452=CARTESIAN_POINT('',(-2.13190152316473E-028,-4.26380304632945E-028,3.48165940522449E-012));
#453=DIRECTION('',(6.12323399573677E-017,1.22464679914735E-016,-1.0));
#454=DIRECTION('',(-1.23259516440783E-032,1.0,1.22464679914735E-016));
#455=SURFACE_STYLE_FILL_AREA(#523);
#456=ORIENTED_EDGE('',*,*,#99,.F.);
#457=ORIENTED_EDGE('',*,*,#117,.T.);
#458=CARTESIAN_POINT('',(-1.16341445918915E-015,7.1750000000012,18.9999999999864));
#459=DIRECTION('',(-5.90582321884085E-038,-3.10563057308091E-011,1.0));
#460=DIRECTION('',(1.0,-1.90165027032885E-027,0.0));
#461=CARTESIAN_POINT('',(-6.52124420545971E-015,-1.30424884109194E-014,106.500000000001));
#462=DIRECTION('',(6.12323399573677E-017,1.22464679914735E-016,-1.0));
#463=DIRECTION('',(-1.23259516440783E-032,1.0,1.22464679914735E-016));
#464=CARTESIAN_POINT('',(-1.22464679914815E-015,-2.4492935982963E-015,20.000000000013));
#465=DIRECTION('',(6.12323399573677E-017,1.22464679914735E-016,-1.0));
#466=DIRECTION('',(-1.23259516440783E-032,1.0,1.22464679914735E-016));
#467=SURFACE_STYLE_FILL_AREA(#524);
#468=ORIENTED_EDGE('',*,*,#87,.F.);
#469=ORIENTED_EDGE('',*,*,#65,.T.);
#470=CARTESIAN_POINT('',(-4.83735485663372E-016,-9.67470971326744E-016,7.90000000000274));
#471=DIRECTION('',(-6.12323399573677E-017,-1.22464679914735E-016,1.0));
#472=DIRECTION('',(-1.23259516440783E-032,1.0,1.22464679914735E-016));
#473=CARTESIAN_POINT('',(-1.16341445919101E-015,-2.32682891838201E-015,19.0000000000167));
#474=DIRECTION('',(6.12323399573677E-017,1.22464679914735E-016,-1.0));
#475=DIRECTION('',(-1.23259516440783E-032,1.0,1.22464679914735E-016));
#476=SURFACE_STYLE_FILL_AREA(#525);
#477=ORIENTED_EDGE('',*,*,#121,.F.);
#478=ORIENTED_EDGE('',*,*,#107,.T.);
#479=CARTESIAN_POINT('',(-6.28018048275489E-015,-1.25603609655098E-014,102.563130645136));
#480=DIRECTION('',(-6.12323399573677E-017,-1.22464679914735E-016,1.0));
#481=DIRECTION('',(-1.23259516440783E-032,1.0,1.22464679914735E-016));
#482=SURFACE_STYLE_FILL_AREA(#526);
#483=ORIENTED_EDGE('',*,*,#115,.F.);
#484=ORIENTED_EDGE('',*,*,#70,.T.);
#485=CARTESIAN_POINT('',(-7.88366376951131E-015,-1.57673275390226E-014,128.750000000004));
#486=DIRECTION('',(-6.12323399573677E-017,-1.22464679914735E-016,1.0));
#487=DIRECTION('',(-1.23259516440783E-032,1.0,1.22464679914735E-016));
#488=CARTESIAN_POINT('',(-6.43712696977301E-015,-1.2874253939546E-014,105.126261290272));
#489=DIRECTION('',(6.12323399573677E-017,1.22464679914735E-016,-1.0));
#490=DIRECTION('',(-1.23259516440783E-032,1.0,1.22464679914735E-016));
#491=SURFACE_STYLE_FILL_AREA(#527);
#492=ORIENTED_EDGE('',*,*,#87,.T.);
#493=CARTESIAN_POINT('',(-2.13239456123049E-028,3.99999999999983,3.48214926394415E-012));
#494=DIRECTION('',(6.12323399573677E-017,1.22464679914735E-016,-1.0));
#495=DIRECTION('',(-1.0,0.0,-6.12323399573677E-017));
#496=SURFACE_STYLE_FILL_AREA(#528);
#497=ORIENTED_EDGE('',*,*,#119,.F.);
#498=ORIENTED_EDGE('',*,*,#99,.T.);
#499=CARTESIAN_POINT('',(-1.10218211923327E-015,-2.20436423846654E-015,18.0000000000106));
#500=DIRECTION('',(-6.12323399573677E-017,-1.22464679914735E-016,1.0));
#501=DIRECTION('',(-1.23259516440783E-032,1.0,1.22464679914735E-016));
#502=CARTESIAN_POINT('',(-6.73555739531044E-015,-1.34711147906209E-014,106.500000000001));
#503=DIRECTION('',(6.12323399573677E-017,1.22464679914735E-016,-1.0));
#504=DIRECTION('',(-1.23259516440783E-032,1.0,1.22464679914735E-016));
#505=CARTESIAN_POINT('',(-1.1634144591873E-015,-2.3268289183746E-015,18.9999999999561));
#506=DIRECTION('',(6.12323399573677E-017,1.22464679914735E-016,-1.0));
#507=DIRECTION('',(-1.23259516440783E-032,1.0,1.22464679914735E-016));
#508=CARTESIAN_POINT('',(-1.04094977927553E-015,-2.08189955855106E-015,17.0000000000046));
#509=DIRECTION('',(6.12323399573677E-017,1.22464679914735E-016,-1.0));
#510=DIRECTION('',(-1.23259516440783E-032,1.0,1.22464679914735E-016));
#511=CARTESIAN_POINT('',(-6.12323399573676E-015,-1.22464679914735E-014,99.9999999999999));
#512=DIRECTION('',(6.12323399573677E-017,1.22464679914735E-016,-1.0));
#513=DIRECTION('',(-1.23259516440783E-032,1.0,1.22464679914735E-016));
#514=FILL_AREA_STYLE('',(#529));
#515=FILL_AREA_STYLE('',(#530));
#516=FILL_AREA_STYLE('',(#531));
#517=FILL_AREA_STYLE('',(#532));
#518=FILL_AREA_STYLE('',(#533));
#519=FILL_AREA_STYLE('',(#534));
#520=FILL_AREA_STYLE('',(#535));
#521=FILL_AREA_STYLE('',(#536));
#522=FILL_AREA_STYLE('',(#537));
#523=FILL_AREA_STYLE('',(#538));
#524=FILL_AREA_STYLE('',(#539));
#525=FILL_AREA_STYLE('',(#540));
#526=FILL_AREA_STYLE('',(#541));
#527=FILL_AREA_STYLE('',(#542));
#528=FILL_AREA_STYLE('',(#543));
#529=FILL_AREA_STYLE_COLOUR('',#544);
#530=FILL_AREA_STYLE_COLOUR('',#545);
#531=FILL_AREA_STYLE_COLOUR('',#546);
#532=FILL_AREA_STYLE_COLOUR('',#547);
#533=FILL_AREA_STYLE_COLOUR('',#548);
#534=FILL_AREA_STYLE_COLOUR('',#549);
#535=FILL_AREA_STYLE_COLOUR('',#550);
#536=FILL_AREA_STYLE_COLOUR('',#551);
#537=FILL_AREA_STYLE_COLOUR('',#552);
#538=FILL_AREA_STYLE_COLOUR('',#553);
#539=FILL_AREA_STYLE_COLOUR('',#554);
#540=FILL_AREA_STYLE_COLOUR('',#555);
#541=FILL_AREA_STYLE_COLOUR('',#556);
#542=FILL_AREA_STYLE_COLOUR('',#557);
#543=FILL_AREA_STYLE_COLOUR('',#558);
#544=COLOUR_RGB('',0.0,1.0,1.0);
#545=COLOUR_RGB('',0.0,1.0,1.0);
#546=COLOUR_RGB('',0.0,1.0,1.0);
#547=COLOUR_RGB('',0.0,1.0,1.0);
#548=COLOUR_RGB('',0.0,1.0,1.0);
#549=COLOUR_RGB('',0.0,1.0,1.0);
#550=COLOUR_RGB('',0.0,1.0,1.0);
#551=COLOUR_RGB('',0.0,1.0,1.0);
#552=COLOUR_RGB('',0.0,1.0,1.0);
#553=COLOUR_RGB('',0.0,1.0,1.0);
#554=COLOUR_RGB('',0.0,1.0,1.0);
#555=COLOUR_RGB('',0.0,1.0,1.0);
#556=COLOUR_RGB('',0.0,1.0,1.0);
#557=COLOUR_RGB('',0.0,1.0,1.0);
#558=COLOUR_RGB('',0.0,1.0,1.0);
ENDSEC;
END-ISO-10303-21;
