  0
SECTION
  2
HEADER
  9
$ACADVER
  1
AC1009
  9
$INSBASE
 10
0.0
 20
0.0
 30
0.0
  9
$EXTMIN
 10
-48.5
 20
-11.0
 30
0.0
  9
$EXTMAX
 10
118.25
 20
40.000000000000021
 30
0.0
  9
$LIMMIN
 10
0.0
 20
0.0
  9
$LIMMAX
 10
297.0
 20
210.0
  9
$ORTHOMODE
 70
     0
  9
$REGENMODE
 70
     1
  9
$FILLMODE
 70
     1
  9
$QTEXTMODE
 70
     0
  9
$MIRRTEXT
 70
     1
  9
$DRAGMODE
 70
     2
  9
$LTSCALE
 40
10.0
  9
$OSMODE
 70
    55
  9
$ATTMODE
 70
     1
  9
$TEXTSIZE
 40
3.0
  9
$TRACEWID
 40
1.0
  9
$TEXTSTYLE
  7
YOKO
  9
$CLAYER
  8
240
  9
$CELTYPE
  6
BYLAYER
  9
$CECOLOR
 62
   256
  9
$DIMSCALE
 40
1.0
  9
$DIMASZ
 40
2.2299999999999991
  9
$DIMEXO
 40
0.5
  9
$DIMDLI
 40
7.0
  9
$DIMRND
 40
0.0
  9
$DIMDLE
 40
0.0
  9
$DIMEXE
 40
1.0
  9
$DIMTP
 40
0.0
  9
$DIMTM
 40
0.01
  9
$DIMTXT
 40
2.7999999999999989
  9
$DIMCEN
 40
0.0
  9
$DIMTSZ
 40
0.0
  9
$DIMTOL
 70
     0
  9
$DIMLIM
 70
     0
  9
$DIMTIH
 70
     0
  9
$DIMTOH
 70
     0
  9
$DIMSE1
 70
     0
  9
$DIMSE2
 70
     0
  9
$DIMTAD
 70
     3
  9
$DIMZIN
 70
     9
  9
$DIMBLK
  1
OPEN
  9
$DIMASO
 70
     1
  9
$DIMSHO
 70
     1
  9
$DIMPOST
  1

  9
$DIMAPOST
  1

  9
$DIMALT
 70
     0
  9
$DIMALTD
 70
     2
  9
$DIMALTF
 40
25.399999999999999
  9
$DIMLFAC
 40
1.0
  9
$DIMTOFL
 70
     1
  9
$DIMTVP
 40
0.0
  9
$DIMTIX
 70
     1
  9
$DIMSOXD
 70
     0
  9
$DIMSAH
 70
     0
  9
$DIMBLK1
  1

  9
$DIMBLK2
  1

  9
$DIMSTYLE
  2
BIGT
  9
$DIMCLRD
 70
   256
  9
$DIMCLRE
 70
   256
  9
$DIMCLRT
 70
    40
  9
$DIMTFAC
 40
1.0
  9
$DIMGAP
 40
1.0
  9
$LUNITS
 70
     2
  9
$LUPREC
 70
     6
  9
$SKETCHINC
 40
1.0
  9
$FILLETRAD
 40
0.0
  9
$AUNITS
 70
     0
  9
$AUPREC
 70
     6
  9
$MENU
  1
.
  9
$ELEVATION
 40
0.0
  9
$PELEVATION
 40
0.0
  9
$THICKNESS
 40
0.0
  9
$LIMCHECK
 70
     0
  9
$BLIPMODE
 70
     0
  9
$CHAMFERA
 40
0.2
  9
$CHAMFERB
 40
0.2
  9
$SKPOLY
 70
     0
  9
$TDCREATE
 40
2457788.71055162
  9
$TDUPDATE
 40
2457792.4870305322
  9
$TDINDWG
 40
0.0100223148
  9
$TDUSRTIMER
 40
0.0100222917
  9
$USRTIMER
 70
     1
  9
$ANGBASE
 50
0.0
  9
$ANGDIR
 70
     0
  9
$PDMODE
 70
     1
  9
$PDSIZE
 40
0.0
  9
$PLINEWID
 40
0.0
  9
$COORDS
 70
     1
  9
$SPLFRAME
 70
     0
  9
$SPLINETYPE
 70
     6
  9
$SPLINESEGS
 70
     4
  9
$ATTDIA
 70
     1
  9
$ATTREQ
 70
     1
  9
$HANDLING
 70
     1
  9
$HANDSEED
  5
44E1
  9
$SURFTAB1
 70
     6
  9
$SURFTAB2
 70
     6
  9
$SURFTYPE
 70
     6
  9
$SURFU
 70
     6
  9
$SURFV
 70
     6
  9
$UCSNAME
  2

  9
$UCSORG
 10
0.0
 20
0.0
 30
0.0
  9
$UCSXDIR
 10
1.0
 20
0.0
 30
0.0
  9
$UCSYDIR
 10
0.0
 20
1.0
 30
0.0
  9
$PUCSNAME
  2

  9
$PUCSORG
 10
0.0
 20
0.0
 30
0.0
  9
$PUCSXDIR
 10
1.0
 20
0.0
 30
0.0
  9
$PUCSYDIR
 10
0.0
 20
1.0
 30
0.0
  9
$USERI1
 70
     1
  9
$USERI2
 70
     0
  9
$USERI3
 70
     0
  9
$USERI4
 70
     0
  9
$USERI5
 70
     0
  9
$USERR1
 40
0.0
  9
$USERR2
 40
0.0
  9
$USERR3
 40
0.0
  9
$USERR4
 40
0.0
  9
$USERR5
 40
0.0
  9
$WORLDVIEW
 70
     1
  9
$SHADEDGE
 70
     3
  9
$SHADEDIF
 70
    70
  9
$TILEMODE
 70
     1
  9
$MAXACTVP
 70
    16
  9
$PLIMCHECK
 70
     0
  9
$PEXTMIN
 10
1.0000000000000000E+020
 20
1.0000000000000000E+020
 30
1.0000000000000000E+020
  9
$PEXTMAX
 10
-1.0000000000000000E+020
 20
-1.0000000000000000E+020
 30
-1.0000000000000000E+020
  9
$PLIMMIN
 10
0.0
 20
0.0
  9
$PLIMMAX
 10
420.0
 20
297.0
  9
$UNITMODE
 70
     0
  9
$VISRETAIN
 70
     1
  9
$PLINEGEN
 70
     0
  9
$PSLTSCALE
 70
     1
  0
ENDSEC
  0
SECTION
  2
TABLES
  0
TABLE
  2
VPORT
 70
     1
  0
VPORT
  2
*ACTIVE
 70
     0
 10
0.0
 20
0.0
 11
1.0
 21
1.0
 12
50.79977418522266
 22
20.860407636422011
 13
0.0
 23
0.0
 14
7.0
 24
7.0
 15
7.0
 25
7.0
 16
0.0
 26
0.0
 36
1.0
 17
0.0
 27
0.0
 37
0.0
 40
175.42791146887831
 41
1.503348214285714
 42
50.0
 43
0.0
 44
0.0
 50
0.0
 51
0.0
 71
     0
 72
  2000
 73
     1
 74
     0
 75
     1
 76
     1
 77
     0
 78
     0
  0
ENDTAB
  0
TABLE
  2
LTYPE
 70
    21
  0
LTYPE
  2
CONTINUOUS
 70
     0
  3
Solid line
 72
    65
 73
     0
 40
0.0
  0
LTYPE
  2
CENTER2
 70
     0
  3
___ _ ___ _ ___ _ ___ _ ___ _ ___ _ ___ _ ___ _
 72
    65
 73
     4
 40
1.125
 49
0.75
 49
-0.125
 49
0.125
 49
-0.125
  0
LTYPE
  2
HIDDEN2
 70
     0
  3
_ _ _ _ _ _ _ _ _ _ _ _ _ _ _ _ _ _ _ _ _ _ _ _
 72
    65
 73
     2
 40
0.1875
 49
0.125
 49
-0.0625
  0
LTYPE
  2
AM_ISO02W050
 70
     0
  3
__ __ __ __ __ __ __ __ __ __ __ __ __ __ __
 72
    65
 73
     2
 40
7.5
 49
6.0
 49
-1.5
  0
LTYPE
  2
AMCONSTR
 70
     0
  3
_______________________
 72
    65
 73
     2
 40
9999.0
 49
9999.0
 49
0.0
  0
LTYPE
  2
ACISOWELD
 70
     0
  3
_ _ _ _ _
 72
    65
 73
     2
 40
2.0
 49
2.0
 49
-1.0
  0
LTYPE
  2
ACISOTGB
 70
     0
  3
__ . . __ . .
 72
    65
 73
     6
 40
9.0
 49
4.0
 49
-1.0
 49
1.0
 49
-1.0
 49
1.0
 49
-1.0
  0
LTYPE
  2
ACISOTGL
 70
     0
  3
_ _ _ _ _
 72
    65
 73
     2
 40
3.0
 49
2.0
 49
-1.0
  0
LTYPE
  2
AM_ISO08W050
 70
     0
  3
____ . ____ . ____ . ____ . ____ . ____ . ____
 72
    65
 73
     4
 40
18.0
 49
12.0
 49
-1.5
 49
3.0
 49
-1.5
  0
LTYPE
  2
AM_ISO09W050
 70
     0
  3
_____ . . _____ . . _____ . . ____ .. ____
 72
    65
 73
     6
 40
22.5
 49
12.0
 49
-1.5
 49
3.0
 49
-1.5
 49
3.0
 49
-1.5
  0
LTYPE
  2
AM_ISO08W050X2
 70
     0
  3
__ . __ . __ . __ . __ . __
 72
    65
 73
     4
 40
9.0
 49
6.0
 49
-0.75
 49
1.5
 49
-0.75
  0
LTYPE
  2
AM_ISO02W050X2
 70
     0
  3
 _ _ _ _ _ _ _ _ _ _ _ _
 72
    65
 73
     2
 40
3.75
 49
3.0
 49
-0.75
  0
LTYPE
  2
AMZIGZAG
 70
     0
  3
/\/-/\/-/\/-/\/-/\/-/\/
 72
    65
 73
     2
 40
11.0001
 49
0.0001
 49
-11.0
  0
ENDTAB
  0
TABLE
  2
LAYER
 70
     9
  0
LAYER
  2
0
 70
     0
 62
     7
  6
CONTINUOUS
  0
LAYER
  2
DEFPOINTS
 70
     0
 62
     7
  6
CONTINUOUS
  0
LAYER
  2
245
 70
     0
 62
     2
  6
CENTER2
  0
LAYER
  2
240
 70
     0
 62
     4
  6
CONTINUOUS
  0
LAYER
  2
241
 70
     0
 62
   211
  6
CONTINUOUS
  0
LAYER
  2
243
 70
     0
 62
   211
  6
HIDDEN2
  0
LAYER
  2
244
 70
     0
 62
     3
  6
HIDDEN2
  0
LAYER
  2
247
 70
     0
 62
    60
  6
CONTINUOUS
  0
LAYER
  2
250
 70
     0
 62
     3
  6
CONTINUOUS
  0
ENDTAB
  0
TABLE
  2
STYLE
 70
     8
  0
STYLE
  2
STANDARD
 70
     0
 40
0.0
 41
1.0
 50
0.0
 71
     0
 42
3.0
  3
romans.shx
  4
extfont.shx
  0
STYLE
  2
ACISOGDT
 70
     0
 40
0.0
 41
1.0
 50
0.0
 71
     0
 42
3.0
  3
amgdt.shx
  4
extfont.shx
  0
STYLE
  2
YOKO
 70
     0
 40
0.0
 41
1.0
 50
0.0
 71
     0
 42
3.0
  3
romans.shx
  4
extfont.shx
  0
STYLE
  2

 70
     1
 40
0.0
 41
1.0
 50
0.0
 71
     0
 42
3.0
  3
genltshp.shx
  4

  0
ENDTAB
  0
TABLE
  2
VIEW
 70
     0
  0
ENDTAB
  0
TABLE
  2
UCS
 70
     0
  0
ENDTAB
  0
TABLE
  2
APPID
 70
    37
  0
APPID
  2
ACAD
 70
     0
  0
APPID
  2
GLOBAL
 70
     0
  0
APPID
  2
DETAIL
 70
     0
  0
APPID
  2
GRPNAME
 70
     0
  0
APPID
  2
GPARA
 70
     0
  0
APPID
  2
MCAD_NO_VIS
 70
     0
  0
APPID
  2
ACAD_TEMP_GRAPHIC
 70
     0
  0
APPID
  2
ACATTRIBSERVICES
 70
     0
  0
APPID
  2
GENIUS_GENSCREG_15
 70
     0
  0
APPID
  2
GENIUS_GENODEF_13
 70
     0
  0
APPID
  2
GENIUS_GENOBJ-N-SDF_13
 70
     0
  0
APPID
  2
GENIUS_GENREC_14
 70
     0
  0
APPID
  2
GENIUS_GENOBJ-N-REC_13
 70
     0
  0
APPID
  2
GENIUS_GENDIMSH_14
 70
     0
  0
APPID
  2
GENIUS_GENOBJ-N-DIM_13
 70
     0
  0
APPID
  2
GENIUS_GENDIM_13
 70
     0
  0
APPID
  2
GENIUS_GENDTOL_13
 70
     0
  0
APPID
  2
GENIUS_GENOLIS_13
 70
     0
  0
APPID
  2
GENIUS_GENOENT_13
 70
     0
  0
APPID
  2
GENIUS_GENOBJ-F-FEM_13
 70
     0
  0
APPID
  2
GENIUS_GENOREF_13
 70
     0
  0
APPID
  2
GENIUS_GEFFEM_13
 70
     0
  0
APPID
  2
GENIUS_GEFFEMP_13
 70
     0
  0
APPID
  2
AD_DRAW
 70
     0
  0
APPID
  2
DESIGNERASSEMBLIES
 70
     0
  0
APPID
  2
ACADM_DIM_EDIT
 70
     0
  0
APPID
  2
AMDT_DM_ADJ
 70
     0
  0
APPID
  2
ITEMNAME
 70
     0
  0
APPID
  2
GENIUS_GENOBJ-N-FIL_13
 70
     0
  0
APPID
  2
GENIUS_GENFIL_13
 70
     0
  0
APPID
  2
GENIUS_GENOBJ-N-CHA_13
 70
     0
  0
APPID
  2
ACAECLAYERSTANDARD
 70
     0
  0
APPID
  2
ACAD_NAV_VCDISPLAY
 70
     0
  0
APPID
  2
ACAD_EXEMPT_FROM_CAD_STANDARDS
 70
     0
  0
APPID
  2
ACAD_MLEADERVER
 70
     0
  0
APPID
  2
ACAD_DSTYLE_DIMBREAK
 70
     0
  0
APPID
  2
ACAD_DSTYLE_DIMJAG
 70
     0
  0
ENDTAB
  0
TABLE
  2
DIMSTYLE
 70
    29
  0
DIMSTYLE
  2
BIGT
 70
     0
  3

  4

  5
OPEN
  6

  7

 40
1.0
 41
2.2299999999999991
 42
0.5
 43
7.0
 44
1.0
 45
0.0
 46
0.0
 47
0.0
 48
0.01
140
2.7999999999999989
141
0.0
142
0.0
143
25.399999999999999
144
1.0
145
0.0
146
1.0
147
1.0
 71
     0
 72
     0
 73
     0
 74
     0
 75
     0
 76
     0
 77
     3
 78
     9
170
     0
171
     2
172
     1
173
     0
174
     1
175
     0
176
   256
177
   256
178
    40
  0
DIMSTYLE
  2
AM_ISO
 70
     0
  3

  4
"
  5

  6

  7

 40
1.0
 41
2.5
 42
1.0
 43
10.0
 44
1.0
 45
0.0
 46
0.0
 47
0.1
 48
0.1
140
3.5
141
0.0
142
0.0
143
0.0393701
144
1.0
145
0.0
146
0.71
147
1.5
 71
     0
 72
     0
 73
     0
 74
     0
 75
     0
 76
     0
 77
     1
 78
     8
170
     0
171
     2
172
     1
173
     0
174
     0
175
     0
176
   256
177
   256
178
     2
  0
DIMSTYLE
  2
AM_ISO$3
 70
     0
  3

  4
"
  5

  6

  7

 40
1.0
 41
2.5
 42
1.0
 43
10.0
 44
1.0
 45
0.0
 46
0.0
 47
0.1
 48
0.1
140
3.5
141
0.0
142
0.0
143
0.0393701
144
1.0
145
0.0
146
0.71
147
1.5
 71
     0
 72
     0
 73
     0
 74
     1
 75
     0
 76
     0
 77
     1
 78
     8
170
     0
171
     2
172
     0
173
     0
174
     0
175
     0
176
   256
177
   256
178
     2
  0
DIMSTYLE
  2
AM_ISO$4
 70
     0
  3

  4
"
  5

  6

  7

 40
1.0
 41
2.5
 42
1.0
 43
10.0
 44
1.0
 45
0.0
 46
0.0
 47
0.1
 48
0.1
140
3.5
141
0.0
142
0.0
143
0.0393701
144
1.0
145
0.0
146
0.71
147
1.5
 71
     0
 72
     0
 73
     0
 74
     1
 75
     0
 76
     0
 77
     1
 78
     8
170
     0
171
     2
172
     0
173
     0
174
     0
175
     0
176
   256
177
   256
178
     2
  0
DIMSTYLE
  2
AM_ISO$6
 70
     0
  3

  4
"
  5

  6

  7

 40
1.0
 41
2.5
 42
1.0
 43
10.0
 44
1.0
 45
0.0
 46
0.0
 47
0.1
 48
0.1
140
3.5
141
0.0
142
0.0
143
0.0393701
144
1.0
145
0.0
146
0.71
147
1.5
 71
     0
 72
     0
 73
     0
 74
     0
 75
     0
 76
     0
 77
     0
 78
     8
170
     0
171
     2
172
     1
173
     0
174
     0
175
     0
176
   256
177
   256
178
     2
  0
DIMSTYLE
  2
AM_ISO$7
 70
     0
  3

  4
"
  5

  6

  7

 40
1.0
 41
2.5
 42
1.0
 43
10.0
 44
1.0
 45
0.0
 46
0.0
 47
0.1
 48
0.1
140
5.0
141
0.0
142
0.0
143
0.0393701
144
1.0
145
0.0
146
0.71
147
1.5
 71
     0
 72
     0
 73
     0
 74
     0
 75
     0
 76
     0
 77
     1
 78
     8
170
     0
171
     2
172
     1
173
     0
174
     0
175
     0
176
   256
177
   256
178
     2
  0
DIMSTYLE
  2
AM_ISO$SF
 70
     0
  3

  4
"
  5

  6

  7

 40
1.0
 41
2.5
 42
1.0
 43
10.0
 44
1.0
 45
0.0
 46
0.0
 47
0.1
 48
0.1
140
3.5
141
0.0
142
0.0
143
0.0393701
144
1.0
145
0.0
146
0.71
147
1.5
 71
     0
 72
     0
 73
     0
 74
     0
 75
     1
 76
     1
 77
     1
 78
     8
170
     0
171
     2
172
     1
173
     0
174
     0
175
     0
176
   256
177
   256
178
     2
  0
DIMSTYLE
  2
AM_ISO$SH
 70
     0
  3

  4
"
  5

  6
GENAXEH
  7

 40
1.0
 41
2.5
 42
1.0
 43
10.0
 44
1.0
 45
0.0
 46
0.0
 47
0.1
 48
0.1
140
3.5
141
0.0
142
0.0
143
0.0393701
144
2.0
145
0.0
146
0.71
147
1.5
 71
     0
 72
     0
 73
     0
 74
     0
 75
     1
 76
     1
 77
     1
 78
     8
170
     0
171
     2
172
     1
173
     1
174
     0
175
     0
176
   256
177
   256
178
     2
  0
ENDTAB
  0
ENDSEC
  0
SECTION
  2
BLOCKS
  0
BLOCK
  8
0
  2
$MODEL_SPACE
 70
     0
 10
0.0
 20
0.0
 30
0.0
  3
$MODEL_SPACE
  1

  0
ENDBLK
  5
1C
  8
0
  0
BLOCK
 67
     1
  8
0
  2
$PAPER_SPACE
 70
     0
 10
0.0
 20
0.0
 30
0.0
  3
$PAPER_SPACE
  1

  0
ENDBLK
  5
19
 67
     1
  8
0
  0
BLOCK
  8
0
  2
_OPEN
 70
     0
 10
0.0
 20
0.0
 30
0.0
  3
_OPEN
  1

  0
LINE
  5
3E1A
  8
0
  6
BYBLOCK
 62
     0
 10
-1.0
 20
0.1666666666666666
 30
0.0
 11
0.0
 21
0.0
 31
0.0
  0
LINE
  5
3E1B
  8
0
  6
BYBLOCK
 62
     0
 10
-1.0
 20
-0.1666666666666666
 30
0.0
 11
0.0
 21
0.0
 31
0.0
  0
LINE
  5
3E1C
  8
0
  6
BYBLOCK
 62
     0
 10
0.0
 20
0.0
 30
0.0
 11
-1.0
 21
0.0
 31
0.0
  0
ENDBLK
  5
3E1D
  8
0
  0
BLOCK
  8
0
  2
GENAXEH
 70
     0
 10
0.0
 20
0.0
 30
0.0
  3
GENAXEH
  1

  0
LINE
  5
3E45
  8
0
 10
-1.0
 20
0.0
 30
0.0
 11
1.0
 21
0.0
 31
0.0
  0
ENDBLK
  5
3E46
  8
0
  0
ENDSEC
  0
SECTION
  2
ENTITIES
  0
TEXT
  5
42E9
  8
241
  6
CONTINUOUS
 10
-47.5
 20
35.0
 30
0.0
 40
5.0
  1
MGT6-050040-100
  7
YOKO
 11
-47.5
 21
35.0
 31
0.0
 73
     1
  0
LINE
  5
42EA
  8
250
  6
CONTINUOUS
 10
82.061011956899165
 20
14.068723459999999
 30
0.0
 11
93.047678616899148
 21
14.068723459999999
 31
0.0
1001
ITEMNAME
1000
LNSP2
  0
LINE
  5
42EC
  8
250
  6
CONTINUOUS
 10
110.25
 20
-5.9514533505115681
 30
0.0
 11
110.25
 21
6.0061701485045917
 31
0.0
  0
LINE
  5
42ED
  8
250
  6
CONTINUOUS
 10
100.5
 20
2.5
 30
0.0
 11
111.25
 21
2.5
 31
0.0
  0
LINE
  5
42EE
  8
240
  6
CONTINUOUS
 10
-34.0
 20
6.0
 30
0.0
 11
-29.0
 21
6.0
 31
0.0
  0
LINE
  5
42EF
  8
240
  6
CONTINUOUS
 10
-34.0
 20
-6.0
 30
0.0
 11
-29.0
 21
-6.0
 31
0.0
  0
LINE
  5
42F0
  8
245
  6
CENTER2
 10
-48.5
 20
0.0
 30
0.0
 11
101.0
 21
0.0
 31
0.0
1001
GENIUS_GENOREF_13
1005
0
  0
LINE
  5
42F1
  8
245
  6
CENTER2
 10
-34.0
 20
-8.0
 30
0.0
 11
-34.0
 21
8.0
 31
0.0
  0
LINE
  5
42F2
  8
240
  6
CONTINUOUS
 10
-47.5
 20
-8.0
 30
0.0
 11
-41.0
 21
-8.0
 31
0.0
  0
LINE
  5
42F3
  8
240
  6
CONTINUOUS
 10
-39.0
 20
-6.0
 30
0.0
 11
-41.0
 21
-8.0
 31
0.0
  0
LINE
  5
42F4
  8
240
  6
CONTINUOUS
 10
-39.0
 20
-6.0
 30
0.0
 11
-34.0
 21
-6.0
 31
0.0
  0
LINE
  5
42F5
  8
240
  6
CONTINUOUS
 10
-47.5
 20
8.0
 30
0.0
 11
-41.0
 21
8.0
 31
0.0
  0
LINE
  5
42F6
  8
240
  6
CONTINUOUS
 10
-47.5
 20
8.0
 30
0.0
 11
-47.5
 21
-8.0
 31
0.0
  0
LINE
  5
42F7
  8
240
  6
CONTINUOUS
 10
-39.0
 20
6.0
 30
0.0
 11
-34.0
 21
6.0
 31
0.0
  0
LINE
  5
42F8
  8
240
  6
CONTINUOUS
 10
-39.0
 20
6.0
 30
0.0
 11
-41.0
 21
8.0
 31
0.0
  0
LINE
  5
42F9
  8
240
  6
CONTINUOUS
 10
100.0
 20
-8.0
 30
0.0
 11
100.0
 21
8.0
 31
0.0
  0
LINE
  5
42FA
  8
241
  6
CONTINUOUS
 10
84.199999999999989
 20
-8.0
 30
0.0
 11
84.199999999999989
 21
8.0
 31
0.0
  0
LINE
  5
42FB
  8
241
  6
CONTINUOUS
 10
83.0
 20
-8.1500000000000004
 30
0.0
 11
83.0
 21
8.1500000000000004
 31
0.0
  0
LINE
  5
42FC
  8
241
  6
CONTINUOUS
 10
80.0
 20
-6.2000000000000002
 30
0.0
 11
80.0
 21
6.2000000000000002
 31
0.0
  0
LINE
  5
42FD
  8
241
  6
CONTINUOUS
 10
0.80384758
 20
-8.3587439700000008
 30
0.0
 11
0.80384758
 21
8.3587439700000008
 31
0.0
  0
LINE
  5
42FE
  8
241
  6
CONTINUOUS
 10
-6.5
 20
-8.0
 30
0.0
 11
-6.4999999999999991
 21
8.0
 31
0.0
  0
LINE
  5
42FF
  8
241
  6
CONTINUOUS
 10
0.0
 20
-11.0
 30
0.0
 11
0.0
 21
11.0
 31
0.0
  0
LINE
  5
4300
  8
241
  6
CONTINUOUS
 10
-14.5
 20
-8.0
 30
0.0
 11
-14.5
 21
8.0
 31
0.0
  0
LINE
  5
4301
  8
241
  6
CONTINUOUS
 10
-16.5
 20
-8.0
 30
0.0
 11
-16.5
 21
8.0
 31
0.0
  0
LINE
  5
4302
  8
241
  6
CONTINUOUS
 10
-23.5
 20
-8.0
 30
0.0
 11
-23.5
 21
8.0
 31
0.0
  0
LINE
  5
4303
  8
241
  6
CONTINUOUS
 10
-25.5
 20
-8.0
 30
0.0
 11
-25.5
 21
8.0
 31
0.0
  0
LINE
  5
4304
  8
240
  6
CONTINUOUS
 10
80.0
 20
-8.0
 30
0.0
 11
1.571174569999999
 21
-8.0
 31
0.0
  0
LINE
  5
4305
  8
240
  6
CONTINUOUS
 10
-29.0
 20
-6.0
 30
0.0
 11
-27.0
 21
-8.0
 31
0.0
  0
LINE
  5
4306
  8
240
  6
CONTINUOUS
 10
-27.0
 20
-8.0
 30
0.0
 11
-6.5
 21
-8.0
 31
0.0
  0
LINE
  5
4307
  8
240
  6
CONTINUOUS
 10
-6.5
 20
-10.500000010000001
 30
0.0
 11
-5.1262612799999987
 21
-11.0
 31
0.0
  0
LINE
  5
4308
  8
240
  6
CONTINUOUS
 10
0.0000000033040886
 20
-11.0
 30
0.0
 11
-5.1262612900000004
 21
-11.0
 31
0.0
  0
ARC
  5
4309
  8
240
  6
CONTINUOUS
 10
1.571174569999999
 20
-9.0
 30
0.0
 40
1.0
 50
90.0
 51
165.00000008000001
  0
LINE
  5
430A
  8
240
  6
CONTINUOUS
 10
0.0000000033040886
 20
-11.0
 30
0.0
 11
0.60524874
 21
-8.7411809599999977
 31
0.0
  0
LINE
  5
430B
  8
240
  6
CONTINUOUS
 10
83.150000000000006
 20
-8.0
 30
0.0
 11
100.0
 21
-8.0
 31
0.0
  0
LINE
  5
430C
  8
240
  6
CONTINUOUS
 10
81.0
 20
-8.1500000000000004
 30
0.0
 11
83.0
 21
-8.1500000000000004
 31
0.0
  0
LINE
  5
430D
  8
240
  6
CONTINUOUS
 10
81.0
 20
-6.2000000000000002
 30
0.0
 11
81.0
 21
-8.1500000000000004
 31
0.0
  0
LINE
  5
430E
  8
240
  6
CONTINUOUS
 10
80.0
 20
-6.2000000000000002
 30
0.0
 11
80.0
 21
-8.0
 31
0.0
  0
LINE
  5
430F
  8
240
  6
CONTINUOUS
 10
81.0
 20
-6.2000000000000002
 30
0.0
 11
80.0
 21
-6.2000000000000002
 31
0.0
  0
LINE
  5
4310
  8
240
  6
CONTINUOUS
 10
83.150000000000006
 20
-8.0
 30
0.0
 11
83.0
 21
-8.1500000000000004
 31
0.0
  0
LINE
  5
4311
  8
240
  6
CONTINUOUS
 10
80.0
 20
8.0
 30
0.0
 11
1.571174569999999
 21
8.0
 31
0.0
  0
LINE
  5
4312
  8
240
  6
CONTINUOUS
 10
-29.0
 20
6.0
 30
0.0
 11
-27.0
 21
8.0
 31
0.0
  0
LINE
  5
4313
  8
240
  6
CONTINUOUS
 10
-27.0
 20
8.0
 30
0.0
 11
-6.5
 21
8.0
 31
0.0
  0
LINE
  5
4314
  8
240
  6
CONTINUOUS
 10
-6.5000000099999991
 20
10.5
 30
0.0
 11
-5.1262612799999987
 21
11.0
 31
0.0
  0
LINE
  5
4315
  8
240
  6
CONTINUOUS
 10
0.0000000033040884
 20
11.0
 30
0.0
 11
0.60524874
 21
8.7411809599999977
 31
0.0
  0
ARC
  5
4316
  8
240
  6
CONTINUOUS
 10
1.571174569999999
 20
9.0
 30
0.0
 40
1.0
 50
194.99999991999991
 51
270.0
  0
LINE
  5
4317
  8
240
  6
CONTINUOUS
 10
0.0000000033040884
 20
11.0
 30
0.0
 11
-5.1262612900000004
 21
11.0
 31
0.0
  0
LINE
  5
4318
  8
240
  6
CONTINUOUS
 10
83.150000000000006
 20
8.0
 30
0.0
 11
100.0
 21
8.0
 31
0.0
  0
LINE
  5
4319
  8
243
  6
HIDDEN2
 10
82.0
 20
2.5
 30
0.0
 11
100.0
 21
2.5
 31
0.0
  0
LINE
  5
431A
  8
240
  6
CONTINUOUS
 10
81.0
 20
8.1500000000000004
 30
0.0
 11
83.0
 21
8.1500000000000004
 31
0.0
  0
LINE
  5
431B
  8
244
  6
HIDDEN2
 10
74.0
 20
2.8991377999999992
 30
0.0
 11
82.0
 21
0.0
 31
0.0
  0
LINE
  5
431C
  8
243
  6
HIDDEN2
 10
74.0
 20
2.8991377999999992
 30
0.0
 11
82.0
 21
2.8991377999999992
 31
0.0
  0
LINE
  5
431D
  8
244
  6
HIDDEN2
 10
74.0
 20
0.0
 30
0.0
 11
82.0
 21
2.8991377999999992
 31
0.0
  0
LINE
  5
431E
  8
241
  6
CONTINUOUS
 10
81.0
 20
6.2000000000000002
 30
0.0
 11
81.0
 21
-6.2000000000000002
 31
0.0
  0
LINE
  5
431F
  8
240
  6
CONTINUOUS
 10
80.0
 20
6.2000000000000002
 30
0.0
 11
80.0
 21
8.0
 31
0.0
  0
LINE
  5
4320
  8
240
  6
CONTINUOUS
 10
81.0
 20
6.2000000000000002
 30
0.0
 11
80.0
 21
6.2000000000000002
 31
0.0
  0
LINE
  5
4321
  8
240
  6
CONTINUOUS
 10
81.0
 20
6.2000000000000002
 30
0.0
 11
81.0
 21
8.1500000000000004
 31
0.0
  0
LINE
  5
4322
  8
240
  6
CONTINUOUS
 10
83.150000000000006
 20
8.0
 30
0.0
 11
83.0
 21
8.1500000000000004
 31
0.0
  0
LINE
  5
4323
  8
250
  6
CONTINUOUS
 10
0.0
 20
11.141256029999999
 30
0.0
 11
0.0
 21
22.0
 31
0.0
  0
LINE
  5
4324
  8
250
  6
CONTINUOUS
 10
100.0
 20
8.5
 30
0.0
 11
100.0
 21
22.0
 31
0.0
  0
LINE
  5
4325
  8
250
  6
CONTINUOUS
 10
2.2299999999999991
 20
21.0
 30
0.0
 11
97.77000000000001
 21
21.0
 31
0.0
  0
LINE
  5
4326
  8
250
  6
CONTINUOUS
 10
109.8783333333333
 20
4.7300000000000004
 30
0.0
 11
110.25
 21
2.5
 31
0.0
  0
LINE
  5
4327
  8
250
  6
CONTINUOUS
 10
110.6216666666666
 20
4.7300000000000004
 30
0.0
 11
110.25
 21
2.5
 31
0.0
  0
TEXT
  5
4328
  8
250
  6
CONTINUOUS
 10
109.25
 20
-3.1708546499999981
 30
0.0
 40
2.799999999999998
  1
\U+22055
 50
90.0
1001
ACAD
1000
MTEXTBEGIN
1070
    73
1070
     1
1070
    44
1040
1.0
1070
    74
1070
     0
1000
MTEXTEND
1000
MTEXTBEGIN
1070
    73
1070
     1
1070
    44
1040
1.0
1070
    74
1070
     0
1000
MTEXTEND
1000
MTEXTBEGIN
1070
    73
1070
     1
1070
    44
1040
1.0
1070
    74
1070
     0
1000
MTEXTEND
1000
MTEXTBEGIN
1070
    73
1070
     1
1070
    44
1040
1.0
1070
    74
1070
     0
1000
MTEXTEND
1000
MTEXTBEGIN
1070
    73
1070
     1
1070
    44
1040
1.0
1070
    74
1070
     0
1000
MTEXTEND
1000
MTEXTBEGIN
1070
    73
1070
     1
1070
    44
1040
1.0
1070
    74
1070
     0
1000
MTEXTEND
  0
LINE
  5
4329
  8
250
  6
CONTINUOUS
 10
100.5
 20
-8.0
 30
0.0
 11
118.25
 21
-8.0
 31
0.0
  0
LINE
  5
432A
  8
250
  6
CONTINUOUS
 10
100.5
 20
8.0
 30
0.0
 11
118.25
 21
8.0
 31
0.0
  0
LINE
  5
432B
  8
250
  6
CONTINUOUS
 10
117.25
 20
-5.7699999999999987
 30
0.0
 11
117.25
 21
5.7699999999999987
 31
0.0
  0
POLYLINE
  5
432D
  8
250
  6
CONTINUOUS
 66
     1
 10
0.0
 20
0.0
 30
0.0
1001
ACAD
1000
DSTYLE
1002
{
1070
     6
1000
OPEN
1070
    41
1040
2.0
1070
    42
1040
2.0
1070
    44
1040
2.0
1070
   140
1040
4.0
1070
   343
1005
0
1002
}
  0
VERTEX
  5
432E
  8
250
  6
CONTINUOUS
 10
77.701272011070003
 20
4.7120034045680272
 30
0.0
  0
VERTEX
  5
432F
  8
250
  6
CONTINUOUS
 10
82.061011956899165
 20
14.068723459999999
 30
0.0
  0
SEQEND
  5
4330
  8
250
  6
CONTINUOUS
  0
LINE
  5
4331
  8
250
  6
CONTINUOUS
 10
78.00341627849798
 20
4.571220050539555
 30
0.0
 11
76.856571886899175
 21
2.8991377999999992
 31
0.0
  0
LINE
  5
4332
  8
250
  6
CONTINUOUS
 10
77.399127743641969
 20
4.852786758596495
 30
0.0
 11
76.856571886899175
 21
2.8991377999999992
 31
0.0
  0
LINE
  5
4333
  8
250
  6
CONTINUOUS
 10
76.856571886899175
 20
2.8991377999999992
 30
0.0
 11
77.701272011070003
 21
4.7120034045680272
 31
0.0
  0
LINE
  5
4334
  8
250
  6
CONTINUOUS
 10
2.2299999999999991
 20
20.62833333333333
 30
0.0
 11
0.0
 21
21.0
 31
0.0
  0
LINE
  5
4335
  8
250
  6
CONTINUOUS
 10
2.2299999999999991
 20
21.37166666666667
 30
0.0
 11
0.0
 21
21.0
 31
0.0
  0
LINE
  5
4336
  8
250
  6
CONTINUOUS
 10
0.0
 20
21.0
 30
0.0
 11
2.2299999999999991
 21
21.0
 31
0.0
  0
LINE
  5
4337
  8
250
  6
CONTINUOUS
 10
97.77000000000001
 20
21.37166666666667
 30
0.0
 11
100.0
 21
21.0
 31
0.0
  0
LINE
  5
4338
  8
250
  6
CONTINUOUS
 10
97.77000000000001
 20
20.62833333333333
 30
0.0
 11
100.0
 21
21.0
 31
0.0
  0
LINE
  5
4339
  8
250
  6
CONTINUOUS
 10
100.0
 20
21.0
 30
0.0
 11
97.77000000000001
 21
21.0
 31
0.0
  0
LINE
  5
433A
  8
250
  6
CONTINUOUS
 10
116.8783333333333
 20
5.7699999999999987
 30
0.0
 11
117.25
 21
8.0
 31
0.0
  0
LINE
  5
433B
  8
250
  6
CONTINUOUS
 10
117.6216666666666
 20
5.7699999999999987
 30
0.0
 11
117.25
 21
8.0
 31
0.0
  0
LINE
  5
433C
  8
250
  6
CONTINUOUS
 10
117.25
 20
8.0
 30
0.0
 11
117.25
 21
5.7699999999999987
 31
0.0
  0
LINE
  5
433D
  8
250
  6
CONTINUOUS
 10
117.6216666666666
 20
-5.7699999999999987
 30
0.0
 11
117.25
 21
-8.0
 31
0.0
  0
LINE
  5
433E
  8
250
  6
CONTINUOUS
 10
116.8783333333333
 20
-5.7699999999999987
 30
0.0
 11
117.25
 21
-8.0
 31
0.0
  0
LINE
  5
433F
  8
250
  6
CONTINUOUS
 10
117.25
 20
-8.0
 30
0.0
 11
117.25
 21
-5.7699999999999987
 31
0.0
  0
LINE
  5
4340
  8
240
  6
CONTINUOUS
 10
-6.4999999999999991
 20
8.0
 30
0.0
 11
-6.5000000099999991
 21
10.5
 31
0.0
  0
LINE
  5
4341
  8
240
  6
CONTINUOUS
 10
-6.5
 20
-8.0
 30
0.0
 11
-6.5
 21
-10.500000010000001
 31
0.0
  0
LINE
  5
4342
  8
250
  6
CONTINUOUS
 10
109.8783333333333
 20
-4.7300000000000004
 30
0.0
 11
110.25
 21
-2.5
 31
0.0
  0
LINE
  5
4343
  8
250
  6
CONTINUOUS
 10
110.6216666666666
 20
-4.7300000000000004
 30
0.0
 11
110.25
 21
-2.5
 31
0.0
  0
LINE
  5
4344
  8
243
  6
HIDDEN2
 10
82.0
 20
-2.5
 30
0.0
 11
100.0
 21
-2.5
 31
0.0
  0
LINE
  5
4345
  8
244
  6
HIDDEN2
 10
74.0
 20
-2.8991377999999992
 30
0.0
 11
82.0
 21
0.0
 31
0.0
  0
LINE
  5
4346
  8
243
  6
HIDDEN2
 10
74.0
 20
-2.8991377999999992
 30
0.0
 11
82.0
 21
-2.8991377999999992
 31
0.0
  0
LINE
  5
4347
  8
244
  6
HIDDEN2
 10
74.0
 20
0.0
 30
0.0
 11
82.0
 21
-2.8991377999999992
 31
0.0
  0
LINE
  5
4348
  8
243
  6
HIDDEN2
 10
74.0
 20
-2.8991377999999992
 30
0.0
 11
74.0
 21
2.8991377999999992
 31
0.0
  0
LINE
  5
4349
  8
243
  6
HIDDEN2
 10
82.0
 20
-2.8991377999999992
 30
0.0
 11
82.0
 21
2.8991377999999992
 31
0.0
  0
LINE
  5
434A
  8
250
  6
CONTINUOUS
 10
100.5
 20
-2.5
 30
0.0
 11
111.25
 21
-2.5
 31
0.0
  0
LINE
  5
434B
  8
247
  6
CONTINUOUS
 10
3.6038475799999832
 20
-6.25
 30
0.0
 11
3.6038475800000112
 21
-3.469230769402031
 31
0.0
  0
LINE
  5
434C
  8
247
  6
CONTINUOUS
 10
2.1038475800000112
 20
-5.7729360999927604
 30
0.0
 11
3.363847579949609
 21
-6.134235286034424
 31
0.0
  0
LINE
  5
434D
  8
247
  6
CONTINUOUS
 10
2.70153988766842
 20
-5.3950908421114141
 30
0.0
 11
2.70153988766842
 21
-5.9443216113202171
 31
0.0
  0
ARC
  5
434E
  8
247
  6
CONTINUOUS
 10
2.334679020376488
 20
-5.2523580411680921
 30
0.0
 40
0.2326029485596046
 50
72.997889675291972
 51
172.92416621851211
  0
ARC
  5
434F
  8
247
  6
CONTINUOUS
 10
2.286981458616824
 20
-5.4294865340824572
 30
0.0
 40
0.4159828779215263
 50
4.7429368522006019
 51
73.849226273266453
1001
GENIUS_GENOBJ-N-FIL_13
1002
{
1000
OWNER
1000
GEN
1002
}
1001
GENIUS_GENODEF_13
1002
{
1000
HIER
1070
     0
1002
}
1002
{
1000
MANEDIT
1070
     0
1002
}
1002
{
1000
NOSEL
1070
     0
1002
}
1002
{
1000
BEHIND
1070
     0
1002
}
1002
{
1000
OTHER
1070
     0
1002
}
1002
{
1000
REACTOR
1002
}
  0
LINE
  5
4350
  8
247
  6
CONTINUOUS
 10
3.363847579949609
 20
-5.5850045168256202
 30
0.0
 11
3.363847579949609
 21
-6.134235286034424
 31
0.0
  0
LINE
  5
4351
  8
247
  6
CONTINUOUS
 10
2.1038475800000112
 20
-5.7729360999927604
 30
0.0
 11
2.1038475800000112
 21
-5.2237053307839547
 31
0.0
  0
ARC
  5
4352
  8
247
  6
CONTINUOUS
 10
2.9362977576607281
 20
-5.4269838857600803
 30
0.0
 40
0.2369143806452316
 50
65.990941652528804
 51
172.26344345906921
  0
ARC
  5
4353
  8
247
  6
CONTINUOUS
 10
2.938567776399569
 20
-5.627467966256174
 30
0.0
 40
0.4273944967417014
 50
5.7019851642579846
 51
77.27733843682222
1001
GENIUS_GENOBJ-N-FIL_13
1002
{
1000
OWNER
1000
GEN
1002
}
1001
GENIUS_GENODEF_13
1002
{
1000
HIER
1070
     0
1002
}
1002
{
1000
MANEDIT
1070
     0
1002
}
1002
{
1000
NOSEL
1070
     0
1002
}
1002
{
1000
BEHIND
1070
     0
1002
}
1002
{
1000
OTHER
1070
     0
1002
}
1002
{
1000
REACTOR
1002
}
  0
LINE
  5
4354
  8
247
  6
CONTINUOUS
 10
3.363847579949609
 20
-5.010389132238001
 30
0.0
 11
2.1038475800000112
 21
-4.649089946196395
 31
0.0
  0
LINE
  5
4355
  8
247
  6
CONTINUOUS
 10
2.1038475800000112
 20
-3.751397638544772
 30
0.0
 11
2.1038475800000112
 21
-3.9890070185821269
 31
0.0
  0
LINE
  5
4356
  8
247
  6
CONTINUOUS
 10
3.363847579949609
 20
-4.3652437923663561
 30
0.0
 11
3.363847579949609
 21
-4.106782253915183
 31
0.0
  0
ARC
  5
4357
  8
247
  6
CONTINUOUS
 10
2.978827337050038
 20
-3.6290899462420021
 30
0.0
 40
0.9461130345837279
 50
202.35948814152789
 51
254.99324854284609
  0
ARC
  5
4358
  8
247
  6
CONTINUOUS
 10
2.443338895122908
 20
-3.908506819679928
 30
0.0
 40
0.3740824078205668
 50
94.994589319075374
 51
155.16632895730379
1001
GENIUS_GENOBJ-N-FIL_13
1002
{
1000
OWNER
1000
GEN
1002
}
1001
GENIUS_GENODEF_13
1002
{
1000
HIER
1070
     0
1002
}
1002
{
1000
MANEDIT
1070
     0
1002
}
1002
{
1000
NOSEL
1070
     0
1002
}
1002
{
1000
BEHIND
1070
     0
1002
}
1002
{
1000
OTHER
1070
     0
1002
}
1002
{
1000
REACTOR
1002
}
  0
ARC
  5
4359
  8
247
  6
CONTINUOUS
 10
2.8011088531816921
 20
-4.266510370619641
 30
0.0
 40
0.5849683289464192
 50
15.84609655578096
 51
82.325137004169122
  0
ARC
  5
435A
  8
247
  6
CONTINUOUS
 10
2.9267298211826511
 20
-4.0211269832633443
 30
0.0
 40
0.5563167383215207
 50
249.7136016704969
 51
321.7887456564095
1001
GENIUS_GENOBJ-N-FIL_13
1002
{
1000
OWNER
1000
GEN
1002
}
1001
GENIUS_GENODEF_13
1002
{
1000
HIER
1070
     0
1002
}
1002
{
1000
MANEDIT
1070
     0
1002
}
1002
{
1000
NOSEL
1070
     0
1002
}
1002
{
1000
BEHIND
1070
     0
1002
}
1002
{
1000
OTHER
1070
     0
1002
}
1002
{
1000
REACTOR
1002
}
  0
LINE
  5
435B
  8
247
  6
CONTINUOUS
 10
2.8792321953536111
 20
-3.9775514846895681
 30
0.0
 11
2.8792321953536111
 21
-3.6867822539319919
 31
0.0
  0
ARC
  5
435C
  8
247
  6
CONTINUOUS
 10
2.8538475800000112
 20
-6.25
 30
0.0
 40
0.75
 50
180.0
 51
0.0
  0
LINE
  5
435D
  8
247
  6
CONTINUOUS
 10
2.1038475800000112
 20
-6.25
 30
0.0
 11
2.1038475800000112
 21
-5.9823076923483987
 31
0.0
  0
ARC
  5
435E
  8
247
  6
CONTINUOUS
 10
2.8538475800000112
 20
-3.4692307694020021
 30
0.0
 40
0.75
 50
0.0
 51
180.0
  0
TEXT
  5
435F
  8
250
 10
46.357246018377417
 20
22.0
 30
0.0
 40
2.799999999999998
  1
100
1001
ACAD
1000
MTEXTBEGIN
1070
    73
1070
     1
1070
    44
1040
1.0
1070
    74
1070
     0
1000
MTEXTEND
1000
MTEXTBEGIN
1070
    73
1070
     1
1070
    44
1040
1.0
1070
    74
1070
     0
1000
MTEXTEND
  0
TEXT
  5
43D7
  8
250
 10
84.487678623565799
 20
15.06872345999999
 30
0.0
 40
2.799999999999998
  1
üá4
  7
YOKO
  0
TEXT
  5
43D9
  8
250
 10
116.25
 20
-3.9333333333333309
 30
0.0
 40
2.799999999999998
  1
\U+220516
 50
90.0
  0
VIEWPORT
  5
22
 67
     1
  8
0
 10
261.51769911504419
 20
148.5
 30
0.0
 40
523.0353982300885
 41
297.0
 68
     1
 69
     1
1001
ACAD
1000
MVIEW
1002
{
1070
    16
1010
0.0
1020
0.0
1030
0.0
1010
0.0
1020
0.0
1030
1.0
1040
0.0
1040
297.0
1040
261.51769911504419
1040
148.5
1040
50.0
1040
0.0
1040
0.0
1070
     0
1070
   100
1070
     1
1070
     1
1070
     0
1070
     0
1070
     0
1070
     0
1040
0.0
1040
0.0
1040
0.0
1040
1.0
1040
1.0
1040
10.0
1040
10.0
1070
     0
1002
{
1002
}
1002
}
1001
GENIUS_GENODEF_13
1002
{
1000
HIER
1070
     0
1002
}
1002
{
1000
MANEDIT
1070
     0
1002
}
1002
{
1000
NOSEL
1070
     0
1002
}
1002
{
1000
BEHIND
1070
     0
1002
}
1002
{
1000
OTHER
1070
     0
1002
}
1002
{
1000
REACTOR
1002
}
1001
GENIUS_GENOBJ-N-SDF_13
1002
{
1000
OWNER
1000
GEN
1002
}
1001
GENIUS_GENSCREG_15
1000
PF
1040
1.0
1000
DF
1040
1.0
1000
MIN
1011
0.0
1021
0.0
1031
0.0
1021
0.0
1031
0.0
1000
MAX
1011
523.0353982300885
1021
0.0
1031
0.0
1021
297.0
1031
0.0
1000
FLAGS
1070
     4
  0
ENDSEC
  0
EOF
