  0
SECTION
  2
HEADER
  9
$ACADVER
  1
AC1009
  9
$INSBASE
 10
0.0
 20
0.0
 30
0.0
  9
$EXTMIN
 10
-95.904333874332707
 20
-40.975529314841509
 30
0.0
  9
$EXTMAX
 10
92.0
 20
65.449962375659155
 30
0.0
  9
$LIMMIN
 10
0.0
 20
0.0
  9
$LIMMAX
 10
297.0
 20
210.0
  9
$ORTHOMODE
 70
     1
  9
$REGENMODE
 70
     1
  9
$FILLMODE
 70
     1
  9
$QTEXTMODE
 70
     0
  9
$MIRRTEXT
 70
     1
  9
$DRAGMODE
 70
     2
  9
$LTSCALE
 40
10.0
  9
$OSMODE
 70
    39
  9
$ATTMODE
 70
     1
  9
$TEXTSIZE
 40
3.0
  9
$TRACEWID
 40
1.0
  9
$TEXTSTYLE
  7
YOKO
  9
$CLAYER
  8
240
  9
$CELTYPE
  6
BYLAYER
  9
$CECOLOR
 62
   256
  9
$DIMSCALE
 40
1.0
  9
$DIMASZ
 40
2.2299999999999991
  9
$DIMEXO
 40
0.5
  9
$DIMDLI
 40
7.0
  9
$DIMRND
 40
0.0
  9
$DIMDLE
 40
0.0
  9
$DIMEXE
 40
1.0
  9
$DIMTP
 40
0.0
  9
$DIMTM
 40
0.01
  9
$DIMTXT
 40
2.799999999999998
  9
$DIMCEN
 40
0.0
  9
$DIMTSZ
 40
0.0
  9
$DIMTOL
 70
     0
  9
$DIMLIM
 70
     0
  9
$DIMTIH
 70
     0
  9
$DIMTOH
 70
     0
  9
$DIMSE1
 70
     0
  9
$DIMSE2
 70
     0
  9
$DIMTAD
 70
     3
  9
$DIMZIN
 70
     9
  9
$DIMBLK
  1
OPEN
  9
$DIMASO
 70
     1
  9
$DIMSHO
 70
     1
  9
$DIMPOST
  1

  9
$DIMAPOST
  1

  9
$DIMALT
 70
     0
  9
$DIMALTD
 70
     2
  9
$DIMALTF
 40
25.399999999999999
  9
$DIMLFAC
 40
1.0
  9
$DIMTOFL
 70
     1
  9
$DIMTVP
 40
0.0
  9
$DIMTIX
 70
     1
  9
$DIMSOXD
 70
     0
  9
$DIMSAH
 70
     0
  9
$DIMBLK1
  1

  9
$DIMBLK2
  1

  9
$DIMSTYLE
  2
BIGT
  9
$DIMCLRD
 70
   256
  9
$DIMCLRE
 70
   256
  9
$DIMCLRT
 70
    40
  9
$DIMTFAC
 40
1.0
  9
$DIMGAP
 40
1.0
  9
$LUNITS
 70
     2
  9
$LUPREC
 70
     3
  9
$SKETCHINC
 40
1.0
  9
$FILLETRAD
 40
1.0
  9
$AUNITS
 70
     0
  9
$AUPREC
 70
     3
  9
$MENU
  1
.
  9
$ELEVATION
 40
0.0
  9
$PELEVATION
 40
0.0
  9
$THICKNESS
 40
0.0
  9
$LIMCHECK
 70
     0
  9
$BLIPMODE
 70
     0
  9
$CHAMFERA
 40
0.25
  9
$CHAMFERB
 40
0.25
  9
$SKPOLY
 70
     0
  9
$TDCREATE
 40
2455799.6937886109
  9
$TDUPDATE
 40
2457835.7089538421
  9
$TDINDWG
 40
0.043325625
  9
$TDUSRTIMER
 40
0.0433255903
  9
$USRTIMER
 70
     1
  9
$ANGBASE
 50
0.0
  9
$ANGDIR
 70
     0
  9
$PDMODE
 70
     1
  9
$PDSIZE
 40
0.0
  9
$PLINEWID
 40
0.0
  9
$COORDS
 70
     1
  9
$SPLFRAME
 70
     0
  9
$SPLINETYPE
 70
     6
  9
$SPLINESEGS
 70
     4
  9
$ATTDIA
 70
     1
  9
$ATTREQ
 70
     1
  9
$HANDLING
 70
     1
  9
$HANDSEED
  5
236E
  9
$SURFTAB1
 70
     6
  9
$SURFTAB2
 70
     6
  9
$SURFTYPE
 70
     6
  9
$SURFU
 70
     6
  9
$SURFV
 70
     6
  9
$UCSNAME
  2

  9
$UCSORG
 10
0.0
 20
0.0
 30
0.0
  9
$UCSXDIR
 10
1.0
 20
0.0
 30
0.0
  9
$UCSYDIR
 10
0.0
 20
1.0
 30
0.0
  9
$PUCSNAME
  2

  9
$PUCSORG
 10
0.0
 20
0.0
 30
0.0
  9
$PUCSXDIR
 10
1.0
 20
0.0
 30
0.0
  9
$PUCSYDIR
 10
0.0
 20
1.0
 30
0.0
  9
$USERI1
 70
     1
  9
$USERI2
 70
     0
  9
$USERI3
 70
     0
  9
$USERI4
 70
     0
  9
$USERI5
 70
     0
  9
$USERR1
 40
0.0
  9
$USERR2
 40
0.0
  9
$USERR3
 40
0.0
  9
$USERR4
 40
0.0
  9
$USERR5
 40
0.0
  9
$WORLDVIEW
 70
     1
  9
$SHADEDGE
 70
     3
  9
$SHADEDIF
 70
    70
  9
$TILEMODE
 70
     1
  9
$MAXACTVP
 70
    16
  9
$PLIMCHECK
 70
     0
  9
$PEXTMIN
 10
1.0000000000000000E+020
 20
1.0000000000000000E+020
 30
1.0000000000000000E+020
  9
$PEXTMAX
 10
-1.0000000000000000E+020
 20
-1.0000000000000000E+020
 30
-1.0000000000000000E+020
  9
$PLIMMIN
 10
0.0
 20
0.0
  9
$PLIMMAX
 10
420.0
 20
297.0
  9
$UNITMODE
 70
     0
  9
$VISRETAIN
 70
     1
  9
$PLINEGEN
 70
     0
  9
$PSLTSCALE
 70
     1
  0
ENDSEC
  0
SECTION
  2
TABLES
  0
TABLE
  2
VPORT
 70
     1
  0
VPORT
  2
*ACTIVE
 70
     0
 10
0.0
 20
0.0
 11
1.0
 21
1.0
 12
-13.28035665675338
 22
19.277582423946981
 13
0.0
 23
0.0
 14
7.0
 24
7.0
 15
7.0
 25
7.0
 16
0.0
 26
0.0
 36
1.0
 17
0.0
 27
0.0
 37
0.0
 40
192.4121604253717
 41
1.6795646916565901
 42
50.0
 43
0.0
 44
0.0
 50
0.0
 51
0.0
 71
     0
 72
  2000
 73
     1
 74
     0
 75
     0
 76
     0
 77
     0
 78
     0
  0
ENDTAB
  0
TABLE
  2
LTYPE
 70
    16
  0
LTYPE
  2
CONTINUOUS
 70
     0
  3
Solid line
 72
    65
 73
     0
 40
0.0
  0
LTYPE
  2
CENTER2
 70
     0
  3
___ _ ___ _ ___ _ ___ _ ___ _ ___ _ ___ _ ___ _
 72
    65
 73
     4
 40
1.125
 49
0.75
 49
-0.125
 49
0.125
 49
-0.125
  0
LTYPE
  2
HIDDEN2
 70
     0
  3
_ _ _ _ _ _ _ _ _ _ _ _ _ _ _ _ _ _ _ _ _ _ _ _
 72
    65
 73
     2
 40
0.1875
 49
0.125
 49
-0.0625
  0
LTYPE
  2
PHANTOM2
 70
     0
  3
___ _ _ ___ _ _ ___ _ _ ___ _ _ ___ _ _ ___ _ _
 72
    65
 73
     6
 40
1.25
 49
0.625
 49
-0.125
 49
0.125
 49
-0.125
 49
0.125
 49
-0.125
  0
LTYPE
  2
CENTER
 70
     0
  3
____ _ ____ _ ____ _ ____ _ ____ _ ____ _ ____ 
 72
    65
 73
     4
 40
2.0
 49
1.25
 49
-0.25
 49
0.25
 49
-0.25
  0
LTYPE
  2
AMCONSTR
 70
     0
  3
_______________________
 72
    65
 73
     2
 40
9999.0
 49
9999.0
 49
0.0
  0
LTYPE
  2
HIDDEN
 70
     0
  3
Hidden __ __ __ __ __ __ __ __ __ __ __ __ __ _
 72
    65
 73
     2
 40
9.5249999999999986
 49
6.349999999999997
 49
-3.174999999999998
  0
LTYPE
  2
AMZIGZAG2
 70
     0
  3
/\/-/\/-/\/-/\/-/\/-/\/
 72
    65
 73
     2
 40
0.4401
 49
0.0001
 49
-0.4400000000000002
  0
LTYPE
  2
ACANSTGB
 70
     0
  3
__ . . __ . .
 72
    65
 73
     6
 40
0.35433070866
 49
0.15748031496
 49
-0.03937007874
 49
0.03937007874
 49
-0.03937007874
 49
0.03937007874
 49
-0.03937007874
  0
LTYPE
  2
ACANSTGL
 70
     0
  3
_ _ _ _ _
 72
    65
 73
     2
 40
0.11811023622
 49
0.07874015748
 49
-0.03937007874
  0
ENDTAB
  0
TABLE
  2
LAYER
 70
    11
  0
LAYER
  2
0
 70
     0
 62
     7
  6
CONTINUOUS
  0
LAYER
  2
240
 70
     0
 62
     4
  6
CONTINUOUS
  0
LAYER
  2
DEFPOINTS
 70
     0
 62
     7
  6
CONTINUOUS
  0
LAYER
  2
245
 70
     0
 62
     2
  6
CENTER2
  0
LAYER
  2
241
 70
     0
 62
   211
  6
CONTINUOUS
  0
LAYER
  2
242
 70
     0
 62
     3
  6
CONTINUOUS
  0
LAYER
  2
243
 70
     0
 62
   211
  6
HIDDEN2
  0
LAYER
  2
244
 70
     0
 62
     3
  6
HIDDEN2
  0
LAYER
  2
250
 70
     0
 62
     3
  6
CONTINUOUS
  0
LAYER
  2
247
 70
     0
 62
    60
  6
CONTINUOUS
  0
ENDTAB
  0
TABLE
  2
STYLE
 70
     6
  0
STYLE
  2
STANDARD
 70
     0
 40
0.0
 41
1.0
 50
0.0
 71
     0
 42
3.0
  3
romans.shx
  4
extfont.shx
  0
STYLE
  2
YOKO
 70
     0
 40
0.0
 41
1.0
 50
0.0
 71
     0
 42
3.0
  3
romans.shx
  4
extfont.shx
  0
STYLE
  2
ACANSGDT
 70
     0
 40
0.0
 41
1.0
 50
0.0
 71
     0
 42
3.0
  3
amgdt.shx
  4

  0
ENDTAB
  0
TABLE
  2
VIEW
 70
     0
  0
ENDTAB
  0
TABLE
  2
UCS
 70
     0
  0
ENDTAB
  0
TABLE
  2
APPID
 70
    46
  0
APPID
  2
ACAD
 70
     0
  0
APPID
  2
ACADANNOTATIVE
 70
     0
  0
APPID
  2
GLOBAL
 70
     0
  0
APPID
  2
DETAIL
 70
     0
  0
APPID
  2
GRPNAME
 70
     0
  0
APPID
  2
GPARA
 70
     0
  0
APPID
  2
MCAD_NO_VIS
 70
     0
  0
APPID
  2
ACAD_TEMP_GRAPHIC
 70
     0
  0
APPID
  2
ACATTRIBSERVICES
 70
     0
  0
APPID
  2
GENIUS_GENSCREG_15
 70
     0
  0
APPID
  2
GENIUS_GENODEF_13
 70
     0
  0
APPID
  2
GENIUS_GENOBJ-N-SDF_13
 70
     0
  0
APPID
  2
GENIUS_GENREC_14
 70
     0
  0
APPID
  2
GENIUS_GENOBJ-N-REC_13
 70
     0
  0
APPID
  2
GENIUS_GENDIMSH_14
 70
     0
  0
APPID
  2
GENIUS_GENOBJ-N-DIM_13
 70
     0
  0
APPID
  2
GENIUS_GENDIM_13
 70
     0
  0
APPID
  2
GENIUS_GENDTOL_13
 70
     0
  0
APPID
  2
GENIUS_GENOLIS_13
 70
     0
  0
APPID
  2
GENIUS_GENOENT_13
 70
     0
  0
APPID
  2
GENIUS_GENOBJ-F-FEM_13
 70
     0
  0
APPID
  2
GENIUS_GENOREF_13
 70
     0
  0
APPID
  2
GENIUS_GEFFEM_13
 70
     0
  0
APPID
  2
GENIUS_GEFFEMP_13
 70
     0
  0
APPID
  2
AD_DRAW
 70
     0
  0
APPID
  2
DESIGNERASSEMBLIES
 70
     0
  0
APPID
  2
ACADM_DIM_EDIT
 70
     0
  0
APPID
  2
AMDT_DM_ADJ
 70
     0
  0
APPID
  2
GENIUS_GENOBJ-N-FIL_13
 70
     0
  0
APPID
  2
GENIUS_GENFIL_13
 70
     0
  0
APPID
  2
GENIUS_GENOBJ-N-CHA_13
 70
     0
  0
APPID
  2
GENIUS_GENOBJ-N-CRS_13
 70
     0
  0
APPID
  2
HATCH_TYPE
 70
     0
  0
APPID
  2
HATCH_DISPLAY
 70
     0
  0
APPID
  2
HATCH_DISTANCE
 70
     0
  0
APPID
  2
ACAD_DSTYLE_DIMJAG
 70
     0
  0
APPID
  2
ACAD_DSTYLE_DIMBREAK
 70
     0
  0
APPID
  2
ACAD_NAV_VCDISPLAY
 70
     0
  0
APPID
  2
ACAD_EXEMPT_FROM_CAD_STANDARDS
 70
     0
  0
APPID
  2
ACAD_DSTYLE_DIMINSPECT
 70
     0
  0
APPID
  2
ACAD_MLEADERVER
 70
     0
  0
APPID
  2
ACAD_DSTYLE_DIMARC_LENGTH_
 70
     0
  0
APPID
  2
ACAD_DSTYLE_DIM_LINETYPE
 70
     0
  0
APPID
  2
ACAD_DSTYLE_DIM_EXT1_LINETYPE
 70
     0
  0
APPID
  2
ACAD_DSTYLE_DIM_EXT2_LINETYPE
 70
     0
  0
APPID
  2
ACAECLAYERSTANDARD
 70
     0
  0
ENDTAB
  0
TABLE
  2
DIMSTYLE
 70
    10
  0
DIMSTYLE
  2
STANDARD
 70
     0
  3

  4

  5

  6

  7

 40
1.0
 41
0.18
 42
0.0625
 43
0.38
 44
0.18
 45
0.0
 46
0.0
 47
0.0
 48
0.0
140
0.18
141
0.09
142
0.0
143
25.399999999999999
144
1.0
145
0.0
146
1.0
147
0.09
 71
     0
 72
     0
 73
     1
 74
     1
 75
     0
 76
     0
 77
     0
 78
     0
170
     0
171
     2
172
     0
173
     0
174
     0
175
     0
176
     0
177
     0
178
     0
  0
DIMSTYLE
  2
BIGT
 70
     0
  3

  4

  5

  6

  7

 40
1.0
 41
2.2299999999999991
 42
0.5
 43
7.0
 44
1.0
 45
0.0
 46
0.0
 47
0.0
 48
0.01
140
2.799999999999998
141
0.0
142
0.0
143
25.399999999999999
144
1.0
145
0.0
146
1.0
147
1.0
 71
     0
 72
     0
 73
     0
 74
     0
 75
     0
 76
     0
 77
     3
 78
     9
170
     0
171
     2
172
     1
173
     0
174
     1
175
     0
176
   256
177
   256
178
    40
  0
DIMSTYLE
  2
AM_ANSI
 70
     0
  3

  4
mm
  5

  6

  7

 40
1.0
 41
0.12
 42
0.05
 43
0.5
 44
0.1
 45
0.0
 46
0.0
 47
0.1
 48
0.1
140
0.12
141
0.0
142
0.0
143
25.399999999999999
144
1.0
145
0.0
146
0.71
147
0.06
 71
     0
 72
     0
 73
     1
 74
     1
 75
     0
 76
     0
 77
     0
 78
     7
170
     0
171
     2
172
     0
173
     0
174
     0
175
     0
176
   256
177
   256
178
     2
  0
DIMSTYLE
  2
AM_ANSI$3
 70
     0
  3

  4
mm
  5

  6

  7

 40
1.0
 41
0.12
 42
0.05
 43
0.5
 44
0.1
 45
0.0
 46
0.0
 47
0.1
 48
0.1
140
0.12
141
0.0
142
0.0
143
25.399999999999999
144
1.0
145
0.0
146
0.71
147
0.06
 71
     0
 72
     0
 73
     1
 74
     1
 75
     0
 76
     0
 77
     0
 78
     7
170
     0
171
     2
172
     0
173
     0
174
     0
175
     0
176
   256
177
   256
178
     2
  0
DIMSTYLE
  2
AM_ANSI$4
 70
     0
  3

  4
mm
  5

  6

  7

 40
1.0
 41
0.12
 42
0.05
 43
0.5
 44
0.1
 45
0.0
 46
0.0
 47
0.1
 48
0.1
140
0.12
141
0.0
142
0.0
143
25.399999999999999
144
1.0
145
0.0
146
0.71
147
0.06
 71
     0
 72
     0
 73
     1
 74
     1
 75
     0
 76
     0
 77
     0
 78
     7
170
     0
171
     2
172
     0
173
     0
174
     0
175
     0
176
   256
177
   256
178
     2
  0
DIMSTYLE
  2
AM_ANSI$7
 70
     0
  3

  4
mm
  5

  6

  7

 40
1.0
 41
0.12
 42
0.05
 43
0.5
 44
0.1
 45
0.0
 46
0.0
 47
0.1
 48
0.1
140
0.12
141
0.0
142
0.0
143
25.399999999999999
144
1.0
145
0.0
146
0.71
147
0.06
 71
     0
 72
     0
 73
     1
 74
     1
 75
     0
 76
     0
 77
     0
 78
     7
170
     0
171
     2
172
     0
173
     0
174
     0
175
     0
176
   256
177
   256
178
     2
  0
DIMSTYLE
  2
AM_ANSI$SF
 70
     0
  3

  4
mm
  5

  6

  7

 40
1.0
 41
0.12
 42
0.05
 43
0.5
 44
0.1
 45
0.0
 46
0.0
 47
0.1
 48
0.1
140
0.12
141
0.0
142
0.0
143
25.399999999999999
144
1.0
145
0.0
146
0.71
147
0.06
 71
     0
 72
     0
 73
     1
 74
     1
 75
     1
 76
     1
 77
     0
 78
     7
170
     0
171
     2
172
     0
173
     0
174
     0
175
     0
176
   256
177
   256
178
     2
  0
DIMSTYLE
  2
AM_ANSI$SH
 70
     0
  3

  4
mm
  5

  6

  7

 40
1.0
 41
0.12
 42
0.05
 43
0.5
 44
0.1
 45
0.0
 46
0.0
 47
0.1
 48
0.1
140
0.12
141
0.0
142
0.0
143
25.399999999999999
144
1.0
145
0.0
146
0.71
147
0.06
 71
     0
 72
     0
 73
     1
 74
     1
 75
     1
 76
     1
 77
     0
 78
     7
170
     0
171
     2
172
     0
173
     1
174
     0
175
     0
176
   256
177
   256
178
     2
  0
ENDTAB
  0
ENDSEC
  0
SECTION
  2
BLOCKS
  0
BLOCK
  8
0
  2
$MODEL_SPACE
 70
     0
 10
0.0
 20
0.0
 30
0.0
  3
$MODEL_SPACE
  1

  0
ENDBLK
  5
21F2
  8
0
  0
BLOCK
 67
     1
  8
0
  2
$PAPER_SPACE
 70
     0
 10
0.0
 20
0.0
 30
0.0
  3
$PAPER_SPACE
  1

  0
ENDBLK
  5
21EE
 67
     1
  8
0
  0
BLOCK
  8
0
  2
_OPEN
 70
     0
 10
0.0
 20
0.0
 30
0.0
  3
_OPEN
  1

  0
LINE
  5
1853
  8
0
  6
BYBLOCK
 62
     0
 10
-1.0
 20
0.1666666666666666
 30
0.0
 11
0.0
 21
0.0
 31
0.0
  0
LINE
  5
1854
  8
0
  6
BYBLOCK
 62
     0
 10
-1.0
 20
-0.1666666666666666
 30
0.0
 11
0.0
 21
0.0
 31
0.0
  0
LINE
  5
1855
  8
0
  6
BYBLOCK
 62
     0
 10
0.0
 20
0.0
 30
0.0
 11
-1.0
 21
0.0
 31
0.0
  0
ENDBLK
  5
1856
  8
0
  0
BLOCK
  8
0
  2
_ACMFILLEDHALF
 70
     0
 10
0.0
 20
0.0
 30
0.0
  3
_ACMFILLEDHALF
  1

  0
TRACE
  5
1C02
  8
240
 62
     0
 10
-0.8
 20
0.0
 30
0.0
 11
-1.0
 21
0.166666666
 31
0.0
 12
0.0
 22
0.0
 32
0.0
 13
0.0
 23
0.0
 33
0.0
  0
LINE
  5
1C03
  8
240
 62
     0
 10
-1.0
 20
0.0
 30
0.0
 11
-0.8
 21
0.0
 31
0.0
  0
ENDBLK
  5
1C01
  8
0
  0
ENDSEC
  0
SECTION
  2
ENTITIES
  0
TEXT
  5
1523
  8
241
  6
CONTINUOUS
 10
-90.706710985126833
 20
56.521390947087681
 30
0.0
 40
7.5
  1
MGT36-P3/4-65
  7
YOKO
  0
LINE
  5
16B5
  8
250
  6
CONTINUOUS
 10
-0.000000000003638
 20
27.499999999972271
 30
0.0
 11
-0.000000000003638
 21
42.999999999979991
 31
0.0
  0
LINE
  5
16B6
  8
250
  6
CONTINUOUS
 10
65.0
 20
19.207106781180158
 30
0.0
 11
65.0
 21
42.999999999979991
 31
0.0
  0
LINE
  5
16B7
  8
250
  6
CONTINUOUS
 10
2.2299999999963638
 20
41.999999999979991
 30
0.0
 11
62.77000000000001
 21
41.999999999979991
 31
0.0
  0
LINE
  5
16B8
  8
250
  6
CONTINUOUS
 10
2.2299999999963638
 20
41.628333333313321
 30
0.0
 11
-0.000000000003638
 21
41.999999999979991
 31
0.0
  0
LINE
  5
16B9
  8
250
  6
CONTINUOUS
 10
2.2299999999963638
 20
42.371666666646647
 30
0.0
 11
-0.000000000003638
 21
41.999999999979991
 31
0.0
  0
LINE
  5
16BA
  8
250
  6
CONTINUOUS
 10
-0.000000000003638
 20
41.999999999979991
 30
0.0
 11
2.2299999999963638
 21
41.999999999979991
 31
0.0
  0
LINE
  5
16BB
  8
250
  6
CONTINUOUS
 10
62.77000000000001
 20
42.371666666646647
 30
0.0
 11
65.0
 21
41.999999999979991
 31
0.0
  0
LINE
  5
16BC
  8
250
  6
CONTINUOUS
 10
62.77000000000001
 20
41.628333333313321
 30
0.0
 11
65.0
 21
41.999999999979991
 31
0.0
  0
LINE
  5
16BD
  8
250
  6
CONTINUOUS
 10
65.0
 20
41.999999999979991
 30
0.0
 11
62.77000000000001
 21
41.999999999979991
 31
0.0
  0
TEXT
  5
16BE
  8
250
  6
CONTINUOUS
 10
26.64285714285532
 20
42.999999999979991
 30
0.0
 40
6.0
  1
65
  0
LINE
  5
16F8
  8
250
  6
CONTINUOUS
 10
61.999999999999098
 20
21.49999999999455
 30
0.0
 11
92.0
 21
21.499999999994529
 31
0.0
  0
LINE
  5
16F9
  8
250
  6
CONTINUOUS
 10
62.000000000003681
 20
-21.499999999972939
 30
0.0
 11
92.0
 21
-21.499999999997279
 31
0.0
  0
LINE
  5
16FA
  8
250
  6
CONTINUOUS
 10
91.0
 20
19.269999999994528
 30
0.0
 11
91.0
 21
-19.269999999997282
 31
0.0
  0
LINE
  5
16FF
  8
250
  6
CONTINUOUS
 10
65.499999999998778
 20
11.49999999999797
 30
0.0
 11
78.0
 21
11.499999999997961
 31
0.0
  0
LINE
  5
1700
  8
250
  6
CONTINUOUS
 10
65.499999999998792
 20
-11.49999999999272
 30
0.0
 11
78.0
 21
-11.49999999999272
 31
0.0
  0
LINE
  5
1701
  8
250
  6
CONTINUOUS
 10
77.0
 20
9.2699999999979674
 30
0.0
 11
77.0
 21
-9.2699999999927272
 31
0.0
  0
LINE
  5
1707
  8
250
  6
CONTINUOUS
 10
22.36093441340665
 20
6.2700000000072729
 30
0.0
 11
22.36093441340665
 21
-6.269999999992721
 31
0.0
  0
LINE
  5
1708
  8
250
  6
CONTINUOUS
 10
22.360934413406639
 20
-40.975529314841509
 30
0.0
 11
22.36093441340665
 21
-8.499999999992724
 31
0.0
  0
LINE
  5
170C
  8
250
  6
CONTINUOUS
 10
22.732601080073319
 20
-6.269999999992721
 30
0.0
 11
22.36093441340665
 21
-8.499999999992724
 31
0.0
  0
LINE
  5
170D
  8
250
  6
CONTINUOUS
 10
21.98926774673998
 20
-6.269999999992721
 30
0.0
 11
22.36093441340665
 21
-8.499999999992724
 31
0.0
  0
LINE
  5
170E
  8
250
  6
CONTINUOUS
 10
22.36093441340665
 20
-8.499999999992724
 30
0.0
 11
22.36093441340665
 21
-6.269999999992721
 31
0.0
  0
LINE
  5
170F
  8
250
  6
CONTINUOUS
 10
21.989267746739991
 20
6.2700000000072729
 30
0.0
 11
22.36093441340666
 21
8.5000000000072742
 31
0.0
  0
LINE
  5
1710
  8
250
  6
CONTINUOUS
 10
22.732601080073319
 20
6.2700000000072729
 30
0.0
 11
22.36093441340666
 21
8.5000000000072742
 31
0.0
  0
LINE
  5
1711
  8
250
  6
CONTINUOUS
 10
22.36093441340666
 20
8.5000000000072742
 30
0.0
 11
22.36093441340666
 21
6.2700000000072729
 31
0.0
  0
TEXT
  5
1712
  8
250
  6
CONTINUOUS
 10
90.0
 20
-8.1428571428585013
 30
0.0
 40
6.0
  1
\U+220543
 50
90.0
  0
LINE
  5
1713
  8
250
  6
CONTINUOUS
 10
91.371666666666684
 20
-19.269999999997282
 30
0.0
 11
91.0
 21
-21.499999999997279
 31
0.0
  0
LINE
  5
1714
  8
250
  6
CONTINUOUS
 10
90.628333333333316
 20
-19.269999999997282
 30
0.0
 11
91.0
 21
-21.499999999997279
 31
0.0
  0
LINE
  5
1715
  8
250
  6
CONTINUOUS
 10
91.0
 20
-21.499999999997279
 30
0.0
 11
91.0
 21
-19.269999999997282
 31
0.0
  0
LINE
  5
1716
  8
250
  6
CONTINUOUS
 10
90.628333333333316
 20
19.269999999994528
 30
0.0
 11
91.0
 21
21.499999999994529
 31
0.0
  0
LINE
  5
1717
  8
250
  6
CONTINUOUS
 10
91.371666666666684
 20
19.269999999994528
 30
0.0
 11
91.0
 21
21.499999999994529
 31
0.0
  0
LINE
  5
1718
  8
250
  6
CONTINUOUS
 10
91.0
 20
21.499999999994529
 30
0.0
 11
91.0
 21
19.269999999994528
 31
0.0
  0
TEXT
  5
1719
  8
250
  6
CONTINUOUS
 10
76.0
 20
-8.142857142854508
 30
0.0
 40
6.0
  1
\U+220523
 50
90.0
  0
LINE
  5
171A
  8
250
  6
CONTINUOUS
 10
77.371666666666655
 20
-9.2699999999927272
 30
0.0
 11
77.0
 21
-11.49999999999272
 31
0.0
  0
LINE
  5
171B
  8
250
  6
CONTINUOUS
 10
76.62833333333333
 20
-9.2699999999927272
 30
0.0
 11
77.0
 21
-11.49999999999272
 31
0.0
  0
LINE
  5
171C
  8
250
  6
CONTINUOUS
 10
77.0
 20
-11.49999999999272
 30
0.0
 11
77.0
 21
-9.2699999999927272
 31
0.0
  0
LINE
  5
171D
  8
250
  6
CONTINUOUS
 10
76.62833333333333
 20
9.2699999999979674
 30
0.0
 11
77.0
 21
11.499999999997961
 31
0.0
  0
LINE
  5
171E
  8
250
  6
CONTINUOUS
 10
77.371666666666655
 20
9.2699999999979674
 30
0.0
 11
77.0
 21
11.499999999997961
 31
0.0
  0
LINE
  5
171F
  8
250
  6
CONTINUOUS
 10
77.0
 20
11.499999999997961
 30
0.0
 11
77.0
 21
9.2699999999979674
 31
0.0
  0
LINE
  5
1C25
  8
245
  6
CENTER2
 10
27.999999999996369
 20
4.0
 30
0.0
 11
27.999999999996369
 21
-4.0
 31
0.0
  0
CIRCLE
  5
1C26
  8
242
 10
27.999999999996369
 20
0.0
 30
0.0
 40
4.0000000000000284
  0
CIRCLE
  5
1C27
  8
241
  6
CONTINUOUS
 10
27.999999999996369
 20
0.0
 30
0.0
 40
3.3749999999999432
  0
LINE
  5
1C2A
  8
245
  6
CENTER2
 10
-95.904333874332707
 20
0.0
 30
0.0
 11
67.445056844939927
 21
0.0
 31
0.0
  0
LINE
  5
1C2B
  8
240
  6
CONTINUOUS
 10
64.999999999992454
 20
-18.49999999998635
 30
0.0
 11
65.000000000000256
 21
18.499999999993349
 31
0.0
  0
LINE
  5
1C2E
  8
243
  6
HIDDEN2
 10
17.999999999996358
 20
8.5000000000072742
 30
0.0
 11
37.999999999996369
 21
8.5000000000072742
 31
0.0
  0
LINE
  5
1C2F
  8
243
  6
HIDDEN2
 10
37.999999999996369
 20
11.500000000007271
 30
0.0
 11
64.999999999998778
 21
11.500000000007271
 31
0.0
  0
LINE
  5
1C30
  8
243
  6
HIDDEN2
 10
37.999999999996369
 20
-11.49999999999272
 30
0.0
 11
64.999999999998792
 21
-11.49999999999272
 31
0.0
  0
LINE
  5
1C31
  8
243
  6
HIDDEN2
 10
17.999999999996358
 20
-8.499999999992724
 30
0.0
 11
37.999999999996369
 21
-8.499999999992724
 31
0.0
  0
LINE
  5
1C32
  8
243
  6
HIDDEN2
 10
17.999999999996358
 20
8.5000000000072742
 30
0.0
 11
17.999999999996358
 21
-8.4999999999927258
 31
0.0
  0
LINE
  5
1C36
  8
243
  6
HIDDEN2
 10
37.999999999996369
 20
-11.49999999999272
 30
0.0
 11
37.999999999996369
 21
11.500000000007271
 31
0.0
  0
LINE
  5
1C37
  8
240
  6
CONTINUOUS
 10
61.999999999997463
 20
21.499999999996199
 30
0.0
 11
65.000000000000256
 21
18.499999999993349
 31
0.0
1001
GENIUS_GENFIL_13
1070
     0
1040
3.0
1040
3.0
1040
0.25
1040
45.0
1002
{
1002
}
1001
GENIUS_GENOBJ-N-CHA_13
1002
{
1000
OWNER
1000
GEN
1002
}
1001
GENIUS_GENODEF_13
1002
{
1000
HIER
1070
     0
1002
}
1002
{
1000
MANEDIT
1070
     0
1002
}
1002
{
1000
NOSEL
1070
     0
1002
}
1002
{
1000
BEHIND
1070
     0
1002
}
1002
{
1000
OTHER
1070
     0
1002
}
1002
{
1000
REACTOR
1002
}
  0
LINE
  5
1C3A
  8
240
  6
CONTINUOUS
 10
61.999999999980403
 20
-21.499999999996199
 30
0.0
 11
64.999999999992454
 21
-18.49999999998635
 31
0.0
1001
GENIUS_GENFIL_13
1070
     0
1040
3.0
1040
3.0
1040
0.25
1040
45.0
1002
{
1002
}
1001
GENIUS_GENOBJ-N-CHA_13
1002
{
1000
OWNER
1000
GEN
1002
}
1001
GENIUS_GENODEF_13
1002
{
1000
HIER
1070
     0
1002
}
1002
{
1000
MANEDIT
1070
     0
1002
}
1002
{
1000
NOSEL
1070
     0
1002
}
1002
{
1000
BEHIND
1070
     0
1002
}
1002
{
1000
OTHER
1070
     0
1002
}
1002
{
1000
REACTOR
1002
}
  0
LINE
  5
1C3D
  8
240
  6
CONTINUOUS
 10
2.241047546342215
 20
21.500000000003919
 30
0.0
 11
61.999999999997463
 21
21.499999999996199
 31
0.0
  0
LINE
  5
1C3F
  8
240
  6
CONTINUOUS
 10
2.2410475463502402
 20
-21.500000000003919
 30
0.0
 11
61.999999999980403
 21
-21.499999999996199
 31
0.0
  0
LINE
  5
1C42
  8
241
  6
CONTINUOUS
 10
47.0
 20
21.499999999998181
 30
0.0
 11
47.0
 21
-21.499999999998181
 31
0.0
  0
LINE
  5
1C43
  8
241
  6
CONTINUOUS
 10
44.0
 20
21.499999999998181
 30
0.0
 11
44.0
 21
-21.499999999998181
 31
0.0
  0
LINE
  5
1C45
  8
245
  6
CENTER2
 10
-66.00000000000361
 20
19.999999999979991
 30
0.0
 11
-66.00000000000361
 21
-20.000000000012729
 31
0.0
1001
GENIUS_GENOREF_13
1005
1EC6
  0
LINE
  5
1C4B
  8
240
  6
CONTINUOUS
 10
-9.0000000000036344
 20
26.499999999978851
 30
0.0
 11
-7.6262612902762932
 21
26.999999999978169
 31
0.0
  0
LINE
  5
1C4D
  8
240
  6
CONTINUOUS
 10
-0.0000000000001206
 20
26.999999999978169
 30
0.0
 11
-7.6262612902762932
 21
26.999999999978169
 31
0.0
  0
LINE
  5
1C50
  8
240
  6
CONTINUOUS
 10
-0.0000000000001206
 20
26.999999999978169
 30
0.0
 11
1.2751217200532501
 21
22.24118095490153
 31
0.0
  0
LINE
  5
1C56
  8
240
  6
CONTINUOUS
 10
-51.50000000001819
 20
19.999999999983629
 30
0.0
 11
-9.0000000000036344
 21
19.99999999998608
 31
0.0
  0
LINE
  5
1C57
  8
240
  6
CONTINUOUS
 10
-55.000000000021828
 20
16.499999999983629
 30
0.0
 11
-51.50000000001819
 21
19.999999999983629
 31
0.0
  0
LINE
  5
1C58
  8
240
  6
CONTINUOUS
 10
-55.000000000021828
 20
16.499999999983629
 30
0.0
 11
-66.00000000000361
 21
16.499999999983629
 31
0.0
  0
LINE
  5
1C59
  8
240
  6
CONTINUOUS
 10
-76.999999999989086
 20
16.49999999998181
 30
0.0
 11
-66.00000000000361
 21
16.499999999956341
 31
0.0
  0
LINE
  5
1C5A
  8
240
  6
CONTINUOUS
 10
-76.999999999989086
 20
16.49999999998181
 30
0.0
 11
-80.499999999989086
 21
19.99999999998181
 31
0.0
  0
LINE
  5
1C64
  8
241
  6
CONTINUOUS
 10
-9.0000000000036344
 20
19.99999999998608
 30
0.0
 11
-9.0000000000036344
 21
-20.000000000018819
 31
0.0
  0
LINE
  5
1C66
  8
240
  6
CONTINUOUS
 10
-9.0000000000036344
 20
-26.500000000011589
 30
0.0
 11
-7.626261290246787
 21
-27.00000000002165
 31
0.0
  0
LINE
  5
1C69
  8
240
  6
CONTINUOUS
 10
0.0000000000002788
 20
-27.00000000000994
 30
0.0
 11
-7.626261290246787
 21
-27.00000000002165
 31
0.0
  0
LINE
  5
1C6B
  8
240
  6
CONTINUOUS
 10
0.0000000000002788
 20
-27.00000000000994
 30
0.0
 11
1.2751217200612319
 21
-22.24118095490169
 31
0.0
  0
LINE
  5
1C71
  8
240
  6
CONTINUOUS
 10
-51.50000000001819
 20
-20.000000000016371
 30
0.0
 11
-9.0000000000036344
 21
-20.000000000018819
 31
0.0
  0
LINE
  5
1C74
  8
240
  6
CONTINUOUS
 10
-55.000000000021828
 20
-16.500000000016371
 30
0.0
 11
-51.50000000001819
 21
-20.000000000016371
 31
0.0
  0
LINE
  5
1C75
  8
240
  6
CONTINUOUS
 10
-55.000000000021828
 20
-16.500000000016371
 30
0.0
 11
-66.00000000000361
 21
-16.500000000016371
 31
0.0
  0
LINE
  5
1C76
  8
240
  6
CONTINUOUS
 10
-76.999999999989086
 20
-16.500000000014541
 30
0.0
 11
-66.00000000000361
 21
-16.499999999989079
 31
0.0
  0
LINE
  5
1C77
  8
240
  6
CONTINUOUS
 10
-76.999999999989086
 20
-16.500000000014541
 30
0.0
 11
-80.499999999989086
 21
-20.000000000014541
 31
0.0
  0
LINE
  5
1C7C
  8
241
  6
CONTINUOUS
 10
0.0
 20
-27.00000000000994
 30
0.0
 11
0.0
 21
26.999999999978169
 31
0.0
  0
LINE
  5
1C7E
  8
241
  6
CONTINUOUS
 10
-7.6262612902792171
 20
-27.000000000010921
 30
0.0
 11
-7.6262612902792171
 21
26.999999999978169
 31
0.0
  0
POLYLINE
  5
1C80
  8
242
 66
     1
 10
0.0
 20
0.0
 30
0.0
 70
     8
  0
VERTEX
  5
1C81
  8
242
 10
58.0
 20
14.909599999999999
 30
0.0
 70
    32
  0
VERTEX
  5
1C82
  8
242
 10
57.995199999999997
 20
15.048400000000001
 30
0.0
 70
    32
  0
VERTEX
  5
1C83
  8
242
 10
57.980699999999999
 20
15.1868
 30
0.0
 70
    32
  0
VERTEX
  5
1C84
  8
242
 10
57.956699999999998
 20
15.3246
 30
0.0
 70
    32
  0
VERTEX
  5
1C85
  8
242
 10
57.923099999999998
 20
15.461399999999999
 30
0.0
 70
    32
  0
VERTEX
  5
1C86
  8
242
 10
57.880099999999992
 20
15.5968
 30
0.0
 70
    32
  0
VERTEX
  5
1C87
  8
242
 10
57.827800000000003
 20
15.730600000000001
 30
0.0
 70
    32
  0
VERTEX
  5
1C88
  8
242
 10
57.766199999999998
 20
15.862500000000001
 30
0.0
 70
    32
  0
VERTEX
  5
1C89
  8
242
 10
57.695500000000003
 20
15.992000000000001
 30
0.0
 70
    32
  0
VERTEX
  5
1C8A
  8
242
 10
57.616000000000007
 20
16.1189
 30
0.0
 70
    32
  0
VERTEX
  5
1C8B
  8
242
 10
57.527700000000003
 20
16.242899999999999
 30
0.0
 70
    32
  0
VERTEX
  5
1C8C
  8
242
 10
57.430900000000001
 20
16.363700000000001
 30
0.0
 70
    32
  0
VERTEX
  5
1C8D
  8
242
 10
57.325899999999997
 20
16.481000000000002
 30
0.0
 70
    32
  0
VERTEX
  5
1C8E
  8
242
 10
57.212800000000001
 20
16.5945
 30
0.0
 70
    32
  0
VERTEX
  5
1C8F
  8
242
 10
57.091999999999999
 20
16.703900000000001
 30
0.0
 70
    32
  0
VERTEX
  5
1C90
  8
242
 10
56.963799999999999
 20
16.809000000000001
 30
0.0
 70
    32
  0
VERTEX
  5
1C91
  8
242
 10
56.828400000000002
 20
16.909600000000001
 30
0.0
 70
    32
  0
VERTEX
  5
1C92
  8
242
 10
56.686199999999999
 20
17.005299999999998
 30
0.0
 70
    32
  0
VERTEX
  5
1C93
  8
242
 10
56.537599999999998
 20
17.096
 30
0.0
 70
    32
  0
VERTEX
  5
1C94
  8
242
 10
56.382800000000003
 20
17.1814
 30
0.0
 70
    32
  0
VERTEX
  5
1C95
  8
242
 10
56.222299999999997
 20
17.261299999999999
 30
0.0
 70
    32
  0
VERTEX
  5
1C96
  8
242
 10
56.056399999999996
 20
17.335599999999999
 30
0.0
 70
    32
  0
VERTEX
  5
1C97
  8
242
 10
55.885599999999997
 20
17.404
 30
0.0
 70
    32
  0
VERTEX
  5
1C98
  8
242
 10
55.7102
 20
17.4665
 30
0.0
 70
    32
  0
VERTEX
  5
1C99
  8
242
 10
55.530700000000003
 20
17.5227
 30
0.0
 70
    32
  0
VERTEX
  5
1C9A
  8
242
 10
55.3476
 20
17.572700000000001
 30
0.0
 70
    32
  0
VERTEX
  5
1C9B
  8
242
 10
55.161099999999998
 20
17.616199999999999
 30
0.0
 70
    32
  0
VERTEX
  5
1C9C
  8
242
 10
54.971899999999991
 20
17.653199999999991
 30
0.0
 70
    32
  0
VERTEX
  5
1C9D
  8
242
 10
54.7804
 20
17.683700000000002
 30
0.0
 70
    32
  0
VERTEX
  5
1C9E
  8
242
 10
54.5869
 20
17.7074
 30
0.0
 70
    32
  0
VERTEX
  5
1C9F
  8
242
 10
54.392099999999999
 20
17.724399999999999
 30
0.0
 70
    32
  0
VERTEX
  5
1CA0
  8
242
 10
54.196300000000001
 20
17.7346
 30
0.0
 70
    32
  0
VERTEX
  5
1CA1
  8
242
 10
54.0
 20
17.738
 30
0.0
 70
    32
  0
VERTEX
  5
1CA2
  8
242
 10
53.803699999999999
 20
17.7346
 30
0.0
 70
    32
  0
VERTEX
  5
1CA3
  8
242
 10
53.607900000000001
 20
17.724399999999999
 30
0.0
 70
    32
  0
VERTEX
  5
1CA4
  8
242
 10
53.4131
 20
17.7074
 30
0.0
 70
    32
  0
VERTEX
  5
1CA5
  8
242
 10
53.2196
 20
17.683700000000002
 30
0.0
 70
    32
  0
VERTEX
  5
1CA6
  8
242
 10
53.028100000000002
 20
17.653199999999991
 30
0.0
 70
    32
  0
VERTEX
  5
1CA7
  8
242
 10
52.838900000000002
 20
17.616199999999999
 30
0.0
 70
    32
  0
VERTEX
  5
1CA8
  8
242
 10
52.6524
 20
17.572700000000001
 30
0.0
 70
    32
  0
VERTEX
  5
1CA9
  8
242
 10
52.469299999999983
 20
17.5227
 30
0.0
 70
    32
  0
VERTEX
  5
1CAA
  8
242
 10
52.289799999999993
 20
17.4665
 30
0.0
 70
    32
  0
VERTEX
  5
1CAB
  8
242
 10
52.114400000000003
 20
17.404
 30
0.0
 70
    32
  0
VERTEX
  5
1CAC
  8
242
 10
51.943600000000004
 20
17.335599999999999
 30
0.0
 70
    32
  0
VERTEX
  5
1CAD
  8
242
 10
51.777700000000003
 20
17.261299999999999
 30
0.0
 70
    32
  0
VERTEX
  5
1CAE
  8
242
 10
51.617199999999983
 20
17.1814
 30
0.0
 70
    32
  0
VERTEX
  5
1CAF
  8
242
 10
51.462400000000002
 20
17.096
 30
0.0
 70
    32
  0
VERTEX
  5
1CB0
  8
242
 10
51.313800000000001
 20
17.005299999999998
 30
0.0
 70
    32
  0
VERTEX
  5
1CB1
  8
242
 10
51.171599999999998
 20
16.909600000000001
 30
0.0
 70
    32
  0
VERTEX
  5
1CB2
  8
242
 10
51.036200000000001
 20
16.809000000000001
 30
0.0
 70
    32
  0
VERTEX
  5
1CB3
  8
242
 10
50.908000000000001
 20
16.703900000000001
 30
0.0
 70
    32
  0
VERTEX
  5
1CB4
  8
242
 10
50.787199999999999
 20
16.5945
 30
0.0
 70
    32
  0
VERTEX
  5
1CB5
  8
242
 10
50.674100000000003
 20
16.481000000000002
 30
0.0
 70
    32
  0
VERTEX
  5
1CB6
  8
242
 10
50.569099999999999
 20
16.363700000000001
 30
0.0
 70
    32
  0
VERTEX
  5
1CB7
  8
242
 10
50.472299999999983
 20
16.242899999999999
 30
0.0
 70
    32
  0
VERTEX
  5
1CB8
  8
242
 10
50.383999999999993
 20
16.1189
 30
0.0
 70
    32
  0
VERTEX
  5
1CB9
  8
242
 10
50.304499999999997
 20
15.992000000000001
 30
0.0
 70
    32
  0
VERTEX
  5
1CBA
  8
242
 10
50.233800000000002
 20
15.862500000000001
 30
0.0
 70
    32
  0
VERTEX
  5
1CBB
  8
242
 10
50.172199999999997
 20
15.730600000000001
 30
0.0
 70
    32
  0
VERTEX
  5
1CBC
  8
242
 10
50.119900000000001
 20
15.5968
 30
0.0
 70
    32
  0
VERTEX
  5
1CBD
  8
242
 10
50.076900000000002
 20
15.461399999999999
 30
0.0
 70
    32
  0
VERTEX
  5
1CBE
  8
242
 10
50.043300000000002
 20
15.3246
 30
0.0
 70
    32
  0
VERTEX
  5
1CBF
  8
242
 10
50.019300000000001
 20
15.1868
 30
0.0
 70
    32
  0
VERTEX
  5
1CC0
  8
242
 10
50.004800000000003
 20
15.048400000000001
 30
0.0
 70
    32
  0
VERTEX
  5
1CC1
  8
242
 10
50.0
 20
14.909599999999999
 30
0.0
 70
    32
  0
VERTEX
  5
1CC2
  8
242
 10
50.004800000000003
 20
14.770799999999999
 30
0.0
 70
    32
  0
VERTEX
  5
1CC3
  8
242
 10
50.019300000000001
 20
14.632300000000001
 30
0.0
 70
    32
  0
VERTEX
  5
1CC4
  8
242
 10
50.043300000000002
 20
14.4946
 30
0.0
 70
    32
  0
VERTEX
  5
1CC5
  8
242
 10
50.076900000000002
 20
14.357799999999999
 30
0.0
 70
    32
  0
VERTEX
  5
1CC6
  8
242
 10
50.119900000000001
 20
14.222300000000001
 30
0.0
 70
    32
  0
VERTEX
  5
1CC7
  8
242
 10
50.172199999999997
 20
14.0885
 30
0.0
 70
    32
  0
VERTEX
  5
1CC8
  8
242
 10
50.233800000000002
 20
13.9567
 30
0.0
 70
    32
  0
VERTEX
  5
1CC9
  8
242
 10
50.304499999999997
 20
13.827199999999999
 30
0.0
 70
    32
  0
VERTEX
  5
1CCA
  8
242
 10
50.383999999999993
 20
13.7003
 30
0.0
 70
    32
  0
VERTEX
  5
1CCB
  8
242
 10
50.472299999999983
 20
13.5763
 30
0.0
 70
    32
  0
VERTEX
  5
1CCC
  8
242
 10
50.569099999999999
 20
13.455500000000001
 30
0.0
 70
    32
  0
VERTEX
  5
1CCD
  8
242
 10
50.674100000000003
 20
13.338200000000001
 30
0.0
 70
    32
  0
VERTEX
  5
1CCE
  8
242
 10
50.787199999999999
 20
13.2247
 30
0.0
 70
    32
  0
VERTEX
  5
1CCF
  8
242
 10
50.908000000000001
 20
13.1152
 30
0.0
 70
    32
  0
VERTEX
  5
1CD0
  8
242
 10
51.036200000000001
 20
13.0101
 30
0.0
 70
    32
  0
VERTEX
  5
1CD1
  8
242
 10
51.171599999999998
 20
12.909599999999999
 30
0.0
 70
    32
  0
VERTEX
  5
1CD2
  8
242
 10
51.313800000000001
 20
12.8139
 30
0.0
 70
    32
  0
VERTEX
  5
1CD3
  8
242
 10
51.462400000000002
 20
12.7232
 30
0.0
 70
    32
  0
VERTEX
  5
1CD4
  8
242
 10
51.617199999999983
 20
12.6378
 30
0.0
 70
    32
  0
VERTEX
  5
1CD5
  8
242
 10
51.777700000000003
 20
12.5578
 30
0.0
 70
    32
  0
VERTEX
  5
1CD6
  8
242
 10
51.943600000000004
 20
12.483599999999999
 30
0.0
 70
    32
  0
VERTEX
  5
1CD7
  8
242
 10
52.114400000000003
 20
12.415100000000001
 30
0.0
 70
    32
  0
VERTEX
  5
1CD8
  8
242
 10
52.289799999999993
 20
12.3527
 30
0.0
 70
    32
  0
VERTEX
  5
1CD9
  8
242
 10
52.469299999999983
 20
12.2965
 30
0.0
 70
    32
  0
VERTEX
  5
1CDA
  8
242
 10
52.6524
 20
12.246499999999999
 30
0.0
 70
    32
  0
VERTEX
  5
1CDB
  8
242
 10
52.838900000000002
 20
12.2029
 30
0.0
 70
    32
  0
VERTEX
  5
1CDC
  8
242
 10
53.028100000000002
 20
12.165900000000001
 30
0.0
 70
    32
  0
VERTEX
  5
1CDD
  8
242
 10
53.2196
 20
12.1355
 30
0.0
 70
    32
  0
VERTEX
  5
1CDE
  8
242
 10
53.4131
 20
12.111800000000001
 30
0.0
 70
    32
  0
VERTEX
  5
1CDF
  8
242
 10
53.607900000000001
 20
12.094799999999999
 30
0.0
 70
    32
  0
VERTEX
  5
1CE0
  8
242
 10
53.803699999999999
 20
12.0846
 30
0.0
 70
    32
  0
VERTEX
  5
1CE1
  8
242
 10
54.0
 20
12.081200000000001
 30
0.0
 70
    32
  0
VERTEX
  5
1CE2
  8
242
 10
54.196300000000001
 20
12.0846
 30
0.0
 70
    32
  0
VERTEX
  5
1CE3
  8
242
 10
54.392099999999999
 20
12.094799999999999
 30
0.0
 70
    32
  0
VERTEX
  5
1CE4
  8
242
 10
54.5869
 20
12.111800000000001
 30
0.0
 70
    32
  0
VERTEX
  5
1CE5
  8
242
 10
54.7804
 20
12.1355
 30
0.0
 70
    32
  0
VERTEX
  5
1CE6
  8
242
 10
54.971899999999991
 20
12.165900000000001
 30
0.0
 70
    32
  0
VERTEX
  5
1CE7
  8
242
 10
55.161099999999998
 20
12.2029
 30
0.0
 70
    32
  0
VERTEX
  5
1CE8
  8
242
 10
55.3476
 20
12.246499999999999
 30
0.0
 70
    32
  0
VERTEX
  5
1CE9
  8
242
 10
55.530700000000003
 20
12.2965
 30
0.0
 70
    32
  0
VERTEX
  5
1CEA
  8
242
 10
55.7102
 20
12.3527
 30
0.0
 70
    32
  0
VERTEX
  5
1CEB
  8
242
 10
55.885599999999997
 20
12.415100000000001
 30
0.0
 70
    32
  0
VERTEX
  5
1CEC
  8
242
 10
56.056399999999996
 20
12.483599999999999
 30
0.0
 70
    32
  0
VERTEX
  5
1CED
  8
242
 10
56.222299999999997
 20
12.5578
 30
0.0
 70
    32
  0
VERTEX
  5
1CEE
  8
242
 10
56.382800000000003
 20
12.6378
 30
0.0
 70
    32
  0
VERTEX
  5
1CEF
  8
242
 10
56.537599999999998
 20
12.7232
 30
0.0
 70
    32
  0
VERTEX
  5
1CF0
  8
242
 10
56.686199999999999
 20
12.8139
 30
0.0
 70
    32
  0
VERTEX
  5
1CF1
  8
242
 10
56.828400000000002
 20
12.909599999999999
 30
0.0
 70
    32
  0
VERTEX
  5
1CF2
  8
242
 10
56.963799999999999
 20
13.0101
 30
0.0
 70
    32
  0
VERTEX
  5
1CF3
  8
242
 10
57.091999999999999
 20
13.1152
 30
0.0
 70
    32
  0
VERTEX
  5
1CF4
  8
242
 10
57.212800000000001
 20
13.2247
 30
0.0
 70
    32
  0
VERTEX
  5
1CF5
  8
242
 10
57.325899999999997
 20
13.338200000000001
 30
0.0
 70
    32
  0
VERTEX
  5
1CF6
  8
242
 10
57.430900000000001
 20
13.455500000000001
 30
0.0
 70
    32
  0
VERTEX
  5
1CF7
  8
242
 10
57.527700000000003
 20
13.5763
 30
0.0
 70
    32
  0
VERTEX
  5
1CF8
  8
242
 10
57.616000000000007
 20
13.7003
 30
0.0
 70
    32
  0
VERTEX
  5
1CF9
  8
242
 10
57.695500000000003
 20
13.827199999999999
 30
0.0
 70
    32
  0
VERTEX
  5
1CFA
  8
242
 10
57.766199999999998
 20
13.9567
 30
0.0
 70
    32
  0
VERTEX
  5
1CFB
  8
242
 10
57.827800000000003
 20
14.0885
 30
0.0
 70
    32
  0
VERTEX
  5
1CFC
  8
242
 10
57.880099999999992
 20
14.222300000000001
 30
0.0
 70
    32
  0
VERTEX
  5
1CFD
  8
242
 10
57.923099999999998
 20
14.357799999999999
 30
0.0
 70
    32
  0
VERTEX
  5
1CFE
  8
242
 10
57.956699999999998
 20
14.4946
 30
0.0
 70
    32
  0
VERTEX
  5
1CFF
  8
242
 10
57.980699999999999
 20
14.632300000000001
 30
0.0
 70
    32
  0
VERTEX
  5
1D00
  8
242
 10
57.995199999999997
 20
14.770799999999999
 30
0.0
 70
    32
  0
VERTEX
  5
1D01
  8
242
 10
58.0
 20
14.909599999999999
 30
0.0
 70
    32
  0
SEQEND
  5
1D02
  8
242
  0
POLYLINE
  5
1D03
  8
241
  6
CONTINUOUS
 66
     1
 10
0.0
 20
0.0
 30
0.0
 70
     8
  0
VERTEX
  5
1D04
  8
241
  6
CONTINUOUS
 10
50.625
 20
14.9947
 30
0.0
 70
    32
  0
VERTEX
  5
1D05
  8
241
  6
CONTINUOUS
 10
50.629100000000001
 20
14.877599999999999
 30
0.0
 70
    32
  0
VERTEX
  5
1D06
  8
241
  6
CONTINUOUS
 10
50.641300000000001
 20
14.7608
 30
0.0
 70
    32
  0
VERTEX
  5
1D07
  8
241
  6
CONTINUOUS
 10
50.661499999999997
 20
14.644500000000001
 30
0.0
 70
    32
  0
VERTEX
  5
1D08
  8
241
  6
CONTINUOUS
 10
50.689799999999991
 20
14.5291
 30
0.0
 70
    32
  0
VERTEX
  5
1D09
  8
241
  6
CONTINUOUS
 10
50.726100000000002
 20
14.4148
 30
0.0
 70
    32
  0
VERTEX
  5
1D0A
  8
241
  6
CONTINUOUS
 10
50.770299999999999
 20
14.3019
 30
0.0
 70
    32
  0
VERTEX
  5
1D0B
  8
241
  6
CONTINUOUS
 10
50.822299999999998
 20
14.1907
 30
0.0
 70
    32
  0
VERTEX
  5
1D0C
  8
241
  6
CONTINUOUS
 10
50.881900000000002
 20
14.0814
 30
0.0
 70
    32
  0
VERTEX
  5
1D0D
  8
241
  6
CONTINUOUS
 10
50.948999999999991
 20
13.974299999999999
 30
0.0
 70
    32
  0
VERTEX
  5
1D0E
  8
241
  6
CONTINUOUS
 10
51.023499999999999
 20
13.8697
 30
0.0
 70
    32
  0
VERTEX
  5
1D0F
  8
241
  6
CONTINUOUS
 10
51.105200000000011
 20
13.767799999999999
 30
0.0
 70
    32
  0
VERTEX
  5
1D10
  8
241
  6
CONTINUOUS
 10
51.193800000000003
 20
13.668799999999999
 30
0.0
 70
    32
  0
VERTEX
  5
1D11
  8
241
  6
CONTINUOUS
 10
51.289200000000001
 20
13.5731
 30
0.0
 70
    32
  0
VERTEX
  5
1D12
  8
241
  6
CONTINUOUS
 10
51.391100000000002
 20
13.480700000000001
 30
0.0
 70
    32
  0
VERTEX
  5
1D13
  8
241
  6
CONTINUOUS
 10
51.499299999999998
 20
13.391999999999999
 30
0.0
 70
    32
  0
VERTEX
  5
1D14
  8
241
  6
CONTINUOUS
 10
51.613500000000002
 20
13.3072
 30
0.0
 70
    32
  0
VERTEX
  5
1D15
  8
241
  6
CONTINUOUS
 10
51.733499999999999
 20
13.2264
 30
0.0
 70
    32
  0
VERTEX
  5
1D16
  8
241
  6
CONTINUOUS
 10
51.858899999999998
 20
13.149900000000001
 30
0.0
 70
    32
  0
VERTEX
  5
1D17
  8
241
  6
CONTINUOUS
 10
51.989499999999992
 20
13.0779
 30
0.0
 70
    32
  0
VERTEX
  5
1D18
  8
241
  6
CONTINUOUS
 10
52.125
 20
13.010400000000001
 30
0.0
 70
    32
  0
VERTEX
  5
1D19
  8
241
  6
CONTINUOUS
 10
52.264899999999997
 20
12.947699999999999
 30
0.0
 70
    32
  0
VERTEX
  5
1D1A
  8
241
  6
CONTINUOUS
 10
52.408999999999992
 20
12.890000000000001
 30
0.0
 70
    32
  0
VERTEX
  5
1D1B
  8
241
  6
CONTINUOUS
 10
52.557000000000002
 20
12.837300000000001
 30
0.0
 70
    32
  0
VERTEX
  5
1D1C
  8
241
  6
CONTINUOUS
 10
52.70839999999999
 20
12.789899999999999
 30
0.0
 70
    32
  0
VERTEX
  5
1D1D
  8
241
  6
CONTINUOUS
 10
52.863
 20
12.7477
 30
0.0
 70
    32
  0
VERTEX
  5
1D1E
  8
241
  6
CONTINUOUS
 10
53.020299999999999
 20
12.711
 30
0.0
 70
    32
  0
VERTEX
  5
1D1F
  8
241
  6
CONTINUOUS
 10
53.179900000000004
 20
12.6797
 30
0.0
 70
    32
  0
VERTEX
  5
1D20
  8
241
  6
CONTINUOUS
 10
53.3416
 20
12.6541
 30
0.0
 70
    32
  0
VERTEX
  5
1D21
  8
241
  6
CONTINUOUS
 10
53.50480000000001
 20
12.634
 30
0.0
 70
    32
  0
VERTEX
  5
1D22
  8
241
  6
CONTINUOUS
 10
53.669199999999996
 20
12.6197
 30
0.0
 70
    32
  0
VERTEX
  5
1D23
  8
241
  6
CONTINUOUS
 10
53.834400000000002
 20
12.6111
 30
0.0
 70
    32
  0
VERTEX
  5
1D24
  8
241
  6
CONTINUOUS
 10
54.0
 20
12.6082
 30
0.0
 70
    32
  0
VERTEX
  5
1D25
  8
241
  6
CONTINUOUS
 10
54.165599999999998
 20
12.6111
 30
0.0
 70
    32
  0
VERTEX
  5
1D26
  8
241
  6
CONTINUOUS
 10
54.330800000000004
 20
12.6197
 30
0.0
 70
    32
  0
VERTEX
  5
1D27
  8
241
  6
CONTINUOUS
 10
54.49519999999999
 20
12.634
 30
0.0
 70
    32
  0
VERTEX
  5
1D28
  8
241
  6
CONTINUOUS
 10
54.6584
 20
12.6541
 30
0.0
 70
    32
  0
VERTEX
  5
1D29
  8
241
  6
CONTINUOUS
 10
54.820099999999982
 20
12.6797
 30
0.0
 70
    32
  0
VERTEX
  5
1D2A
  8
241
  6
CONTINUOUS
 10
54.979700000000001
 20
12.711
 30
0.0
 70
    32
  0
VERTEX
  5
1D2B
  8
241
  6
CONTINUOUS
 10
55.137
 20
12.7477
 30
0.0
 70
    32
  0
VERTEX
  5
1D2C
  8
241
  6
CONTINUOUS
 10
55.291600000000003
 20
12.789899999999999
 30
0.0
 70
    32
  0
VERTEX
  5
1D2D
  8
241
  6
CONTINUOUS
 10
55.442999999999991
 20
12.837300000000001
 30
0.0
 70
    32
  0
VERTEX
  5
1D2E
  8
241
  6
CONTINUOUS
 10
55.591000000000001
 20
12.890000000000001
 30
0.0
 70
    32
  0
VERTEX
  5
1D2F
  8
241
  6
CONTINUOUS
 10
55.735100000000003
 20
12.947699999999999
 30
0.0
 70
    32
  0
VERTEX
  5
1D30
  8
241
  6
CONTINUOUS
 10
55.875
 20
13.010400000000001
 30
0.0
 70
    32
  0
VERTEX
  5
1D31
  8
241
  6
CONTINUOUS
 10
56.0105
 20
13.0779
 30
0.0
 70
    32
  0
VERTEX
  5
1D32
  8
241
  6
CONTINUOUS
 10
56.141100000000002
 20
13.149900000000001
 30
0.0
 70
    32
  0
VERTEX
  5
1D33
  8
241
  6
CONTINUOUS
 10
56.266500000000001
 20
13.2264
 30
0.0
 70
    32
  0
VERTEX
  5
1D34
  8
241
  6
CONTINUOUS
 10
56.386499999999998
 20
13.3072
 30
0.0
 70
    32
  0
VERTEX
  5
1D35
  8
241
  6
CONTINUOUS
 10
56.500700000000002
 20
13.391999999999999
 30
0.0
 70
    32
  0
VERTEX
  5
1D36
  8
241
  6
CONTINUOUS
 10
56.608899999999998
 20
13.480700000000001
 30
0.0
 70
    32
  0
VERTEX
  5
1D37
  8
241
  6
CONTINUOUS
 10
56.710799999999992
 20
13.5731
 30
0.0
 70
    32
  0
VERTEX
  5
1D38
  8
241
  6
CONTINUOUS
 10
56.806199999999997
 20
13.668799999999999
 30
0.0
 70
    32
  0
VERTEX
  5
1D39
  8
241
  6
CONTINUOUS
 10
56.894799999999989
 20
13.767799999999999
 30
0.0
 70
    32
  0
VERTEX
  5
1D3A
  8
241
  6
CONTINUOUS
 10
56.976500000000001
 20
13.8697
 30
0.0
 70
    32
  0
VERTEX
  5
1D3B
  8
241
  6
CONTINUOUS
 10
57.051000000000002
 20
13.974299999999999
 30
0.0
 70
    32
  0
VERTEX
  5
1D3C
  8
241
  6
CONTINUOUS
 10
57.118099999999991
 20
14.0814
 30
0.0
 70
    32
  0
VERTEX
  5
1D3D
  8
241
  6
CONTINUOUS
 10
57.177700000000002
 20
14.1907
 30
0.0
 70
    32
  0
VERTEX
  5
1D3E
  8
241
  6
CONTINUOUS
 10
57.229700000000001
 20
14.3019
 30
0.0
 70
    32
  0
VERTEX
  5
1D3F
  8
241
  6
CONTINUOUS
 10
57.27389999999999
 20
14.4148
 30
0.0
 70
    32
  0
VERTEX
  5
1D40
  8
241
  6
CONTINUOUS
 10
57.310200000000002
 20
14.5291
 30
0.0
 70
    32
  0
VERTEX
  5
1D41
  8
241
  6
CONTINUOUS
 10
57.338500000000003
 20
14.644500000000001
 30
0.0
 70
    32
  0
VERTEX
  5
1D42
  8
241
  6
CONTINUOUS
 10
57.358699999999999
 20
14.7608
 30
0.0
 70
    32
  0
VERTEX
  5
1D43
  8
241
  6
CONTINUOUS
 10
57.370899999999999
 20
14.877599999999999
 30
0.0
 70
    32
  0
VERTEX
  5
1D44
  8
241
  6
CONTINUOUS
 10
57.375
 20
14.9947
 30
0.0
 70
    32
  0
VERTEX
  5
1D45
  8
241
  6
CONTINUOUS
 10
57.370899999999999
 20
15.111800000000001
 30
0.0
 70
    32
  0
VERTEX
  5
1D46
  8
241
  6
CONTINUOUS
 10
57.358699999999999
 20
15.2286
 30
0.0
 70
    32
  0
VERTEX
  5
1D47
  8
241
  6
CONTINUOUS
 10
57.338500000000003
 20
15.344900000000001
 30
0.0
 70
    32
  0
VERTEX
  5
1D48
  8
241
  6
CONTINUOUS
 10
57.310200000000002
 20
15.4603
 30
0.0
 70
    32
  0
VERTEX
  5
1D49
  8
241
  6
CONTINUOUS
 10
57.27389999999999
 20
15.5746
 30
0.0
 70
    32
  0
VERTEX
  5
1D4A
  8
241
  6
CONTINUOUS
 10
57.229700000000001
 20
15.6875
 30
0.0
 70
    32
  0
VERTEX
  5
1D4B
  8
241
  6
CONTINUOUS
 10
57.177700000000002
 20
15.7987
 30
0.0
 70
    32
  0
VERTEX
  5
1D4C
  8
241
  6
CONTINUOUS
 10
57.118099999999991
 20
15.907999999999999
 30
0.0
 70
    32
  0
VERTEX
  5
1D4D
  8
241
  6
CONTINUOUS
 10
57.051000000000002
 20
16.0151
 30
0.0
 70
    32
  0
VERTEX
  5
1D4E
  8
241
  6
CONTINUOUS
 10
56.976500000000001
 20
16.119700000000002
 30
0.0
 70
    32
  0
VERTEX
  5
1D4F
  8
241
  6
CONTINUOUS
 10
56.894799999999989
 20
16.221599999999999
 30
0.0
 70
    32
  0
VERTEX
  5
1D50
  8
241
  6
CONTINUOUS
 10
56.806199999999997
 20
16.320599999999999
 30
0.0
 70
    32
  0
VERTEX
  5
1D51
  8
241
  6
CONTINUOUS
 10
56.710799999999992
 20
16.4163
 30
0.0
 70
    32
  0
VERTEX
  5
1D52
  8
241
  6
CONTINUOUS
 10
56.608899999999998
 20
16.508700000000001
 30
0.0
 70
    32
  0
VERTEX
  5
1D53
  8
241
  6
CONTINUOUS
 10
56.500700000000002
 20
16.5974
 30
0.0
 70
    32
  0
VERTEX
  5
1D54
  8
241
  6
CONTINUOUS
 10
56.386499999999998
 20
16.682200000000002
 30
0.0
 70
    32
  0
VERTEX
  5
1D55
  8
241
  6
CONTINUOUS
 10
56.266500000000001
 20
16.763000000000002
 30
0.0
 70
    32
  0
VERTEX
  5
1D56
  8
241
  6
CONTINUOUS
 10
56.141100000000002
 20
16.839500000000001
 30
0.0
 70
    32
  0
VERTEX
  5
1D57
  8
241
  6
CONTINUOUS
 10
56.0105
 20
16.9115
 30
0.0
 70
    32
  0
VERTEX
  5
1D58
  8
241
  6
CONTINUOUS
 10
55.875
 20
16.978999999999999
 30
0.0
 70
    32
  0
VERTEX
  5
1D59
  8
241
  6
CONTINUOUS
 10
55.735100000000003
 20
17.041699999999999
 30
0.0
 70
    32
  0
VERTEX
  5
1D5A
  8
241
  6
CONTINUOUS
 10
55.591000000000001
 20
17.099399999999999
 30
0.0
 70
    32
  0
VERTEX
  5
1D5B
  8
241
  6
CONTINUOUS
 10
55.442999999999991
 20
17.152100000000001
 30
0.0
 70
    32
  0
VERTEX
  5
1D5C
  8
241
  6
CONTINUOUS
 10
55.291600000000003
 20
17.1995
 30
0.0
 70
    32
  0
VERTEX
  5
1D5D
  8
241
  6
CONTINUOUS
 10
55.137
 20
17.241700000000002
 30
0.0
 70
    32
  0
VERTEX
  5
1D5E
  8
241
  6
CONTINUOUS
 10
54.979700000000001
 20
17.278400000000001
 30
0.0
 70
    32
  0
VERTEX
  5
1D5F
  8
241
  6
CONTINUOUS
 10
54.820099999999982
 20
17.309699999999999
 30
0.0
 70
    32
  0
VERTEX
  5
1D60
  8
241
  6
CONTINUOUS
 10
54.6584
 20
17.3353
 30
0.0
 70
    32
  0
VERTEX
  5
1D61
  8
241
  6
CONTINUOUS
 10
54.49519999999999
 20
17.355399999999999
 30
0.0
 70
    32
  0
VERTEX
  5
1D62
  8
241
  6
CONTINUOUS
 10
54.330800000000004
 20
17.369700000000002
 30
0.0
 70
    32
  0
VERTEX
  5
1D63
  8
241
  6
CONTINUOUS
 10
54.165599999999998
 20
17.378299999999999
 30
0.0
 70
    32
  0
VERTEX
  5
1D64
  8
241
  6
CONTINUOUS
 10
54.0
 20
17.3812
 30
0.0
 70
    32
  0
VERTEX
  5
1D65
  8
241
  6
CONTINUOUS
 10
53.834400000000002
 20
17.378299999999999
 30
0.0
 70
    32
  0
VERTEX
  5
1D66
  8
241
  6
CONTINUOUS
 10
53.669199999999996
 20
17.369700000000002
 30
0.0
 70
    32
  0
VERTEX
  5
1D67
  8
241
  6
CONTINUOUS
 10
53.50480000000001
 20
17.355399999999999
 30
0.0
 70
    32
  0
VERTEX
  5
1D68
  8
241
  6
CONTINUOUS
 10
53.3416
 20
17.3353
 30
0.0
 70
    32
  0
VERTEX
  5
1D69
  8
241
  6
CONTINUOUS
 10
53.179900000000004
 20
17.309699999999999
 30
0.0
 70
    32
  0
VERTEX
  5
1D6A
  8
241
  6
CONTINUOUS
 10
53.020299999999999
 20
17.278400000000001
 30
0.0
 70
    32
  0
VERTEX
  5
1D6B
  8
241
  6
CONTINUOUS
 10
52.863
 20
17.241700000000002
 30
0.0
 70
    32
  0
VERTEX
  5
1D6C
  8
241
  6
CONTINUOUS
 10
52.70839999999999
 20
17.1995
 30
0.0
 70
    32
  0
VERTEX
  5
1D6D
  8
241
  6
CONTINUOUS
 10
52.557000000000002
 20
17.152100000000001
 30
0.0
 70
    32
  0
VERTEX
  5
1D6E
  8
241
  6
CONTINUOUS
 10
52.408999999999992
 20
17.099399999999999
 30
0.0
 70
    32
  0
VERTEX
  5
1D6F
  8
241
  6
CONTINUOUS
 10
52.264899999999997
 20
17.041699999999999
 30
0.0
 70
    32
  0
VERTEX
  5
1D70
  8
241
  6
CONTINUOUS
 10
52.125
 20
16.978999999999999
 30
0.0
 70
    32
  0
VERTEX
  5
1D71
  8
241
  6
CONTINUOUS
 10
51.989499999999992
 20
16.9115
 30
0.0
 70
    32
  0
VERTEX
  5
1D72
  8
241
  6
CONTINUOUS
 10
51.858899999999998
 20
16.839500000000001
 30
0.0
 70
    32
  0
VERTEX
  5
1D73
  8
241
  6
CONTINUOUS
 10
51.733499999999999
 20
16.763000000000002
 30
0.0
 70
    32
  0
VERTEX
  5
1D74
  8
241
  6
CONTINUOUS
 10
51.613500000000002
 20
16.682200000000002
 30
0.0
 70
    32
  0
VERTEX
  5
1D75
  8
241
  6
CONTINUOUS
 10
51.499299999999998
 20
16.5974
 30
0.0
 70
    32
  0
VERTEX
  5
1D76
  8
241
  6
CONTINUOUS
 10
51.391100000000002
 20
16.508700000000001
 30
0.0
 70
    32
  0
VERTEX
  5
1D77
  8
241
  6
CONTINUOUS
 10
51.289200000000001
 20
16.4163
 30
0.0
 70
    32
  0
VERTEX
  5
1D78
  8
241
  6
CONTINUOUS
 10
51.193800000000003
 20
16.320599999999999
 30
0.0
 70
    32
  0
VERTEX
  5
1D79
  8
241
  6
CONTINUOUS
 10
51.105200000000011
 20
16.221599999999999
 30
0.0
 70
    32
  0
VERTEX
  5
1D7A
  8
241
  6
CONTINUOUS
 10
51.023499999999999
 20
16.119700000000002
 30
0.0
 70
    32
  0
VERTEX
  5
1D7B
  8
241
  6
CONTINUOUS
 10
50.948999999999991
 20
16.0151
 30
0.0
 70
    32
  0
VERTEX
  5
1D7C
  8
241
  6
CONTINUOUS
 10
50.881900000000002
 20
15.907999999999999
 30
0.0
 70
    32
  0
VERTEX
  5
1D7D
  8
241
  6
CONTINUOUS
 10
50.822299999999998
 20
15.7987
 30
0.0
 70
    32
  0
VERTEX
  5
1D7E
  8
241
  6
CONTINUOUS
 10
50.770299999999999
 20
15.6875
 30
0.0
 70
    32
  0
VERTEX
  5
1D7F
  8
241
  6
CONTINUOUS
 10
50.726100000000002
 20
15.5746
 30
0.0
 70
    32
  0
VERTEX
  5
1D80
  8
241
  6
CONTINUOUS
 10
50.689799999999991
 20
15.4603
 30
0.0
 70
    32
  0
VERTEX
  5
1D81
  8
241
  6
CONTINUOUS
 10
50.661499999999997
 20
15.344900000000001
 30
0.0
 70
    32
  0
VERTEX
  5
1D82
  8
241
  6
CONTINUOUS
 10
50.641300000000001
 20
15.2286
 30
0.0
 70
    32
  0
VERTEX
  5
1D83
  8
241
  6
CONTINUOUS
 10
50.629100000000001
 20
15.111800000000001
 30
0.0
 70
    32
  0
VERTEX
  5
1D84
  8
241
  6
CONTINUOUS
 10
50.625
 20
14.9947
 30
0.0
 70
    32
  0
SEQEND
  5
1D85
  8
241
  6
CONTINUOUS
  0
LINE
  5
1D86
  8
245
  6
CENTER2
 10
50.0
 20
15.20279579550151
 30
0.0
 11
58.0
 21
15.20279579550151
 31
0.0
  0
LINE
  5
1D87
  8
245
  6
CENTER2
 10
53.999999999996362
 20
12.08115601388363
 30
0.0
 11
54.0
 21
17.738010263376051
 31
0.0
  0
LINE
  5
1D88
  8
241
  6
CONTINUOUS
 10
1.5005154776117691
 20
21.399999999996002
 30
0.0
 11
1.5005154776044931
 21
-21.399999999996002
 31
0.0
  0
POLYLINE
  5
1D89
  8
242
 66
     1
 10
0.0
 20
0.0
 30
0.0
 70
     8
  0
VERTEX
  5
1D8A
  8
242
 10
58.0
 20
-14.909599999999999
 30
0.0
 70
    32
  0
VERTEX
  5
1D8B
  8
242
 10
57.995199999999997
 20
-15.048400000000001
 30
0.0
 70
    32
  0
VERTEX
  5
1D8C
  8
242
 10
57.980699999999999
 20
-15.1868
 30
0.0
 70
    32
  0
VERTEX
  5
1D8D
  8
242
 10
57.956699999999998
 20
-15.3246
 30
0.0
 70
    32
  0
VERTEX
  5
1D8E
  8
242
 10
57.923099999999998
 20
-15.461399999999999
 30
0.0
 70
    32
  0
VERTEX
  5
1D8F
  8
242
 10
57.880099999999992
 20
-15.5968
 30
0.0
 70
    32
  0
VERTEX
  5
1D90
  8
242
 10
57.827800000000003
 20
-15.730600000000001
 30
0.0
 70
    32
  0
VERTEX
  5
1D91
  8
242
 10
57.766199999999998
 20
-15.862500000000001
 30
0.0
 70
    32
  0
VERTEX
  5
1D92
  8
242
 10
57.695500000000003
 20
-15.992000000000001
 30
0.0
 70
    32
  0
VERTEX
  5
1D93
  8
242
 10
57.616000000000007
 20
-16.1189
 30
0.0
 70
    32
  0
VERTEX
  5
1D94
  8
242
 10
57.527700000000003
 20
-16.242899999999999
 30
0.0
 70
    32
  0
VERTEX
  5
1D95
  8
242
 10
57.430900000000001
 20
-16.363700000000001
 30
0.0
 70
    32
  0
VERTEX
  5
1D96
  8
242
 10
57.325899999999997
 20
-16.481000000000002
 30
0.0
 70
    32
  0
VERTEX
  5
1D97
  8
242
 10
57.212800000000001
 20
-16.5945
 30
0.0
 70
    32
  0
VERTEX
  5
1D98
  8
242
 10
57.091999999999999
 20
-16.703900000000001
 30
0.0
 70
    32
  0
VERTEX
  5
1D99
  8
242
 10
56.963799999999999
 20
-16.809000000000001
 30
0.0
 70
    32
  0
VERTEX
  5
1D9A
  8
242
 10
56.828400000000002
 20
-16.909600000000001
 30
0.0
 70
    32
  0
VERTEX
  5
1D9B
  8
242
 10
56.686199999999999
 20
-17.005299999999998
 30
0.0
 70
    32
  0
VERTEX
  5
1D9C
  8
242
 10
56.537599999999998
 20
-17.096
 30
0.0
 70
    32
  0
VERTEX
  5
1D9D
  8
242
 10
56.382800000000003
 20
-17.1814
 30
0.0
 70
    32
  0
VERTEX
  5
1D9E
  8
242
 10
56.222299999999997
 20
-17.261299999999999
 30
0.0
 70
    32
  0
VERTEX
  5
1D9F
  8
242
 10
56.056399999999996
 20
-17.335599999999999
 30
0.0
 70
    32
  0
VERTEX
  5
1DA0
  8
242
 10
55.885599999999997
 20
-17.404
 30
0.0
 70
    32
  0
VERTEX
  5
1DA1
  8
242
 10
55.7102
 20
-17.4665
 30
0.0
 70
    32
  0
VERTEX
  5
1DA2
  8
242
 10
55.530700000000003
 20
-17.5227
 30
0.0
 70
    32
  0
VERTEX
  5
1DA3
  8
242
 10
55.3476
 20
-17.572700000000001
 30
0.0
 70
    32
  0
VERTEX
  5
1DA4
  8
242
 10
55.161099999999998
 20
-17.616199999999999
 30
0.0
 70
    32
  0
VERTEX
  5
1DA5
  8
242
 10
54.971899999999991
 20
-17.653199999999991
 30
0.0
 70
    32
  0
VERTEX
  5
1DA6
  8
242
 10
54.7804
 20
-17.683700000000002
 30
0.0
 70
    32
  0
VERTEX
  5
1DA7
  8
242
 10
54.5869
 20
-17.7074
 30
0.0
 70
    32
  0
VERTEX
  5
1DA8
  8
242
 10
54.392099999999999
 20
-17.724399999999999
 30
0.0
 70
    32
  0
VERTEX
  5
1DA9
  8
242
 10
54.196300000000001
 20
-17.7346
 30
0.0
 70
    32
  0
VERTEX
  5
1DAA
  8
242
 10
54.0
 20
-17.738
 30
0.0
 70
    32
  0
VERTEX
  5
1DAB
  8
242
 10
53.803699999999999
 20
-17.7346
 30
0.0
 70
    32
  0
VERTEX
  5
1DAC
  8
242
 10
53.607900000000001
 20
-17.724399999999999
 30
0.0
 70
    32
  0
VERTEX
  5
1DAD
  8
242
 10
53.4131
 20
-17.7074
 30
0.0
 70
    32
  0
VERTEX
  5
1DAE
  8
242
 10
53.2196
 20
-17.683700000000002
 30
0.0
 70
    32
  0
VERTEX
  5
1DAF
  8
242
 10
53.028100000000002
 20
-17.653199999999991
 30
0.0
 70
    32
  0
VERTEX
  5
1DB0
  8
242
 10
52.838900000000002
 20
-17.616199999999999
 30
0.0
 70
    32
  0
VERTEX
  5
1DB1
  8
242
 10
52.6524
 20
-17.572700000000001
 30
0.0
 70
    32
  0
VERTEX
  5
1DB2
  8
242
 10
52.469299999999983
 20
-17.5227
 30
0.0
 70
    32
  0
VERTEX
  5
1DB3
  8
242
 10
52.289799999999993
 20
-17.4665
 30
0.0
 70
    32
  0
VERTEX
  5
1DB4
  8
242
 10
52.114400000000003
 20
-17.404
 30
0.0
 70
    32
  0
VERTEX
  5
1DB5
  8
242
 10
51.943600000000004
 20
-17.335599999999999
 30
0.0
 70
    32
  0
VERTEX
  5
1DB6
  8
242
 10
51.777700000000003
 20
-17.261299999999999
 30
0.0
 70
    32
  0
VERTEX
  5
1DB7
  8
242
 10
51.617199999999983
 20
-17.1814
 30
0.0
 70
    32
  0
VERTEX
  5
1DB8
  8
242
 10
51.462400000000002
 20
-17.096
 30
0.0
 70
    32
  0
VERTEX
  5
1DB9
  8
242
 10
51.313800000000001
 20
-17.005299999999998
 30
0.0
 70
    32
  0
VERTEX
  5
1DBA
  8
242
 10
51.171599999999998
 20
-16.909600000000001
 30
0.0
 70
    32
  0
VERTEX
  5
1DBB
  8
242
 10
51.036200000000001
 20
-16.809000000000001
 30
0.0
 70
    32
  0
VERTEX
  5
1DBC
  8
242
 10
50.908000000000001
 20
-16.703900000000001
 30
0.0
 70
    32
  0
VERTEX
  5
1DBD
  8
242
 10
50.787199999999999
 20
-16.5945
 30
0.0
 70
    32
  0
VERTEX
  5
1DBE
  8
242
 10
50.674100000000003
 20
-16.481000000000002
 30
0.0
 70
    32
  0
VERTEX
  5
1DBF
  8
242
 10
50.569099999999999
 20
-16.363700000000001
 30
0.0
 70
    32
  0
VERTEX
  5
1DC0
  8
242
 10
50.472299999999983
 20
-16.242899999999999
 30
0.0
 70
    32
  0
VERTEX
  5
1DC1
  8
242
 10
50.383999999999993
 20
-16.1189
 30
0.0
 70
    32
  0
VERTEX
  5
1DC2
  8
242
 10
50.304499999999997
 20
-15.992000000000001
 30
0.0
 70
    32
  0
VERTEX
  5
1DC3
  8
242
 10
50.233800000000002
 20
-15.862500000000001
 30
0.0
 70
    32
  0
VERTEX
  5
1DC4
  8
242
 10
50.172199999999997
 20
-15.730600000000001
 30
0.0
 70
    32
  0
VERTEX
  5
1DC5
  8
242
 10
50.119900000000001
 20
-15.5968
 30
0.0
 70
    32
  0
VERTEX
  5
1DC6
  8
242
 10
50.076900000000002
 20
-15.461399999999999
 30
0.0
 70
    32
  0
VERTEX
  5
1DC7
  8
242
 10
50.043300000000002
 20
-15.3246
 30
0.0
 70
    32
  0
VERTEX
  5
1DC8
  8
242
 10
50.019300000000001
 20
-15.1868
 30
0.0
 70
    32
  0
VERTEX
  5
1DC9
  8
242
 10
50.004800000000003
 20
-15.048400000000001
 30
0.0
 70
    32
  0
VERTEX
  5
1DCA
  8
242
 10
50.0
 20
-14.909599999999999
 30
0.0
 70
    32
  0
VERTEX
  5
1DCB
  8
242
 10
50.004800000000003
 20
-14.770799999999999
 30
0.0
 70
    32
  0
VERTEX
  5
1DCC
  8
242
 10
50.019300000000001
 20
-14.632300000000001
 30
0.0
 70
    32
  0
VERTEX
  5
1DCD
  8
242
 10
50.043300000000002
 20
-14.4946
 30
0.0
 70
    32
  0
VERTEX
  5
1DCE
  8
242
 10
50.076900000000002
 20
-14.357799999999999
 30
0.0
 70
    32
  0
VERTEX
  5
1DCF
  8
242
 10
50.119900000000001
 20
-14.222300000000001
 30
0.0
 70
    32
  0
VERTEX
  5
1DD0
  8
242
 10
50.172199999999997
 20
-14.0885
 30
0.0
 70
    32
  0
VERTEX
  5
1DD1
  8
242
 10
50.233800000000002
 20
-13.9567
 30
0.0
 70
    32
  0
VERTEX
  5
1DD2
  8
242
 10
50.304499999999997
 20
-13.827199999999999
 30
0.0
 70
    32
  0
VERTEX
  5
1DD3
  8
242
 10
50.383999999999993
 20
-13.7003
 30
0.0
 70
    32
  0
VERTEX
  5
1DD4
  8
242
 10
50.472299999999983
 20
-13.5763
 30
0.0
 70
    32
  0
VERTEX
  5
1DD5
  8
242
 10
50.569099999999999
 20
-13.455500000000001
 30
0.0
 70
    32
  0
VERTEX
  5
1DD6
  8
242
 10
50.674100000000003
 20
-13.338200000000001
 30
0.0
 70
    32
  0
VERTEX
  5
1DD7
  8
242
 10
50.787199999999999
 20
-13.2247
 30
0.0
 70
    32
  0
VERTEX
  5
1DD8
  8
242
 10
50.908000000000001
 20
-13.1152
 30
0.0
 70
    32
  0
VERTEX
  5
1DD9
  8
242
 10
51.036200000000001
 20
-13.0101
 30
0.0
 70
    32
  0
VERTEX
  5
1DDA
  8
242
 10
51.171599999999998
 20
-12.909599999999999
 30
0.0
 70
    32
  0
VERTEX
  5
1DDB
  8
242
 10
51.313800000000001
 20
-12.8139
 30
0.0
 70
    32
  0
VERTEX
  5
1DDC
  8
242
 10
51.462400000000002
 20
-12.7232
 30
0.0
 70
    32
  0
VERTEX
  5
1DDD
  8
242
 10
51.617199999999983
 20
-12.6378
 30
0.0
 70
    32
  0
VERTEX
  5
1DDE
  8
242
 10
51.777700000000003
 20
-12.5578
 30
0.0
 70
    32
  0
VERTEX
  5
1DDF
  8
242
 10
51.943600000000004
 20
-12.483599999999999
 30
0.0
 70
    32
  0
VERTEX
  5
1DE0
  8
242
 10
52.114400000000003
 20
-12.415100000000001
 30
0.0
 70
    32
  0
VERTEX
  5
1DE1
  8
242
 10
52.289799999999993
 20
-12.3527
 30
0.0
 70
    32
  0
VERTEX
  5
1DE2
  8
242
 10
52.469299999999983
 20
-12.2965
 30
0.0
 70
    32
  0
VERTEX
  5
1DE3
  8
242
 10
52.6524
 20
-12.246499999999999
 30
0.0
 70
    32
  0
VERTEX
  5
1DE4
  8
242
 10
52.838900000000002
 20
-12.2029
 30
0.0
 70
    32
  0
VERTEX
  5
1DE5
  8
242
 10
53.028100000000002
 20
-12.165900000000001
 30
0.0
 70
    32
  0
VERTEX
  5
1DE6
  8
242
 10
53.2196
 20
-12.1355
 30
0.0
 70
    32
  0
VERTEX
  5
1DE7
  8
242
 10
53.4131
 20
-12.111800000000001
 30
0.0
 70
    32
  0
VERTEX
  5
1DE8
  8
242
 10
53.607900000000001
 20
-12.094799999999999
 30
0.0
 70
    32
  0
VERTEX
  5
1DE9
  8
242
 10
53.803699999999999
 20
-12.0846
 30
0.0
 70
    32
  0
VERTEX
  5
1DEA
  8
242
 10
54.0
 20
-12.081200000000001
 30
0.0
 70
    32
  0
VERTEX
  5
1DEB
  8
242
 10
54.196300000000001
 20
-12.0846
 30
0.0
 70
    32
  0
VERTEX
  5
1DEC
  8
242
 10
54.392099999999999
 20
-12.094799999999999
 30
0.0
 70
    32
  0
VERTEX
  5
1DED
  8
242
 10
54.5869
 20
-12.111800000000001
 30
0.0
 70
    32
  0
VERTEX
  5
1DEE
  8
242
 10
54.7804
 20
-12.1355
 30
0.0
 70
    32
  0
VERTEX
  5
1DEF
  8
242
 10
54.971899999999991
 20
-12.165900000000001
 30
0.0
 70
    32
  0
VERTEX
  5
1DF0
  8
242
 10
55.161099999999998
 20
-12.2029
 30
0.0
 70
    32
  0
VERTEX
  5
1DF1
  8
242
 10
55.3476
 20
-12.246499999999999
 30
0.0
 70
    32
  0
VERTEX
  5
1DF2
  8
242
 10
55.530700000000003
 20
-12.2965
 30
0.0
 70
    32
  0
VERTEX
  5
1DF3
  8
242
 10
55.7102
 20
-12.3527
 30
0.0
 70
    32
  0
VERTEX
  5
1DF4
  8
242
 10
55.885599999999997
 20
-12.415100000000001
 30
0.0
 70
    32
  0
VERTEX
  5
1DF5
  8
242
 10
56.056399999999996
 20
-12.483599999999999
 30
0.0
 70
    32
  0
VERTEX
  5
1DF6
  8
242
 10
56.222299999999997
 20
-12.5578
 30
0.0
 70
    32
  0
VERTEX
  5
1DF7
  8
242
 10
56.382800000000003
 20
-12.6378
 30
0.0
 70
    32
  0
VERTEX
  5
1DF8
  8
242
 10
56.537599999999998
 20
-12.7232
 30
0.0
 70
    32
  0
VERTEX
  5
1DF9
  8
242
 10
56.686199999999999
 20
-12.8139
 30
0.0
 70
    32
  0
VERTEX
  5
1DFA
  8
242
 10
56.828400000000002
 20
-12.909599999999999
 30
0.0
 70
    32
  0
VERTEX
  5
1DFB
  8
242
 10
56.963799999999999
 20
-13.0101
 30
0.0
 70
    32
  0
VERTEX
  5
1DFC
  8
242
 10
57.091999999999999
 20
-13.1152
 30
0.0
 70
    32
  0
VERTEX
  5
1DFD
  8
242
 10
57.212800000000001
 20
-13.2247
 30
0.0
 70
    32
  0
VERTEX
  5
1DFE
  8
242
 10
57.325899999999997
 20
-13.338200000000001
 30
0.0
 70
    32
  0
VERTEX
  5
1DFF
  8
242
 10
57.430900000000001
 20
-13.455500000000001
 30
0.0
 70
    32
  0
VERTEX
  5
1E00
  8
242
 10
57.527700000000003
 20
-13.5763
 30
0.0
 70
    32
  0
VERTEX
  5
1E01
  8
242
 10
57.616000000000007
 20
-13.7003
 30
0.0
 70
    32
  0
VERTEX
  5
1E02
  8
242
 10
57.695500000000003
 20
-13.827199999999999
 30
0.0
 70
    32
  0
VERTEX
  5
1E03
  8
242
 10
57.766199999999998
 20
-13.9567
 30
0.0
 70
    32
  0
VERTEX
  5
1E04
  8
242
 10
57.827800000000003
 20
-14.0885
 30
0.0
 70
    32
  0
VERTEX
  5
1E05
  8
242
 10
57.880099999999992
 20
-14.222300000000001
 30
0.0
 70
    32
  0
VERTEX
  5
1E06
  8
242
 10
57.923099999999998
 20
-14.357799999999999
 30
0.0
 70
    32
  0
VERTEX
  5
1E07
  8
242
 10
57.956699999999998
 20
-14.4946
 30
0.0
 70
    32
  0
VERTEX
  5
1E08
  8
242
 10
57.980699999999999
 20
-14.632300000000001
 30
0.0
 70
    32
  0
VERTEX
  5
1E09
  8
242
 10
57.995199999999997
 20
-14.770799999999999
 30
0.0
 70
    32
  0
VERTEX
  5
1E0A
  8
242
 10
58.0
 20
-14.909599999999999
 30
0.0
 70
    32
  0
SEQEND
  5
1E0B
  8
242
  0
POLYLINE
  5
1E0C
  8
241
  6
CONTINUOUS
 66
     1
 10
0.0
 20
0.0
 30
0.0
 70
     8
  0
VERTEX
  5
1E0D
  8
241
  6
CONTINUOUS
 10
50.625
 20
-14.9947
 30
0.0
 70
    32
  0
VERTEX
  5
1E0E
  8
241
  6
CONTINUOUS
 10
50.629100000000001
 20
-14.877599999999999
 30
0.0
 70
    32
  0
VERTEX
  5
1E0F
  8
241
  6
CONTINUOUS
 10
50.641300000000001
 20
-14.7608
 30
0.0
 70
    32
  0
VERTEX
  5
1E10
  8
241
  6
CONTINUOUS
 10
50.661499999999997
 20
-14.644500000000001
 30
0.0
 70
    32
  0
VERTEX
  5
1E11
  8
241
  6
CONTINUOUS
 10
50.689799999999991
 20
-14.5291
 30
0.0
 70
    32
  0
VERTEX
  5
1E12
  8
241
  6
CONTINUOUS
 10
50.726100000000002
 20
-14.4148
 30
0.0
 70
    32
  0
VERTEX
  5
1E13
  8
241
  6
CONTINUOUS
 10
50.770299999999999
 20
-14.3019
 30
0.0
 70
    32
  0
VERTEX
  5
1E14
  8
241
  6
CONTINUOUS
 10
50.822299999999998
 20
-14.1907
 30
0.0
 70
    32
  0
VERTEX
  5
1E15
  8
241
  6
CONTINUOUS
 10
50.881900000000002
 20
-14.0814
 30
0.0
 70
    32
  0
VERTEX
  5
1E16
  8
241
  6
CONTINUOUS
 10
50.948999999999991
 20
-13.974299999999999
 30
0.0
 70
    32
  0
VERTEX
  5
1E17
  8
241
  6
CONTINUOUS
 10
51.023499999999999
 20
-13.8697
 30
0.0
 70
    32
  0
VERTEX
  5
1E18
  8
241
  6
CONTINUOUS
 10
51.105200000000011
 20
-13.767799999999999
 30
0.0
 70
    32
  0
VERTEX
  5
1E19
  8
241
  6
CONTINUOUS
 10
51.193800000000003
 20
-13.668799999999999
 30
0.0
 70
    32
  0
VERTEX
  5
1E1A
  8
241
  6
CONTINUOUS
 10
51.289200000000001
 20
-13.5731
 30
0.0
 70
    32
  0
VERTEX
  5
1E1B
  8
241
  6
CONTINUOUS
 10
51.391100000000002
 20
-13.480700000000001
 30
0.0
 70
    32
  0
VERTEX
  5
1E1C
  8
241
  6
CONTINUOUS
 10
51.499299999999998
 20
-13.391999999999999
 30
0.0
 70
    32
  0
VERTEX
  5
1E1D
  8
241
  6
CONTINUOUS
 10
51.613500000000002
 20
-13.3072
 30
0.0
 70
    32
  0
VERTEX
  5
1E1E
  8
241
  6
CONTINUOUS
 10
51.733499999999999
 20
-13.2264
 30
0.0
 70
    32
  0
VERTEX
  5
1E1F
  8
241
  6
CONTINUOUS
 10
51.858899999999998
 20
-13.149900000000001
 30
0.0
 70
    32
  0
VERTEX
  5
1E20
  8
241
  6
CONTINUOUS
 10
51.989499999999992
 20
-13.0779
 30
0.0
 70
    32
  0
VERTEX
  5
1E21
  8
241
  6
CONTINUOUS
 10
52.125
 20
-13.010400000000001
 30
0.0
 70
    32
  0
VERTEX
  5
1E22
  8
241
  6
CONTINUOUS
 10
52.264899999999997
 20
-12.947699999999999
 30
0.0
 70
    32
  0
VERTEX
  5
1E23
  8
241
  6
CONTINUOUS
 10
52.408999999999992
 20
-12.890000000000001
 30
0.0
 70
    32
  0
VERTEX
  5
1E24
  8
241
  6
CONTINUOUS
 10
52.557000000000002
 20
-12.837300000000001
 30
0.0
 70
    32
  0
VERTEX
  5
1E25
  8
241
  6
CONTINUOUS
 10
52.70839999999999
 20
-12.789899999999999
 30
0.0
 70
    32
  0
VERTEX
  5
1E26
  8
241
  6
CONTINUOUS
 10
52.863
 20
-12.7477
 30
0.0
 70
    32
  0
VERTEX
  5
1E27
  8
241
  6
CONTINUOUS
 10
53.020299999999999
 20
-12.711
 30
0.0
 70
    32
  0
VERTEX
  5
1E28
  8
241
  6
CONTINUOUS
 10
53.179900000000004
 20
-12.6797
 30
0.0
 70
    32
  0
VERTEX
  5
1E29
  8
241
  6
CONTINUOUS
 10
53.3416
 20
-12.6541
 30
0.0
 70
    32
  0
VERTEX
  5
1E2A
  8
241
  6
CONTINUOUS
 10
53.50480000000001
 20
-12.634
 30
0.0
 70
    32
  0
VERTEX
  5
1E2B
  8
241
  6
CONTINUOUS
 10
53.669199999999996
 20
-12.6197
 30
0.0
 70
    32
  0
VERTEX
  5
1E2C
  8
241
  6
CONTINUOUS
 10
53.834400000000002
 20
-12.6111
 30
0.0
 70
    32
  0
VERTEX
  5
1E2D
  8
241
  6
CONTINUOUS
 10
54.0
 20
-12.6082
 30
0.0
 70
    32
  0
VERTEX
  5
1E2E
  8
241
  6
CONTINUOUS
 10
54.165599999999998
 20
-12.6111
 30
0.0
 70
    32
  0
VERTEX
  5
1E2F
  8
241
  6
CONTINUOUS
 10
54.330800000000004
 20
-12.6197
 30
0.0
 70
    32
  0
VERTEX
  5
1E30
  8
241
  6
CONTINUOUS
 10
54.49519999999999
 20
-12.634
 30
0.0
 70
    32
  0
VERTEX
  5
1E31
  8
241
  6
CONTINUOUS
 10
54.6584
 20
-12.6541
 30
0.0
 70
    32
  0
VERTEX
  5
1E32
  8
241
  6
CONTINUOUS
 10
54.820099999999982
 20
-12.6797
 30
0.0
 70
    32
  0
VERTEX
  5
1E33
  8
241
  6
CONTINUOUS
 10
54.979700000000001
 20
-12.711
 30
0.0
 70
    32
  0
VERTEX
  5
1E34
  8
241
  6
CONTINUOUS
 10
55.137
 20
-12.7477
 30
0.0
 70
    32
  0
VERTEX
  5
1E35
  8
241
  6
CONTINUOUS
 10
55.291600000000003
 20
-12.789899999999999
 30
0.0
 70
    32
  0
VERTEX
  5
1E36
  8
241
  6
CONTINUOUS
 10
55.442999999999991
 20
-12.837300000000001
 30
0.0
 70
    32
  0
VERTEX
  5
1E37
  8
241
  6
CONTINUOUS
 10
55.591000000000001
 20
-12.890000000000001
 30
0.0
 70
    32
  0
VERTEX
  5
1E38
  8
241
  6
CONTINUOUS
 10
55.735100000000003
 20
-12.947699999999999
 30
0.0
 70
    32
  0
VERTEX
  5
1E39
  8
241
  6
CONTINUOUS
 10
55.875
 20
-13.010400000000001
 30
0.0
 70
    32
  0
VERTEX
  5
1E3A
  8
241
  6
CONTINUOUS
 10
56.0105
 20
-13.0779
 30
0.0
 70
    32
  0
VERTEX
  5
1E3B
  8
241
  6
CONTINUOUS
 10
56.141100000000002
 20
-13.149900000000001
 30
0.0
 70
    32
  0
VERTEX
  5
1E3C
  8
241
  6
CONTINUOUS
 10
56.266500000000001
 20
-13.2264
 30
0.0
 70
    32
  0
VERTEX
  5
1E3D
  8
241
  6
CONTINUOUS
 10
56.386499999999998
 20
-13.3072
 30
0.0
 70
    32
  0
VERTEX
  5
1E3E
  8
241
  6
CONTINUOUS
 10
56.500700000000002
 20
-13.391999999999999
 30
0.0
 70
    32
  0
VERTEX
  5
1E3F
  8
241
  6
CONTINUOUS
 10
56.608899999999998
 20
-13.480700000000001
 30
0.0
 70
    32
  0
VERTEX
  5
1E40
  8
241
  6
CONTINUOUS
 10
56.710799999999992
 20
-13.5731
 30
0.0
 70
    32
  0
VERTEX
  5
1E41
  8
241
  6
CONTINUOUS
 10
56.806199999999997
 20
-13.668799999999999
 30
0.0
 70
    32
  0
VERTEX
  5
1E42
  8
241
  6
CONTINUOUS
 10
56.894799999999989
 20
-13.767799999999999
 30
0.0
 70
    32
  0
VERTEX
  5
1E43
  8
241
  6
CONTINUOUS
 10
56.976500000000001
 20
-13.8697
 30
0.0
 70
    32
  0
VERTEX
  5
1E44
  8
241
  6
CONTINUOUS
 10
57.051000000000002
 20
-13.974299999999999
 30
0.0
 70
    32
  0
VERTEX
  5
1E45
  8
241
  6
CONTINUOUS
 10
57.118099999999991
 20
-14.0814
 30
0.0
 70
    32
  0
VERTEX
  5
1E46
  8
241
  6
CONTINUOUS
 10
57.177700000000002
 20
-14.1907
 30
0.0
 70
    32
  0
VERTEX
  5
1E47
  8
241
  6
CONTINUOUS
 10
57.229700000000001
 20
-14.3019
 30
0.0
 70
    32
  0
VERTEX
  5
1E48
  8
241
  6
CONTINUOUS
 10
57.27389999999999
 20
-14.4148
 30
0.0
 70
    32
  0
VERTEX
  5
1E49
  8
241
  6
CONTINUOUS
 10
57.310200000000002
 20
-14.5291
 30
0.0
 70
    32
  0
VERTEX
  5
1E4A
  8
241
  6
CONTINUOUS
 10
57.338500000000003
 20
-14.644500000000001
 30
0.0
 70
    32
  0
VERTEX
  5
1E4B
  8
241
  6
CONTINUOUS
 10
57.358699999999999
 20
-14.7608
 30
0.0
 70
    32
  0
VERTEX
  5
1E4C
  8
241
  6
CONTINUOUS
 10
57.370899999999999
 20
-14.877599999999999
 30
0.0
 70
    32
  0
VERTEX
  5
1E4D
  8
241
  6
CONTINUOUS
 10
57.375
 20
-14.9947
 30
0.0
 70
    32
  0
VERTEX
  5
1E4E
  8
241
  6
CONTINUOUS
 10
57.370899999999999
 20
-15.111800000000001
 30
0.0
 70
    32
  0
VERTEX
  5
1E4F
  8
241
  6
CONTINUOUS
 10
57.358699999999999
 20
-15.2286
 30
0.0
 70
    32
  0
VERTEX
  5
1E50
  8
241
  6
CONTINUOUS
 10
57.338500000000003
 20
-15.344900000000001
 30
0.0
 70
    32
  0
VERTEX
  5
1E51
  8
241
  6
CONTINUOUS
 10
57.310200000000002
 20
-15.4603
 30
0.0
 70
    32
  0
VERTEX
  5
1E52
  8
241
  6
CONTINUOUS
 10
57.27389999999999
 20
-15.5746
 30
0.0
 70
    32
  0
VERTEX
  5
1E53
  8
241
  6
CONTINUOUS
 10
57.229700000000001
 20
-15.6875
 30
0.0
 70
    32
  0
VERTEX
  5
1E54
  8
241
  6
CONTINUOUS
 10
57.177700000000002
 20
-15.7987
 30
0.0
 70
    32
  0
VERTEX
  5
1E55
  8
241
  6
CONTINUOUS
 10
57.118099999999991
 20
-15.907999999999999
 30
0.0
 70
    32
  0
VERTEX
  5
1E56
  8
241
  6
CONTINUOUS
 10
57.051000000000002
 20
-16.0151
 30
0.0
 70
    32
  0
VERTEX
  5
1E57
  8
241
  6
CONTINUOUS
 10
56.976500000000001
 20
-16.119700000000002
 30
0.0
 70
    32
  0
VERTEX
  5
1E58
  8
241
  6
CONTINUOUS
 10
56.894799999999989
 20
-16.221599999999999
 30
0.0
 70
    32
  0
VERTEX
  5
1E59
  8
241
  6
CONTINUOUS
 10
56.806199999999997
 20
-16.320599999999999
 30
0.0
 70
    32
  0
VERTEX
  5
1E5A
  8
241
  6
CONTINUOUS
 10
56.710799999999992
 20
-16.4163
 30
0.0
 70
    32
  0
VERTEX
  5
1E5B
  8
241
  6
CONTINUOUS
 10
56.608899999999998
 20
-16.508700000000001
 30
0.0
 70
    32
  0
VERTEX
  5
1E5C
  8
241
  6
CONTINUOUS
 10
56.500700000000002
 20
-16.5974
 30
0.0
 70
    32
  0
VERTEX
  5
1E5D
  8
241
  6
CONTINUOUS
 10
56.386499999999998
 20
-16.682200000000002
 30
0.0
 70
    32
  0
VERTEX
  5
1E5E
  8
241
  6
CONTINUOUS
 10
56.266500000000001
 20
-16.763000000000002
 30
0.0
 70
    32
  0
VERTEX
  5
1E5F
  8
241
  6
CONTINUOUS
 10
56.141100000000002
 20
-16.839500000000001
 30
0.0
 70
    32
  0
VERTEX
  5
1E60
  8
241
  6
CONTINUOUS
 10
56.0105
 20
-16.9115
 30
0.0
 70
    32
  0
VERTEX
  5
1E61
  8
241
  6
CONTINUOUS
 10
55.875
 20
-16.978999999999999
 30
0.0
 70
    32
  0
VERTEX
  5
1E62
  8
241
  6
CONTINUOUS
 10
55.735100000000003
 20
-17.041699999999999
 30
0.0
 70
    32
  0
VERTEX
  5
1E63
  8
241
  6
CONTINUOUS
 10
55.591000000000001
 20
-17.099399999999999
 30
0.0
 70
    32
  0
VERTEX
  5
1E64
  8
241
  6
CONTINUOUS
 10
55.442999999999991
 20
-17.152100000000001
 30
0.0
 70
    32
  0
VERTEX
  5
1E65
  8
241
  6
CONTINUOUS
 10
55.291600000000003
 20
-17.1995
 30
0.0
 70
    32
  0
VERTEX
  5
1E66
  8
241
  6
CONTINUOUS
 10
55.137
 20
-17.241700000000002
 30
0.0
 70
    32
  0
VERTEX
  5
1E67
  8
241
  6
CONTINUOUS
 10
54.979700000000001
 20
-17.278400000000001
 30
0.0
 70
    32
  0
VERTEX
  5
1E68
  8
241
  6
CONTINUOUS
 10
54.820099999999982
 20
-17.309699999999999
 30
0.0
 70
    32
  0
VERTEX
  5
1E69
  8
241
  6
CONTINUOUS
 10
54.6584
 20
-17.3353
 30
0.0
 70
    32
  0
VERTEX
  5
1E6A
  8
241
  6
CONTINUOUS
 10
54.49519999999999
 20
-17.355399999999999
 30
0.0
 70
    32
  0
VERTEX
  5
1E6B
  8
241
  6
CONTINUOUS
 10
54.330800000000004
 20
-17.369700000000002
 30
0.0
 70
    32
  0
VERTEX
  5
1E6C
  8
241
  6
CONTINUOUS
 10
54.165599999999998
 20
-17.378299999999999
 30
0.0
 70
    32
  0
VERTEX
  5
1E6D
  8
241
  6
CONTINUOUS
 10
54.0
 20
-17.3812
 30
0.0
 70
    32
  0
VERTEX
  5
1E6E
  8
241
  6
CONTINUOUS
 10
53.834400000000002
 20
-17.378299999999999
 30
0.0
 70
    32
  0
VERTEX
  5
1E6F
  8
241
  6
CONTINUOUS
 10
53.669199999999996
 20
-17.369700000000002
 30
0.0
 70
    32
  0
VERTEX
  5
1E70
  8
241
  6
CONTINUOUS
 10
53.50480000000001
 20
-17.355399999999999
 30
0.0
 70
    32
  0
VERTEX
  5
1E71
  8
241
  6
CONTINUOUS
 10
53.3416
 20
-17.3353
 30
0.0
 70
    32
  0
VERTEX
  5
1E72
  8
241
  6
CONTINUOUS
 10
53.179900000000004
 20
-17.309699999999999
 30
0.0
 70
    32
  0
VERTEX
  5
1E73
  8
241
  6
CONTINUOUS
 10
53.020299999999999
 20
-17.278400000000001
 30
0.0
 70
    32
  0
VERTEX
  5
1E74
  8
241
  6
CONTINUOUS
 10
52.863
 20
-17.241700000000002
 30
0.0
 70
    32
  0
VERTEX
  5
1E75
  8
241
  6
CONTINUOUS
 10
52.70839999999999
 20
-17.1995
 30
0.0
 70
    32
  0
VERTEX
  5
1E76
  8
241
  6
CONTINUOUS
 10
52.557000000000002
 20
-17.152100000000001
 30
0.0
 70
    32
  0
VERTEX
  5
1E77
  8
241
  6
CONTINUOUS
 10
52.408999999999992
 20
-17.099399999999999
 30
0.0
 70
    32
  0
VERTEX
  5
1E78
  8
241
  6
CONTINUOUS
 10
52.264899999999997
 20
-17.041699999999999
 30
0.0
 70
    32
  0
VERTEX
  5
1E79
  8
241
  6
CONTINUOUS
 10
52.125
 20
-16.978999999999999
 30
0.0
 70
    32
  0
VERTEX
  5
1E7A
  8
241
  6
CONTINUOUS
 10
51.989499999999992
 20
-16.9115
 30
0.0
 70
    32
  0
VERTEX
  5
1E7B
  8
241
  6
CONTINUOUS
 10
51.858899999999998
 20
-16.839500000000001
 30
0.0
 70
    32
  0
VERTEX
  5
1E7C
  8
241
  6
CONTINUOUS
 10
51.733499999999999
 20
-16.763000000000002
 30
0.0
 70
    32
  0
VERTEX
  5
1E7D
  8
241
  6
CONTINUOUS
 10
51.613500000000002
 20
-16.682200000000002
 30
0.0
 70
    32
  0
VERTEX
  5
1E7E
  8
241
  6
CONTINUOUS
 10
51.499299999999998
 20
-16.5974
 30
0.0
 70
    32
  0
VERTEX
  5
1E7F
  8
241
  6
CONTINUOUS
 10
51.391100000000002
 20
-16.508700000000001
 30
0.0
 70
    32
  0
VERTEX
  5
1E80
  8
241
  6
CONTINUOUS
 10
51.289200000000001
 20
-16.4163
 30
0.0
 70
    32
  0
VERTEX
  5
1E81
  8
241
  6
CONTINUOUS
 10
51.193800000000003
 20
-16.320599999999999
 30
0.0
 70
    32
  0
VERTEX
  5
1E82
  8
241
  6
CONTINUOUS
 10
51.105200000000011
 20
-16.221599999999999
 30
0.0
 70
    32
  0
VERTEX
  5
1E83
  8
241
  6
CONTINUOUS
 10
51.023499999999999
 20
-16.119700000000002
 30
0.0
 70
    32
  0
VERTEX
  5
1E84
  8
241
  6
CONTINUOUS
 10
50.948999999999991
 20
-16.0151
 30
0.0
 70
    32
  0
VERTEX
  5
1E85
  8
241
  6
CONTINUOUS
 10
50.881900000000002
 20
-15.907999999999999
 30
0.0
 70
    32
  0
VERTEX
  5
1E86
  8
241
  6
CONTINUOUS
 10
50.822299999999998
 20
-15.7987
 30
0.0
 70
    32
  0
VERTEX
  5
1E87
  8
241
  6
CONTINUOUS
 10
50.770299999999999
 20
-15.6875
 30
0.0
 70
    32
  0
VERTEX
  5
1E88
  8
241
  6
CONTINUOUS
 10
50.726100000000002
 20
-15.5746
 30
0.0
 70
    32
  0
VERTEX
  5
1E89
  8
241
  6
CONTINUOUS
 10
50.689799999999991
 20
-15.4603
 30
0.0
 70
    32
  0
VERTEX
  5
1E8A
  8
241
  6
CONTINUOUS
 10
50.661499999999997
 20
-15.344900000000001
 30
0.0
 70
    32
  0
VERTEX
  5
1E8B
  8
241
  6
CONTINUOUS
 10
50.641300000000001
 20
-15.2286
 30
0.0
 70
    32
  0
VERTEX
  5
1E8C
  8
241
  6
CONTINUOUS
 10
50.629100000000001
 20
-15.111800000000001
 30
0.0
 70
    32
  0
VERTEX
  5
1E8D
  8
241
  6
CONTINUOUS
 10
50.625
 20
-14.9947
 30
0.0
 70
    32
  0
SEQEND
  5
1E8E
  8
241
  6
CONTINUOUS
  0
LINE
  5
1E8F
  8
245
  6
CENTER2
 10
50.0
 20
-15.20279579550151
 30
0.0
 11
58.0
 21
-15.20279579550151
 31
0.0
  0
LINE
  5
1E90
  8
245
  6
CENTER2
 10
53.999999999996362
 20
-12.08115601388363
 30
0.0
 11
54.0
 21
-17.738010263376051
 31
0.0
  0
LINE
  5
1E91
  8
241
  6
CONTINUOUS
 10
45.399999999990541
 20
-21.49999999999908
 30
0.0
 11
45.399999999990541
 21
21.499999999998181
 31
0.0
  0
LINE
  5
1E92
  8
241
  6
CONTINUOUS
 10
42.399999999990548
 20
-21.49999999999908
 30
0.0
 11
42.399999999997789
 21
21.49999999999908
 31
0.0
  0
LINE
  5
1E94
  8
241
  6
CONTINUOUS
 10
62.000000000003681
 20
-21.499999999996199
 30
0.0
 11
61.999999999996291
 21
21.499999999996199
 31
0.0
  0
LINE
  5
1E95
  8
240
  6
CONTINUOUS
 10
-90.000000000002686
 20
19.999999999995911
 30
0.0
 11
-90.000000000004576
 21
-20.000000000008178
 31
0.0
  0
LINE
  5
1E9C
  8
240
  6
CONTINUOUS
 10
-90.000000000002686
 20
19.999999999995911
 30
0.0
 11
-80.499999999997243
 21
19.999999999995911
 31
0.0
  0
LINE
  5
1EA4
  8
240
  6
CONTINUOUS
 10
-90.000000000004576
 20
-20.000000000008178
 30
0.0
 11
-80.499999999997243
 21
-20.000000000008178
 31
0.0
  0
LINE
  5
1EB6
  8
241
  6
CONTINUOUS
 10
-42.500000000007269
 20
-20.00000000001689
 30
0.0
 11
-42.500000000007269
 21
19.999999999984151
 31
0.0
  0
LINE
  5
1EB9
  8
241
  6
CONTINUOUS
 10
-29.00000000000729
 20
-20.000000000017671
 30
0.0
 11
-29.00000000000729
 21
19.999999999984919
 31
0.0
  0
LINE
  5
1EBC
  8
241
  6
CONTINUOUS
 10
-45.000000000007297
 20
19.999999999983999
 30
0.0
 11
-45.000000000003631
 21
-20.000000000016751
 31
0.0
  0
LINE
  5
1EBF
  8
241
  6
CONTINUOUS
 10
-31.500000000003642
 20
19.99999999998478
 30
0.0
 11
-31.500000000003642
 21
-20.000000000017529
 31
0.0
  0
POINT
  5
1EC6
  8
0
 10
-10651.247598258869
 20
10297.016934913559
 30
0.0
1001
GENIUS_GENOLIS_13
1002
{
1000
ENT
1005
0
1005
0
1005
1C45
1005
0
1002
}
1001
GENIUS_GENOENT_13
1002
{
1000
MYREF
1005
1EC6
1002
}
1002
{
1000
GRP
1005
0
1002
}
1001
GENIUS_GENOBJ-N-CRS_13
1002
{
1000
OWNER
1000
GEN
1002
}
1001
GENIUS_GENODEF_13
1002
{
1000
HIER
1070
    10
1002
}
1002
{
1000
MANEDIT
1070
     1
1002
}
1002
{
1000
NOSEL
1070
     0
1002
}
1002
{
1000
BEHIND
1070
     0
1002
}
1002
{
1000
OTHER
1070
     0
1002
}
1002
{
1000
REACTOR
1002
}
  0
ARC
  5
1EC9
  8
240
  6
CONTINUOUS
 10
2.241047546342358
 20
22.500000000003901
 30
0.0
 40
1.0
 50
194.99999999999139
 51
269.99999999999193
1001
GENIUS_GENODEF_13
1002
{
1000
HIER
1070
     0
1002
}
1002
{
1000
MANEDIT
1070
     0
1002
}
1002
{
1000
NOSEL
1070
     0
1002
}
1002
{
1000
BEHIND
1070
     0
1002
}
1002
{
1000
OTHER
1070
     0
1002
}
1002
{
1000
REACTOR
1002
}
1001
GENIUS_GENOBJ-N-FIL_13
1002
{
1000
OWNER
1000
GEN
1002
}
  0
ARC
  5
1EF7
  8
240
  6
CONTINUOUS
 10
2.2410475463503841
 20
-22.500000000003901
 30
0.0
 40
1.0
 50
90.000000000008171
 51
165.0000000000185
1001
GENIUS_GENOBJ-N-FIL_13
1002
{
1000
OWNER
1000
GEN
1002
}
1001
GENIUS_GENODEF_13
1002
{
1000
HIER
1070
     0
1002
}
1002
{
1000
MANEDIT
1070
     0
1002
}
1002
{
1000
NOSEL
1070
     0
1002
}
1002
{
1000
BEHIND
1070
     0
1002
}
1002
{
1000
OTHER
1070
     0
1002
}
1002
{
1000
REACTOR
1002
}
  0
LINE
  5
1F00
  8
240
  6
CONTINUOUS
 10
-9.0000000000036344
 20
19.99999999998608
 30
0.0
 11
-9.0000000000036344
 21
26.499999999978851
 31
0.0
  0
LINE
  5
1F01
  8
240
  6
CONTINUOUS
 10
-9.0000000000036344
 20
-20.000000000018819
 30
0.0
 11
-9.0000000000036344
 21
-26.500000000011589
 31
0.0
  0
TEXT
  5
1F02
  8
250
  6
CONTINUOUS
 10
21.36093441340665
 20
-40.546957886270057
 30
0.0
 40
6.0
  1
üá
 50
90.0
  0
TEXT
  5
1F03
  8
250
  6
CONTINUOUS
 10
21.36093441340665
 20
-33.404100743412933
 30
0.0
 40
6.0
  1
17
 50
90.0
  0
LINE
  5
1F05
  8
244
  6
HIDDEN2
 10
17.999999999996358
 20
8.5000000000072742
 30
0.0
 11
37.999999999996369
 21
-8.499999999992724
 31
0.0
  0
LINE
  5
1F06
  8
244
  6
HIDDEN2
 10
17.999999999996358
 20
-8.4999999999927258
 30
0.0
 11
37.999999999996369
 21
8.5000000000072742
 31
0.0
  0
LINE
  5
2086
  8
247
  6
CONTINUOUS
 10
7.500515477608074
 20
-11.750000000003791
 30
0.0
 11
7.50051547760813
 21
-7.1153846156738112
 31
0.0
  0
LINE
  5
2087
  8
247
  6
CONTINUOUS
 10
5.0005154776081309
 20
-10.954893499991719
 30
0.0
 11
7.100515477524139
 21
-11.55705881006114
 31
0.0
  0
LINE
  5
2088
  8
247
  6
CONTINUOUS
 10
5.9966693237221289
 20
-10.32515140352281
 30
0.0
 11
5.9966693237221289
 21
-11.24053601887082
 31
0.0
  0
ARC
  5
2089
  8
247
  6
CONTINUOUS
 10
5.3852345449022323
 20
-10.08726340195059
 30
0.0
 40
0.3876715809326743
 50
72.997889675291972
 51
172.92416621851271
  0
ARC
  5
208A
  8
247
  6
CONTINUOUS
 10
5.3057386086361458
 20
-10.38247755680789
 30
0.0
 40
0.693304796535877
 50
4.7429368522014004
 51
73.849226273266481
1001
GENIUS_GENOBJ-N-FIL_13
1002
{
1000
OWNER
1000
GEN
1002
}
1001
GENIUS_GENODEF_13
1002
{
1000
HIER
1070
     0
1002
}
1002
{
1000
MANEDIT
1070
     0
1002
}
1002
{
1000
NOSEL
1070
     0
1002
}
1002
{
1000
BEHIND
1070
     0
1002
}
1002
{
1000
OTHER
1070
     0
1002
}
1002
{
1000
REACTOR
1002
}
  0
LINE
  5
208B
  8
247
  6
CONTINUOUS
 10
7.100515477524139
 20
-10.64167419471314
 30
0.0
 11
7.100515477524139
 21
-11.55705881006114
 31
0.0
  0
LINE
  5
208C
  8
247
  6
CONTINUOUS
 10
5.0005154776081309
 20
-10.95489349999173
 30
0.0
 11
5.0005154776081309
 21
-10.03950888464373
 31
0.0
  0
ARC
  5
208D
  8
247
  6
CONTINUOUS
 10
6.3879324403760052
 20
-10.378306476270611
 30
0.0
 40
0.394857301075386
 50
65.990941652528775
 51
172.2634434590698
  0
ARC
  5
208E
  8
247
  6
CONTINUOUS
 10
6.3917158049407021
 20
-10.712446610430691
 30
0.0
 40
0.7123241612361686
 50
5.7019851642581454
 51
77.27733843682222
1001
GENIUS_GENOBJ-N-FIL_13
1002
{
1000
OWNER
1000
GEN
1002
}
1001
GENIUS_GENODEF_13
1002
{
1000
HIER
1070
     0
1002
}
1002
{
1000
MANEDIT
1070
     0
1002
}
1002
{
1000
NOSEL
1070
     0
1002
}
1002
{
1000
BEHIND
1070
     0
1002
}
1002
{
1000
OTHER
1070
     0
1002
}
1002
{
1000
REACTOR
1002
}
  0
LINE
  5
208F
  8
247
  6
CONTINUOUS
 10
7.100515477524139
 20
-9.683981887067155
 30
0.0
 11
5.0005154776081309
 21
-9.0818165769977437
 31
0.0
  0
LINE
  5
2090
  8
247
  6
CONTINUOUS
 10
5.0005154776081309
 20
-7.5856627309117419
 30
0.0
 11
5.0005154776081309
 21
-7.9816783643073634
 31
0.0
  0
LINE
  5
2091
  8
247
  6
CONTINUOUS
 10
7.100515477524139
 20
-8.6087396539477439
 30
0.0
 11
7.100515477524139
 21
-8.1779704231957524
 31
0.0
  0
ARC
  5
2092
  8
247
  6
CONTINUOUS
 10
6.4588150726914932
 20
-7.3818165770737423
 30
0.0
 40
1.576855057639547
 50
202.35948814152749
 51
254.99324854284589
  0
ARC
  5
2093
  8
247
  6
CONTINUOUS
 10
5.5663343361462676
 20
-7.8475113661370051
 30
0.0
 40
0.6234706797009447
 50
94.994589319075374
 51
155.16632895730319
1001
GENIUS_GENOBJ-N-FIL_13
1002
{
1000
OWNER
1000
GEN
1002
}
1001
GENIUS_GENODEF_13
1002
{
1000
HIER
1070
     0
1002
}
1002
{
1000
MANEDIT
1070
     0
1002
}
1002
{
1000
NOSEL
1070
     0
1002
}
1002
{
1000
BEHIND
1070
     0
1002
}
1002
{
1000
OTHER
1070
     0
1002
}
1002
{
1000
REACTOR
1002
}
  0
ARC
  5
2094
  8
247
  6
CONTINUOUS
 10
6.1626175995775707
 20
-8.4441839510365568
 30
0.0
 40
0.9749472149106983
 50
15.846096555779839
 51
82.325137004169122
  0
ARC
  5
2095
  8
247
  6
CONTINUOUS
 10
6.3719858795791993
 20
-8.0352116387759942
 30
0.0
 40
0.9271945638692009
 50
249.71360167049701
 51
321.7887456564099
1001
GENIUS_GENOBJ-N-FIL_13
1002
{
1000
OWNER
1000
GEN
1002
}
1001
GENIUS_GENODEF_13
1002
{
1000
HIER
1070
     0
1002
}
1002
{
1000
MANEDIT
1070
     0
1002
}
1002
{
1000
NOSEL
1070
     0
1002
}
1002
{
1000
BEHIND
1070
     0
1002
}
1002
{
1000
OTHER
1070
     0
1002
}
1002
{
1000
REACTOR
1002
}
  0
LINE
  5
2096
  8
247
  6
CONTINUOUS
 10
6.2928231698641071
 20
-7.9625858078197398
 30
0.0
 11
6.2928231698641071
 21
-7.4779704232237441
 31
0.0
  0
ARC
  5
2097
  8
247
  6
CONTINUOUS
 10
6.2505154776081309
 20
-11.750000000003791
 30
0.0
 40
1.25
 50
180.0
 51
0.0
  0
LINE
  5
2098
  8
247
  6
CONTINUOUS
 10
5.0005154776081309
 20
-11.750000000003791
 30
0.0
 11
5.0005154776081309
 21
-11.30384615391778
 31
0.0
  0
ARC
  5
2099
  8
247
  6
CONTINUOUS
 10
6.2505154776081309
 20
-7.1153846156737961
 30
0.0
 40
1.25
 50
0.0
 51
180.0
  0
VIEWPORT
  5
22
 67
     1
  8
0
 10
261.51769911504419
 20
148.5
 30
0.0
 40
523.0353982300885
 41
297.0
 68
     1
 69
     1
1001
ACAD
1000
MVIEW
1002
{
1070
    16
1010
0.0
1020
0.0
1030
0.0
1010
0.0
1020
0.0
1030
1.0
1040
0.0
1040
297.0
1040
261.51769911504419
1040
148.5
1040
50.0
1040
0.0
1040
0.0
1070
     0
1070
   100
1070
     1
1070
     1
1070
     0
1070
     0
1070
     0
1070
     0
1040
0.0
1040
0.0
1040
0.0
1040
1.0
1040
1.0
1040
10.0
1040
10.0
1070
     0
1002
{
1002
}
1002
}
1001
GENIUS_GENODEF_13
1002
{
1000
HIER
1070
     0
1002
}
1002
{
1000
MANEDIT
1070
     0
1002
}
1002
{
1000
NOSEL
1070
     0
1002
}
1002
{
1000
BEHIND
1070
     0
1002
}
1002
{
1000
OTHER
1070
     0
1002
}
1002
{
1000
REACTOR
1002
}
1001
GENIUS_GENOBJ-N-SDF_13
1002
{
1000
OWNER
1000
GEN
1002
}
1001
GENIUS_GENSCREG_15
1000
PF
1040
1.0
1000
DF
1040
1.0
1000
MIN
1011
0.0
1021
0.0
1031
1.#QNAN00000000000E+000
1021
0.0
1031
0.0
1000
MAX
1011
523.0353982300885
1021
0.0
1031
1.#QNAN00000000000E+000
1021
297.0
1031
0.0
1000
FLAGS
1070
     4
  0
ENDSEC
  0
EOF
