  0
SECTION
  2
HEADER
  9
$ACADVER
  1
AC1009
  9
$INSBASE
 10
0.0
 20
0.0
 30
0.0
  9
$EXTMIN
 10
-92.507818222758715
 20
-44.957658650049879
 30
0.0
  9
$EXTMAX
 10
92.0
 20
61.891505528931553
 30
0.0
  9
$LIMMIN
 10
0.0
 20
0.0
  9
$LIMMAX
 10
297.0
 20
210.0
  9
$ORTHOMODE
 70
     1
  9
$REGENMODE
 70
     1
  9
$FILLMODE
 70
     1
  9
$QTEXTMODE
 70
     0
  9
$MIRRTEXT
 70
     1
  9
$DRAGMODE
 70
     2
  9
$LTSCALE
 40
10.0
  9
$OSMODE
 70
    39
  9
$ATTMODE
 70
     1
  9
$TEXTSIZE
 40
3.0
  9
$TRACEWID
 40
1.0
  9
$TEXTSTYLE
  7
YOKO
  9
$CLAYER
  8
240
  9
$CELTYPE
  6
BYLAYER
  9
$CECOLOR
 62
   256
  9
$DIMSCALE
 40
1.0
  9
$DIMASZ
 40
2.2299999999999991
  9
$DIMEXO
 40
0.5
  9
$DIMDLI
 40
7.0
  9
$DIMRND
 40
0.0
  9
$DIMDLE
 40
0.0
  9
$DIMEXE
 40
1.0
  9
$DIMTP
 40
0.0
  9
$DIMTM
 40
0.01
  9
$DIMTXT
 40
2.799999999999998
  9
$DIMCEN
 40
0.0
  9
$DIMTSZ
 40
0.0
  9
$DIMTOL
 70
     0
  9
$DIMLIM
 70
     0
  9
$DIMTIH
 70
     0
  9
$DIMTOH
 70
     0
  9
$DIMSE1
 70
     0
  9
$DIMSE2
 70
     0
  9
$DIMTAD
 70
     3
  9
$DIMZIN
 70
     9
  9
$DIMBLK
  1
OPEN
  9
$DIMASO
 70
     1
  9
$DIMSHO
 70
     1
  9
$DIMPOST
  1

  9
$DIMAPOST
  1

  9
$DIMALT
 70
     0
  9
$DIMALTD
 70
     2
  9
$DIMALTF
 40
25.399999999999999
  9
$DIMLFAC
 40
1.0
  9
$DIMTOFL
 70
     1
  9
$DIMTVP
 40
0.0
  9
$DIMTIX
 70
     1
  9
$DIMSOXD
 70
     0
  9
$DIMSAH
 70
     0
  9
$DIMBLK1
  1

  9
$DIMBLK2
  1

  9
$DIMSTYLE
  2
BIGT
  9
$DIMCLRD
 70
   256
  9
$DIMCLRE
 70
   256
  9
$DIMCLRT
 70
    40
  9
$DIMTFAC
 40
1.0
  9
$DIMGAP
 40
1.0
  9
$LUNITS
 70
     2
  9
$LUPREC
 70
     3
  9
$SKETCHINC
 40
1.0
  9
$FILLETRAD
 40
1.0
  9
$AUNITS
 70
     0
  9
$AUPREC
 70
     3
  9
$MENU
  1
.
  9
$ELEVATION
 40
0.0
  9
$PELEVATION
 40
0.0
  9
$THICKNESS
 40
0.0
  9
$LIMCHECK
 70
     0
  9
$BLIPMODE
 70
     0
  9
$CHAMFERA
 40
0.25
  9
$CHAMFERB
 40
0.25
  9
$SKPOLY
 70
     0
  9
$TDCREATE
 40
2455799.698447709
  9
$TDUPDATE
 40
2457835.7165739471
  9
$TDINDWG
 40
0.0795943056
  9
$TDUSRTIMER
 40
0.0795942593
  9
$USRTIMER
 70
     1
  9
$ANGBASE
 50
0.0
  9
$ANGDIR
 70
     0
  9
$PDMODE
 70
     1
  9
$PDSIZE
 40
0.0
  9
$PLINEWID
 40
0.0
  9
$COORDS
 70
     1
  9
$SPLFRAME
 70
     0
  9
$SPLINETYPE
 70
     6
  9
$SPLINESEGS
 70
     4
  9
$ATTDIA
 70
     1
  9
$ATTREQ
 70
     1
  9
$HANDLING
 70
     1
  9
$HANDSEED
  5
23EA
  9
$SURFTAB1
 70
     6
  9
$SURFTAB2
 70
     6
  9
$SURFTYPE
 70
     6
  9
$SURFU
 70
     6
  9
$SURFV
 70
     6
  9
$UCSNAME
  2

  9
$UCSORG
 10
0.0
 20
0.0
 30
0.0
  9
$UCSXDIR
 10
1.0
 20
0.0
 30
0.0
  9
$UCSYDIR
 10
0.0
 20
1.0
 30
0.0
  9
$PUCSNAME
  2

  9
$PUCSORG
 10
0.0
 20
0.0
 30
0.0
  9
$PUCSXDIR
 10
1.0
 20
0.0
 30
0.0
  9
$PUCSYDIR
 10
0.0
 20
1.0
 30
0.0
  9
$USERI1
 70
     1
  9
$USERI2
 70
     0
  9
$USERI3
 70
     0
  9
$USERI4
 70
     0
  9
$USERI5
 70
     0
  9
$USERR1
 40
0.0
  9
$USERR2
 40
0.0
  9
$USERR3
 40
0.0
  9
$USERR4
 40
0.0
  9
$USERR5
 40
0.0
  9
$WORLDVIEW
 70
     1
  9
$SHADEDGE
 70
     3
  9
$SHADEDIF
 70
    70
  9
$TILEMODE
 70
     1
  9
$MAXACTVP
 70
    16
  9
$PLIMCHECK
 70
     0
  9
$PEXTMIN
 10
1.0000000000000000E+020
 20
1.0000000000000000E+020
 30
1.0000000000000000E+020
  9
$PEXTMAX
 10
-1.0000000000000000E+020
 20
-1.0000000000000000E+020
 30
-1.0000000000000000E+020
  9
$PLIMMIN
 10
0.0
 20
0.0
  9
$PLIMMAX
 10
420.0
 20
297.0
  9
$UNITMODE
 70
     0
  9
$VISRETAIN
 70
     1
  9
$PLINEGEN
 70
     0
  9
$PSLTSCALE
 70
     1
  0
ENDSEC
  0
SECTION
  2
TABLES
  0
TABLE
  2
VPORT
 70
     1
  0
VPORT
  2
*ACTIVE
 70
     0
 10
0.0
 20
0.0
 11
1.0
 21
1.0
 12
-5.7011474224837277
 22
20.306574095330561
 13
0.0
 23
0.0
 14
7.0
 24
7.0
 15
7.0
 25
7.0
 16
0.0
 26
0.0
 36
1.0
 17
0.0
 27
0.0
 37
0.0
 40
195.7226982779739
 41
1.6795646916565889
 42
50.0
 43
0.0
 44
0.0
 50
0.0
 51
0.0
 71
     0
 72
  2000
 73
     1
 74
     0
 75
     0
 76
     0
 77
     0
 78
     0
  0
ENDTAB
  0
TABLE
  2
LTYPE
 70
    16
  0
LTYPE
  2
CONTINUOUS
 70
     0
  3
Solid line
 72
    65
 73
     0
 40
0.0
  0
LTYPE
  2
CENTER2
 70
     0
  3
___ _ ___ _ ___ _ ___ _ ___ _ ___ _ ___ _ ___ _
 72
    65
 73
     4
 40
1.125
 49
0.75
 49
-0.125
 49
0.125
 49
-0.125
  0
LTYPE
  2
HIDDEN2
 70
     0
  3
_ _ _ _ _ _ _ _ _ _ _ _ _ _ _ _ _ _ _ _ _ _ _ _
 72
    65
 73
     2
 40
0.1875
 49
0.125
 49
-0.0625
  0
LTYPE
  2
PHANTOM2
 70
     0
  3
___ _ _ ___ _ _ ___ _ _ ___ _ _ ___ _ _ ___ _ _
 72
    65
 73
     6
 40
1.25
 49
0.625
 49
-0.125
 49
0.125
 49
-0.125
 49
0.125
 49
-0.125
  0
LTYPE
  2
CENTER
 70
     0
  3
____ _ ____ _ ____ _ ____ _ ____ _ ____ _ ____ 
 72
    65
 73
     4
 40
2.0
 49
1.25
 49
-0.25
 49
0.25
 49
-0.25
  0
LTYPE
  2
AMCONSTR
 70
     0
  3
_______________________
 72
    65
 73
     2
 40
9999.0
 49
9999.0
 49
0.0
  0
LTYPE
  2
HIDDEN
 70
     0
  3
Hidden __ __ __ __ __ __ __ __ __ __ __ __ __ _
 72
    65
 73
     2
 40
9.5249999999999986
 49
6.349999999999997
 49
-3.174999999999998
  0
LTYPE
  2
AMZIGZAG2
 70
     0
  3
/\/-/\/-/\/-/\/-/\/-/\/
 72
    65
 73
     2
 40
0.4401
 49
0.0001
 49
-0.4400000000000002
  0
LTYPE
  2
ACANSTGB
 70
     0
  3
__ . . __ . .
 72
    65
 73
     6
 40
0.35433070866
 49
0.15748031496
 49
-0.03937007874
 49
0.03937007874
 49
-0.03937007874
 49
0.03937007874
 49
-0.03937007874
  0
LTYPE
  2
ACANSTGL
 70
     0
  3
_ _ _ _ _
 72
    65
 73
     2
 40
0.11811023622
 49
0.07874015748
 49
-0.03937007874
  0
ENDTAB
  0
TABLE
  2
LAYER
 70
    11
  0
LAYER
  2
0
 70
     0
 62
     7
  6
CONTINUOUS
  0
LAYER
  2
240
 70
     0
 62
     4
  6
CONTINUOUS
  0
LAYER
  2
DEFPOINTS
 70
     0
 62
     7
  6
CONTINUOUS
  0
LAYER
  2
245
 70
     0
 62
     2
  6
CENTER2
  0
LAYER
  2
241
 70
     0
 62
   211
  6
CONTINUOUS
  0
LAYER
  2
242
 70
     0
 62
     3
  6
CONTINUOUS
  0
LAYER
  2
243
 70
     0
 62
   211
  6
HIDDEN2
  0
LAYER
  2
244
 70
     0
 62
     3
  6
HIDDEN2
  0
LAYER
  2
247
 70
     0
 62
    60
  6
CONTINUOUS
  0
LAYER
  2
250
 70
     0
 62
     3
  6
CONTINUOUS
  0
ENDTAB
  0
TABLE
  2
STYLE
 70
     6
  0
STYLE
  2
STANDARD
 70
     0
 40
0.0
 41
1.0
 50
0.0
 71
     0
 42
3.0
  3
romans.shx
  4
extfont.shx
  0
STYLE
  2
YOKO
 70
     0
 40
0.0
 41
1.0
 50
0.0
 71
     0
 42
3.0
  3
romans.shx
  4
extfont.shx
  0
STYLE
  2
ACANSGDT
 70
     0
 40
0.0
 41
1.0
 50
0.0
 71
     0
 42
3.0
  3
amgdt.shx
  4

  0
ENDTAB
  0
TABLE
  2
VIEW
 70
     0
  0
ENDTAB
  0
TABLE
  2
UCS
 70
     0
  0
ENDTAB
  0
TABLE
  2
APPID
 70
    46
  0
APPID
  2
ACAD
 70
     0
  0
APPID
  2
ACADANNOTATIVE
 70
     0
  0
APPID
  2
GLOBAL
 70
     0
  0
APPID
  2
DETAIL
 70
     0
  0
APPID
  2
GRPNAME
 70
     0
  0
APPID
  2
GPARA
 70
     0
  0
APPID
  2
MCAD_NO_VIS
 70
     0
  0
APPID
  2
ACAD_TEMP_GRAPHIC
 70
     0
  0
APPID
  2
ACATTRIBSERVICES
 70
     0
  0
APPID
  2
GENIUS_GENSCREG_15
 70
     0
  0
APPID
  2
GENIUS_GENODEF_13
 70
     0
  0
APPID
  2
GENIUS_GENOBJ-N-SDF_13
 70
     0
  0
APPID
  2
GENIUS_GENREC_14
 70
     0
  0
APPID
  2
GENIUS_GENOBJ-N-REC_13
 70
     0
  0
APPID
  2
GENIUS_GENDIMSH_14
 70
     0
  0
APPID
  2
GENIUS_GENOBJ-N-DIM_13
 70
     0
  0
APPID
  2
GENIUS_GENDIM_13
 70
     0
  0
APPID
  2
GENIUS_GENDTOL_13
 70
     0
  0
APPID
  2
GENIUS_GENOLIS_13
 70
     0
  0
APPID
  2
GENIUS_GENOENT_13
 70
     0
  0
APPID
  2
GENIUS_GENOBJ-F-FEM_13
 70
     0
  0
APPID
  2
GENIUS_GENOREF_13
 70
     0
  0
APPID
  2
GENIUS_GEFFEM_13
 70
     0
  0
APPID
  2
GENIUS_GEFFEMP_13
 70
     0
  0
APPID
  2
AD_DRAW
 70
     0
  0
APPID
  2
DESIGNERASSEMBLIES
 70
     0
  0
APPID
  2
ACADM_DIM_EDIT
 70
     0
  0
APPID
  2
AMDT_DM_ADJ
 70
     0
  0
APPID
  2
GENIUS_GENOBJ-N-FIL_13
 70
     0
  0
APPID
  2
GENIUS_GENFIL_13
 70
     0
  0
APPID
  2
GENIUS_GENOBJ-N-CHA_13
 70
     0
  0
APPID
  2
GENIUS_GENOBJ-N-CRS_13
 70
     0
  0
APPID
  2
HATCH_TYPE
 70
     0
  0
APPID
  2
HATCH_DISPLAY
 70
     0
  0
APPID
  2
HATCH_DISTANCE
 70
     0
  0
APPID
  2
ACAD_DSTYLE_DIMJAG
 70
     0
  0
APPID
  2
ACAD_DSTYLE_DIMBREAK
 70
     0
  0
APPID
  2
ACAD_NAV_VCDISPLAY
 70
     0
  0
APPID
  2
ACAD_EXEMPT_FROM_CAD_STANDARDS
 70
     0
  0
APPID
  2
ACAD_DSTYLE_DIMINSPECT
 70
     0
  0
APPID
  2
ACAD_MLEADERVER
 70
     0
  0
APPID
  2
ACAD_DSTYLE_DIMARC_LENGTH_
 70
     0
  0
APPID
  2
ACAD_DSTYLE_DIM_LINETYPE
 70
     0
  0
APPID
  2
ACAD_DSTYLE_DIM_EXT1_LINETYPE
 70
     0
  0
APPID
  2
ACAD_DSTYLE_DIM_EXT2_LINETYPE
 70
     0
  0
APPID
  2
ACAECLAYERSTANDARD
 70
     0
  0
ENDTAB
  0
TABLE
  2
DIMSTYLE
 70
    10
  0
DIMSTYLE
  2
STANDARD
 70
     0
  3

  4

  5

  6

  7

 40
1.0
 41
0.18
 42
0.0625
 43
0.38
 44
0.18
 45
0.0
 46
0.0
 47
0.0
 48
0.0
140
0.18
141
0.09
142
0.0
143
25.399999999999999
144
1.0
145
0.0
146
1.0
147
0.09
 71
     0
 72
     0
 73
     1
 74
     1
 75
     0
 76
     0
 77
     0
 78
     0
170
     0
171
     2
172
     0
173
     0
174
     0
175
     0
176
     0
177
     0
178
     0
  0
DIMSTYLE
  2
BIGT
 70
     0
  3

  4

  5

  6

  7

 40
1.0
 41
2.2299999999999991
 42
0.5
 43
7.0
 44
1.0
 45
0.0
 46
0.0
 47
0.0
 48
0.01
140
2.799999999999998
141
0.0
142
0.0
143
25.399999999999999
144
1.0
145
0.0
146
1.0
147
1.0
 71
     0
 72
     0
 73
     0
 74
     0
 75
     0
 76
     0
 77
     3
 78
     9
170
     0
171
     2
172
     1
173
     0
174
     1
175
     0
176
   256
177
   256
178
    40
  0
DIMSTYLE
  2
AM_ANSI
 70
     0
  3

  4
mm
  5

  6

  7

 40
1.0
 41
0.12
 42
0.05
 43
0.5
 44
0.1
 45
0.0
 46
0.0
 47
0.1
 48
0.1
140
0.12
141
0.0
142
0.0
143
25.399999999999999
144
1.0
145
0.0
146
0.71
147
0.06
 71
     0
 72
     0
 73
     1
 74
     1
 75
     0
 76
     0
 77
     0
 78
     7
170
     0
171
     2
172
     0
173
     0
174
     0
175
     0
176
   256
177
   256
178
     2
  0
DIMSTYLE
  2
AM_ANSI$3
 70
     0
  3

  4
mm
  5

  6

  7

 40
1.0
 41
0.12
 42
0.05
 43
0.5
 44
0.1
 45
0.0
 46
0.0
 47
0.1
 48
0.1
140
0.12
141
0.0
142
0.0
143
25.399999999999999
144
1.0
145
0.0
146
0.71
147
0.06
 71
     0
 72
     0
 73
     1
 74
     1
 75
     0
 76
     0
 77
     0
 78
     7
170
     0
171
     2
172
     0
173
     0
174
     0
175
     0
176
   256
177
   256
178
     2
  0
DIMSTYLE
  2
AM_ANSI$4
 70
     0
  3

  4
mm
  5

  6

  7

 40
1.0
 41
0.12
 42
0.05
 43
0.5
 44
0.1
 45
0.0
 46
0.0
 47
0.1
 48
0.1
140
0.12
141
0.0
142
0.0
143
25.399999999999999
144
1.0
145
0.0
146
0.71
147
0.06
 71
     0
 72
     0
 73
     1
 74
     1
 75
     0
 76
     0
 77
     0
 78
     7
170
     0
171
     2
172
     0
173
     0
174
     0
175
     0
176
   256
177
   256
178
     2
  0
DIMSTYLE
  2
AM_ANSI$7
 70
     0
  3

  4
mm
  5

  6

  7

 40
1.0
 41
0.12
 42
0.05
 43
0.5
 44
0.1
 45
0.0
 46
0.0
 47
0.1
 48
0.1
140
0.12
141
0.0
142
0.0
143
25.399999999999999
144
1.0
145
0.0
146
0.71
147
0.06
 71
     0
 72
     0
 73
     1
 74
     1
 75
     0
 76
     0
 77
     0
 78
     7
170
     0
171
     2
172
     0
173
     0
174
     0
175
     0
176
   256
177
   256
178
     2
  0
DIMSTYLE
  2
AM_ANSI$SF
 70
     0
  3

  4
mm
  5

  6

  7

 40
1.0
 41
0.12
 42
0.05
 43
0.5
 44
0.1
 45
0.0
 46
0.0
 47
0.1
 48
0.1
140
0.12
141
0.0
142
0.0
143
25.399999999999999
144
1.0
145
0.0
146
0.71
147
0.06
 71
     0
 72
     0
 73
     1
 74
     1
 75
     1
 76
     1
 77
     0
 78
     7
170
     0
171
     2
172
     0
173
     0
174
     0
175
     0
176
   256
177
   256
178
     2
  0
DIMSTYLE
  2
AM_ANSI$SH
 70
     0
  3

  4
mm
  5

  6

  7

 40
1.0
 41
0.12
 42
0.05
 43
0.5
 44
0.1
 45
0.0
 46
0.0
 47
0.1
 48
0.1
140
0.12
141
0.0
142
0.0
143
25.399999999999999
144
1.0
145
0.0
146
0.71
147
0.06
 71
     0
 72
     0
 73
     1
 74
     1
 75
     1
 76
     1
 77
     0
 78
     7
170
     0
171
     2
172
     0
173
     1
174
     0
175
     0
176
   256
177
   256
178
     2
  0
ENDTAB
  0
ENDSEC
  0
SECTION
  2
BLOCKS
  0
BLOCK
  8
0
  2
$MODEL_SPACE
 70
     0
 10
0.0
 20
0.0
 30
0.0
  3
$MODEL_SPACE
  1

  0
ENDBLK
  5
2246
  8
0
  0
BLOCK
 67
     1
  8
0
  2
$PAPER_SPACE
 70
     0
 10
0.0
 20
0.0
 30
0.0
  3
$PAPER_SPACE
  1

  0
ENDBLK
  5
2242
 67
     1
  8
0
  0
BLOCK
  8
0
  2
_OPEN
 70
     0
 10
0.0
 20
0.0
 30
0.0
  3
_OPEN
  1

  0
LINE
  5
1868
  8
0
  6
BYBLOCK
 62
     0
 10
-1.0
 20
0.1666666666666666
 30
0.0
 11
0.0
 21
0.0
 31
0.0
  0
LINE
  5
1869
  8
0
  6
BYBLOCK
 62
     0
 10
-1.0
 20
-0.1666666666666666
 30
0.0
 11
0.0
 21
0.0
 31
0.0
  0
LINE
  5
186A
  8
0
  6
BYBLOCK
 62
     0
 10
0.0
 20
0.0
 30
0.0
 11
-1.0
 21
0.0
 31
0.0
  0
ENDBLK
  5
186B
  8
0
  0
BLOCK
  8
0
  2
_ACMFILLEDHALF
 70
     0
 10
0.0
 20
0.0
 30
0.0
  3
_ACMFILLEDHALF
  1

  0
TRACE
  5
1C17
  8
240
 62
     0
 10
-0.8
 20
0.0
 30
0.0
 11
-1.0
 21
0.166666666
 31
0.0
 12
0.0
 22
0.0
 32
0.0
 13
0.0
 23
0.0
 33
0.0
  0
LINE
  5
1C18
  8
240
 62
     0
 10
-1.0
 20
0.0
 30
0.0
 11
-0.8
 21
0.0
 31
0.0
  0
ENDBLK
  5
1C16
  8
0
  0
ENDSEC
  0
SECTION
  2
ENTITIES
  0
TEXT
  5
1523
  8
241
  6
CONTINUOUS
 10
-90.706710985126833
 20
54.391505528931532
 30
0.0
 40
7.5
  1
MGT36-P1-65
  7
YOKO
  0
LINE
  5
16C5
  8
250
  6
CONTINUOUS
 10
-0.000000000001819
 20
27.499999999976811
 30
0.0
 11
-0.000000000001818
 21
42.999999999984531
 31
0.0
  0
LINE
  5
16C6
  8
250
  6
CONTINUOUS
 10
65.000000000001819
 20
22.707106781183018
 30
0.0
 11
65.000000000001819
 21
42.999999999984531
 31
0.0
  0
LINE
  5
16C7
  8
250
  6
CONTINUOUS
 10
2.2299999999981801
 20
41.999999999984517
 30
0.0
 11
62.770000000001822
 21
41.999999999984517
 31
0.0
  0
LINE
  5
16C8
  8
250
  6
CONTINUOUS
 10
2.2299999999981801
 20
41.628333333317869
 30
0.0
 11
-0.0000000000018181
 21
41.999999999984517
 31
0.0
  0
LINE
  5
16C9
  8
250
  6
CONTINUOUS
 10
2.2299999999981801
 20
42.371666666651201
 30
0.0
 11
-0.0000000000018181
 21
41.999999999984517
 31
0.0
  0
LINE
  5
16CA
  8
250
  6
CONTINUOUS
 10
-0.0000000000018181
 20
41.999999999984517
 30
0.0
 11
2.2299999999981801
 21
41.999999999984517
 31
0.0
  0
LINE
  5
16CB
  8
250
  6
CONTINUOUS
 10
62.770000000001822
 20
42.371666666651201
 30
0.0
 11
65.000000000001819
 21
41.999999999984517
 31
0.0
  0
LINE
  5
16CC
  8
250
  6
CONTINUOUS
 10
62.770000000001822
 20
41.628333333317869
 30
0.0
 11
65.000000000001819
 21
41.999999999984517
 31
0.0
  0
LINE
  5
16CD
  8
250
  6
CONTINUOUS
 10
65.000000000001819
 20
41.999999999984517
 30
0.0
 11
62.770000000001822
 21
41.999999999984517
 31
0.0
  0
TEXT
  5
16CE
  8
250
  6
CONTINUOUS
 10
26.642857142857149
 20
42.999999999984531
 30
0.0
 40
6.0
  1
65
  0
LINE
  5
16F4
  8
250
  6
CONTINUOUS
 10
61.999999999999723
 20
24.999999999997272
 30
0.0
 11
92.0
 21
24.999999999997261
 31
0.0
  0
LINE
  5
16F5
  8
250
  6
CONTINUOUS
 10
62.000000000003602
 20
-24.999999999992731
 30
0.0
 11
92.0
 21
-24.999999999992731
 31
0.0
  0
LINE
  5
16F6
  8
250
  6
CONTINUOUS
 10
91.0
 20
22.769999999997271
 30
0.0
 11
91.0
 21
-22.769999999992741
 31
0.0
  0
LINE
  5
16FB
  8
250
  6
CONTINUOUS
 10
65.499999999996362
 20
12.999999999999091
 30
0.0
 11
79.451596671122402
 21
12.999999999999091
 31
0.0
  0
LINE
  5
16FC
  8
250
  6
CONTINUOUS
 10
65.499999999996362
 20
-12.999999999999091
 30
0.0
 11
79.451596671122402
 21
-12.999999999999091
 31
0.0
  0
LINE
  5
16FD
  8
250
  6
CONTINUOUS
 10
78.451596671122374
 20
10.769999999999079
 30
0.0
 11
78.451596671122374
 21
-10.76999999999909
 31
0.0
  0
LINE
  5
1703
  8
250
  6
CONTINUOUS
 10
25.73855975934919
 20
8.2700000000027281
 30
0.0
 11
25.73855975934919
 21
-8.2699999999972711
 31
0.0
  0
LINE
  5
1704
  8
250
  6
CONTINUOUS
 10
25.73855975934918
 20
-44.957658650049879
 30
0.0
 11
25.73855975934919
 21
-10.49999999999727
 31
0.0
  0
TEXT
  5
1708
  8
250
  6
CONTINUOUS
 10
90.0
 20
-8.1428571428548633
 30
0.0
 40
6.0
  1
\U+220550
 50
90.0
  0
LINE
  5
1709
  8
250
  6
CONTINUOUS
 10
91.371666666666684
 20
-22.769999999992741
 30
0.0
 11
91.0
 21
-24.999999999992731
 31
0.0
  0
LINE
  5
170A
  8
250
  6
CONTINUOUS
 10
90.628333333333316
 20
-22.769999999992741
 30
0.0
 11
91.0
 21
-24.999999999992731
 31
0.0
  0
LINE
  5
170B
  8
250
  6
CONTINUOUS
 10
91.0
 20
-24.999999999992731
 30
0.0
 11
91.0
 21
-22.769999999992741
 31
0.0
  0
LINE
  5
170C
  8
250
  6
CONTINUOUS
 10
90.628333333333316
 20
22.769999999997271
 30
0.0
 11
91.0
 21
24.999999999997261
 31
0.0
  0
LINE
  5
170D
  8
250
  6
CONTINUOUS
 10
91.371666666666684
 20
22.769999999997271
 30
0.0
 11
91.0
 21
24.999999999997261
 31
0.0
  0
LINE
  5
170E
  8
250
  6
CONTINUOUS
 10
91.0
 20
24.999999999997261
 30
0.0
 11
91.0
 21
22.769999999997271
 31
0.0
  0
TEXT
  5
170F
  8
250
  6
CONTINUOUS
 10
77.451596671122402
 20
-8.1428571428571317
 30
0.0
 40
6.0
  1
\U+220526
 50
90.0
  0
LINE
  5
1710
  8
250
  6
CONTINUOUS
 10
78.823263337789044
 20
-10.76999999999909
 30
0.0
 11
78.451596671122374
 21
-12.999999999999091
 31
0.0
  0
LINE
  5
1711
  8
250
  6
CONTINUOUS
 10
78.079930004455733
 20
-10.76999999999909
 30
0.0
 11
78.451596671122374
 21
-12.999999999999091
 31
0.0
  0
LINE
  5
1712
  8
250
  6
CONTINUOUS
 10
78.451596671122374
 20
-12.999999999999091
 30
0.0
 11
78.451596671122374
 21
-10.76999999999909
 31
0.0
  0
LINE
  5
1713
  8
250
  6
CONTINUOUS
 10
78.079930004455733
 20
10.769999999999079
 30
0.0
 11
78.451596671122374
 21
12.999999999999091
 31
0.0
  0
LINE
  5
1714
  8
250
  6
CONTINUOUS
 10
78.823263337789044
 20
10.769999999999079
 30
0.0
 11
78.451596671122374
 21
12.999999999999091
 31
0.0
  0
LINE
  5
1715
  8
250
  6
CONTINUOUS
 10
78.451596671122374
 20
12.999999999999091
 30
0.0
 11
78.451596671122374
 21
10.769999999999079
 31
0.0
  0
LINE
  5
1716
  8
250
  6
CONTINUOUS
 10
26.110226426015849
 20
-8.2699999999972711
 30
0.0
 11
25.73855975934919
 21
-10.49999999999727
 31
0.0
  0
LINE
  5
1717
  8
250
  6
CONTINUOUS
 10
25.36689309268252
 20
-8.2699999999972711
 30
0.0
 11
25.73855975934919
 21
-10.49999999999727
 31
0.0
  0
LINE
  5
1718
  8
250
  6
CONTINUOUS
 10
25.73855975934919
 20
-10.49999999999727
 30
0.0
 11
25.73855975934919
 21
-8.2699999999972711
 31
0.0
  0
LINE
  5
1719
  8
250
  6
CONTINUOUS
 10
25.366893092682538
 20
8.2700000000027281
 30
0.0
 11
25.73855975934919
 21
10.50000000000273
 31
0.0
  0
LINE
  5
171A
  8
250
  6
CONTINUOUS
 10
26.11022642601586
 20
8.2700000000027281
 30
0.0
 11
25.73855975934919
 21
10.50000000000273
 31
0.0
  0
LINE
  5
171B
  8
250
  6
CONTINUOUS
 10
25.73855975934919
 20
10.50000000000273
 30
0.0
 11
25.73855975934919
 21
8.2700000000027281
 31
0.0
  0
LINE
  5
1C36
  8
245
  6
CENTER2
 10
-92.507818222758715
 20
0.0000000000009095
 30
0.0
 11
67.764890346414731
 21
0.0000000000009095
 31
0.0
  0
LINE
  5
1C3E
  8
245
  6
CENTER2
 10
-66.00000000000361
 20
19.999999999980901
 30
0.0
 11
-66.00000000000361
 21
-20.000000000011831
 31
0.0
1001
GENIUS_GENOREF_13
1005
1EF3
  0
LINE
  5
1C43
  8
241
  6
CONTINUOUS
 10
-9.0000000000036344
 20
-20.00000000001792
 30
0.0
 11
-9.0000000000036344
 21
19.999999999986979
 31
0.0
  0
LINE
  5
1C45
  8
240
  6
CONTINUOUS
 10
-9.0000000000036344
 20
26.499999999979771
 30
0.0
 11
-7.6262612902763109
 21
26.999999999979082
 31
0.0
  0
LINE
  5
1C47
  8
240
  6
CONTINUOUS
 10
-0.0000000000013246
 20
26.999999999979082
 30
0.0
 11
-7.6262612902763109
 21
26.999999999979082
 31
0.0
  0
LINE
  5
1C4F
  8
240
  6
CONTINUOUS
 10
-51.50000000001819
 20
19.999999999984521
 30
0.0
 11
-9.0000000000036344
 21
19.999999999986979
 31
0.0
  0
LINE
  5
1C52
  8
240
  6
CONTINUOUS
 10
-55.000000000021828
 20
16.499999999984539
 30
0.0
 11
-51.50000000001819
 21
19.999999999984521
 31
0.0
  0
LINE
  5
1C53
  8
240
  6
CONTINUOUS
 10
-55.000000000021828
 20
16.499999999984539
 30
0.0
 11
-66.00000000000361
 21
16.499999999984539
 31
0.0
  0
LINE
  5
1C54
  8
240
  6
CONTINUOUS
 10
-76.999999999989086
 20
16.49999999998272
 30
0.0
 11
-66.00000000000361
 21
16.49999999995725
 31
0.0
  0
LINE
  5
1C55
  8
240
  6
CONTINUOUS
 10
-76.999999999989086
 20
16.49999999998272
 30
0.0
 11
-80.499999999989086
 21
19.99999999998272
 31
0.0
  0
LINE
  5
1C65
  8
240
  6
CONTINUOUS
 10
-9.0000000000036344
 20
-26.500000000010679
 30
0.0
 11
-7.6262612902739981
 21
-27.000000000010839
 31
0.0
  0
LINE
  5
1C67
  8
240
  6
CONTINUOUS
 10
0.0000000000074772
 20
-26.999999999975199
 30
0.0
 11
-7.6262612902739981
 21
-27.000000000010839
 31
0.0
  0
LINE
  5
1C6D
  8
240
  6
CONTINUOUS
 10
-51.50000000001819
 20
-20.000000000015461
 30
0.0
 11
-9.0000000000036344
 21
-20.00000000001792
 31
0.0
  0
LINE
  5
1C70
  8
240
  6
CONTINUOUS
 10
-55.000000000021828
 20
-16.500000000015461
 30
0.0
 11
-51.50000000001819
 21
-20.000000000015461
 31
0.0
  0
LINE
  5
1C71
  8
240
  6
CONTINUOUS
 10
-55.000000000021828
 20
-16.500000000015461
 30
0.0
 11
-66.00000000000361
 21
-16.500000000015461
 31
0.0
  0
LINE
  5
1C72
  8
240
  6
CONTINUOUS
 10
-76.999999999989086
 20
-16.500000000013639
 30
0.0
 11
-66.00000000000361
 21
-16.49999999998818
 31
0.0
  0
LINE
  5
1C73
  8
240
  6
CONTINUOUS
 10
-76.999999999989086
 20
-16.500000000013639
 30
0.0
 11
-80.499999999989086
 21
-20.000000000013639
 31
0.0
  0
LINE
  5
1C79
  8
241
  6
CONTINUOUS
 10
-7.6262612902792171
 20
-27.000000000010019
 30
0.0
 11
-7.6262612902792171
 21
26.999999999979082
 31
0.0
  0
LINE
  5
1C7E
  8
243
  6
HIDDEN2
 10
18.999999999996358
 20
10.50000000000273
 30
0.0
 11
42.999999999996341
 21
10.50000000000273
 31
0.0
  0
LINE
  5
1C80
  8
243
  6
HIDDEN2
 10
42.99999999999045
 20
13.00000000000273
 30
0.0
 11
64.999999999996362
 21
13.00000000000273
 31
0.0
  0
LINE
  5
1C83
  8
243
  6
HIDDEN2
 10
42.99999999999698
 20
-12.99999999999727
 30
0.0
 11
64.999999999996362
 21
-12.99999999999727
 31
0.0
  0
LINE
  5
1C84
  8
243
  6
HIDDEN2
 10
18.999999999996358
 20
10.50000000000273
 30
0.0
 11
18.999999999996358
 21
-10.49999999999727
 31
0.0
  0
LINE
  5
1C85
  8
243
  6
HIDDEN2
 10
18.999999999996358
 20
-10.49999999999727
 30
0.0
 11
42.999999999996341
 21
-10.49999999999727
 31
0.0
  0
LINE
  5
1C87
  8
243
  6
HIDDEN2
 10
42.999999999996341
 20
10.500000000001821
 30
0.0
 11
42.999999999996341
 21
-10.499999999998179
 31
0.0
  0
LINE
  5
1C89
  8
245
  6
CENTER2
 10
31.0
 20
5.0000000000009068
 30
0.0
 11
31.0
 21
-5.0
 31
0.0
  0
CIRCLE
  5
1C8A
  8
242
  6
CONTINUOUS
 10
31.0
 20
0.0000000000009095
 30
0.0
 40
5.0000000000004521
  0
CIRCLE
  5
1C8B
  8
241
  6
CONTINUOUS
 10
31.0
 20
0.0000000000009095
 30
0.0
 40
4.25
  0
LINE
  5
1C8E
  8
240
  6
CONTINUOUS
 10
-0.0000000000013246
 20
26.999999999979082
 30
0.0
 11
0.3372995465476093
 21
25.741180954900148
 31
0.0
  0
LINE
  5
1C90
  8
240
  6
CONTINUOUS
 10
1.3032253728359511
 20
25.000000000004889
 30
0.0
 11
61.999999999999829
 21
24.999999999997161
 31
0.0
  0
LINE
  5
1C92
  8
240
  6
CONTINUOUS
 10
61.999999999999829
 20
24.999999999997161
 30
0.0
 11
65.000000000000284
 21
21.999999999998181
 31
0.0
1001
GENIUS_GENFIL_13
1070
     0
1040
3.0
1040
3.0
1040
0.25
1040
45.0
1002
{
1002
}
1001
GENIUS_GENODEF_13
1002
{
1000
HIER
1070
     0
1002
}
1002
{
1000
MANEDIT
1070
     0
1002
}
1002
{
1000
NOSEL
1070
     0
1002
}
1002
{
1000
BEHIND
1070
     0
1002
}
1002
{
1000
OTHER
1070
     0
1002
}
1002
{
1000
REACTOR
1002
}
1001
GENIUS_GENOBJ-N-CHA_13
1002
{
1000
OWNER
1000
GEN
1002
}
  0
LINE
  5
1C96
  8
245
  6
CENTER2
 10
54.0
 20
20.848597902669091
 30
0.0
 11
53.999999999996362
 21
13.77753009080425
 31
0.0
  0
POLYLINE
  5
1C97
  8
241
  6
CONTINUOUS
 66
     1
 10
0.0
 20
0.0
 30
0.0
 70
     8
  0
VERTEX
  5
1C98
  8
241
  6
CONTINUOUS
 10
49.75
 20
17.414999999999999
 30
0.0
 70
    32
  0
VERTEX
  5
1C99
  8
241
  6
CONTINUOUS
 10
49.755099999999992
 20
17.267600000000002
 30
0.0
 70
    32
  0
VERTEX
  5
1C9A
  8
241
  6
CONTINUOUS
 10
49.770499999999998
 20
17.1205
 30
0.0
 70
    32
  0
VERTEX
  5
1C9B
  8
241
  6
CONTINUOUS
 10
49.795999999999999
 20
16.9741
 30
0.0
 70
    32
  0
VERTEX
  5
1C9C
  8
241
  6
CONTINUOUS
 10
49.831699999999998
 20
16.828700000000001
 30
0.0
 70
    32
  0
VERTEX
  5
1C9D
  8
241
  6
CONTINUOUS
 10
49.877400000000002
 20
16.684799999999999
 30
0.0
 70
    32
  0
VERTEX
  5
1C9E
  8
241
  6
CONTINUOUS
 10
49.933
 20
16.5427
 30
0.0
 70
    32
  0
VERTEX
  5
1C9F
  8
241
  6
CONTINUOUS
 10
49.998399999999982
 20
16.4026
 30
0.0
 70
    32
  0
VERTEX
  5
1CA0
  8
241
  6
CONTINUOUS
 10
50.073500000000003
 20
16.265000000000001
 30
0.0
 70
    32
  0
VERTEX
  5
1CA1
  8
241
  6
CONTINUOUS
 10
50.158000000000001
 20
16.130099999999999
 30
0.0
 70
    32
  0
VERTEX
  5
1CA2
  8
241
  6
CONTINUOUS
 10
50.251800000000003
 20
15.9984
 30
0.0
 70
    32
  0
VERTEX
  5
1CA3
  8
241
  6
CONTINUOUS
 10
50.354700000000001
 20
15.869999999999999
 30
0.0
 70
    32
  0
VERTEX
  5
1CA4
  8
241
  6
CONTINUOUS
 10
50.466299999999997
 20
15.7454
 30
0.0
 70
    32
  0
VERTEX
  5
1CA5
  8
241
  6
CONTINUOUS
 10
50.586399999999998
 20
15.6248
 30
0.0
 70
    32
  0
VERTEX
  5
1CA6
  8
241
  6
CONTINUOUS
 10
50.714700000000001
 20
15.5085
 30
0.0
 70
    32
  0
VERTEX
  5
1CA7
  8
241
  6
CONTINUOUS
 10
50.850999999999999
 20
15.3969
 30
0.0
 70
    32
  0
VERTEX
  5
1CA8
  8
241
  6
CONTINUOUS
 10
50.994799999999991
 20
15.289999999999999
 30
0.0
 70
    32
  0
VERTEX
  5
1CA9
  8
241
  6
CONTINUOUS
 10
51.14589999999999
 20
15.1883
 30
0.0
 70
    32
  0
VERTEX
  5
1CAA
  8
241
  6
CONTINUOUS
 10
51.303800000000003
 20
15.092000000000001
 30
0.0
 70
    32
  0
VERTEX
  5
1CAB
  8
241
  6
CONTINUOUS
 10
51.468299999999999
 20
15.001200000000001
 30
0.0
 70
    32
  0
VERTEX
  5
1CAC
  8
241
  6
CONTINUOUS
 10
51.638800000000003
 20
14.9163
 30
0.0
 70
    32
  0
VERTEX
  5
1CAD
  8
241
  6
CONTINUOUS
 10
51.815100000000001
 20
14.837400000000001
 30
0.0
 70
    32
  0
VERTEX
  5
1CAE
  8
241
  6
CONTINUOUS
 10
51.996600000000001
 20
14.764699999999999
 30
0.0
 70
    32
  0
VERTEX
  5
1CAF
  8
241
  6
CONTINUOUS
 10
52.182899999999989
 20
14.698399999999999
 30
0.0
 70
    32
  0
VERTEX
  5
1CB0
  8
241
  6
CONTINUOUS
 10
52.373600000000003
 20
14.6386
 30
0.0
 70
    32
  0
VERTEX
  5
1CB1
  8
241
  6
CONTINUOUS
 10
52.568199999999997
 20
14.5855
 30
0.0
 70
    32
  0
VERTEX
  5
1CB2
  8
241
  6
CONTINUOUS
 10
52.766300000000001
 20
14.539199999999999
 30
0.0
 70
    32
  0
VERTEX
  5
1CB3
  8
241
  6
CONTINUOUS
 10
52.967300000000002
 20
14.4999
 30
0.0
 70
    32
  0
VERTEX
  5
1CB4
  8
241
  6
CONTINUOUS
 10
53.170900000000003
 20
14.467599999999999
 30
0.0
 70
    32
  0
VERTEX
  5
1CB5
  8
241
  6
CONTINUOUS
 10
53.376399999999997
 20
14.442299999999999
 30
0.0
 70
    32
  0
VERTEX
  5
1CB6
  8
241
  6
CONTINUOUS
 10
53.583399999999997
 20
14.424300000000001
 30
0.0
 70
    32
  0
VERTEX
  5
1CB7
  8
241
  6
CONTINUOUS
 10
53.791499999999999
 20
14.413399999999999
 30
0.0
 70
    32
  0
VERTEX
  5
1CB8
  8
241
  6
CONTINUOUS
 10
54.0
 20
14.409800000000001
 30
0.0
 70
    32
  0
VERTEX
  5
1CB9
  8
241
  6
CONTINUOUS
 10
54.208500000000001
 20
14.413399999999999
 30
0.0
 70
    32
  0
VERTEX
  5
1CBA
  8
241
  6
CONTINUOUS
 10
54.416600000000003
 20
14.424300000000001
 30
0.0
 70
    32
  0
VERTEX
  5
1CBB
  8
241
  6
CONTINUOUS
 10
54.623600000000003
 20
14.442299999999999
 30
0.0
 70
    32
  0
VERTEX
  5
1CBC
  8
241
  6
CONTINUOUS
 10
54.829099999999997
 20
14.467599999999999
 30
0.0
 70
    32
  0
VERTEX
  5
1CBD
  8
241
  6
CONTINUOUS
 10
55.032699999999998
 20
14.4999
 30
0.0
 70
    32
  0
VERTEX
  5
1CBE
  8
241
  6
CONTINUOUS
 10
55.233699999999992
 20
14.539199999999999
 30
0.0
 70
    32
  0
VERTEX
  5
1CBF
  8
241
  6
CONTINUOUS
 10
55.431800000000003
 20
14.5855
 30
0.0
 70
    32
  0
VERTEX
  5
1CC0
  8
241
  6
CONTINUOUS
 10
55.626399999999997
 20
14.6386
 30
0.0
 70
    32
  0
VERTEX
  5
1CC1
  8
241
  6
CONTINUOUS
 10
55.817100000000011
 20
14.698399999999999
 30
0.0
 70
    32
  0
VERTEX
  5
1CC2
  8
241
  6
CONTINUOUS
 10
56.003399999999999
 20
14.764699999999999
 30
0.0
 70
    32
  0
VERTEX
  5
1CC3
  8
241
  6
CONTINUOUS
 10
56.184899999999999
 20
14.837400000000001
 30
0.0
 70
    32
  0
VERTEX
  5
1CC4
  8
241
  6
CONTINUOUS
 10
56.361199999999997
 20
14.9163
 30
0.0
 70
    32
  0
VERTEX
  5
1CC5
  8
241
  6
CONTINUOUS
 10
56.531700000000001
 20
15.001200000000001
 30
0.0
 70
    32
  0
VERTEX
  5
1CC6
  8
241
  6
CONTINUOUS
 10
56.696199999999997
 20
15.092000000000001
 30
0.0
 70
    32
  0
VERTEX
  5
1CC7
  8
241
  6
CONTINUOUS
 10
56.854100000000003
 20
15.1883
 30
0.0
 70
    32
  0
VERTEX
  5
1CC8
  8
241
  6
CONTINUOUS
 10
57.005200000000002
 20
15.289999999999999
 30
0.0
 70
    32
  0
VERTEX
  5
1CC9
  8
241
  6
CONTINUOUS
 10
57.149000000000001
 20
15.3969
 30
0.0
 70
    32
  0
VERTEX
  5
1CCA
  8
241
  6
CONTINUOUS
 10
57.285299999999999
 20
15.5085
 30
0.0
 70
    32
  0
VERTEX
  5
1CCB
  8
241
  6
CONTINUOUS
 10
57.413600000000002
 20
15.6248
 30
0.0
 70
    32
  0
VERTEX
  5
1CCC
  8
241
  6
CONTINUOUS
 10
57.533700000000003
 20
15.7454
 30
0.0
 70
    32
  0
VERTEX
  5
1CCD
  8
241
  6
CONTINUOUS
 10
57.645299999999999
 20
15.869999999999999
 30
0.0
 70
    32
  0
VERTEX
  5
1CCE
  8
241
  6
CONTINUOUS
 10
57.748199999999997
 20
15.9984
 30
0.0
 70
    32
  0
VERTEX
  5
1CCF
  8
241
  6
CONTINUOUS
 10
57.841999999999999
 20
16.130099999999999
 30
0.0
 70
    32
  0
VERTEX
  5
1CD0
  8
241
  6
CONTINUOUS
 10
57.926499999999997
 20
16.265000000000001
 30
0.0
 70
    32
  0
VERTEX
  5
1CD1
  8
241
  6
CONTINUOUS
 10
58.001600000000003
 20
16.4026
 30
0.0
 70
    32
  0
VERTEX
  5
1CD2
  8
241
  6
CONTINUOUS
 10
58.067
 20
16.5427
 30
0.0
 70
    32
  0
VERTEX
  5
1CD3
  8
241
  6
CONTINUOUS
 10
58.122599999999998
 20
16.684799999999999
 30
0.0
 70
    32
  0
VERTEX
  5
1CD4
  8
241
  6
CONTINUOUS
 10
58.168300000000002
 20
16.828700000000001
 30
0.0
 70
    32
  0
VERTEX
  5
1CD5
  8
241
  6
CONTINUOUS
 10
58.204000000000001
 20
16.9741
 30
0.0
 70
    32
  0
VERTEX
  5
1CD6
  8
241
  6
CONTINUOUS
 10
58.229500000000002
 20
17.1205
 30
0.0
 70
    32
  0
VERTEX
  5
1CD7
  8
241
  6
CONTINUOUS
 10
58.244900000000001
 20
17.267600000000002
 30
0.0
 70
    32
  0
VERTEX
  5
1CD8
  8
241
  6
CONTINUOUS
 10
58.25
 20
17.414999999999999
 30
0.0
 70
    32
  0
VERTEX
  5
1CD9
  8
241
  6
CONTINUOUS
 10
58.244900000000001
 20
17.5625
 30
0.0
 70
    32
  0
VERTEX
  5
1CDA
  8
241
  6
CONTINUOUS
 10
58.229500000000002
 20
17.709599999999991
 30
0.0
 70
    32
  0
VERTEX
  5
1CDB
  8
241
  6
CONTINUOUS
 10
58.204000000000001
 20
17.856000000000002
 30
0.0
 70
    32
  0
VERTEX
  5
1CDC
  8
241
  6
CONTINUOUS
 10
58.168300000000002
 20
18.001300000000001
 30
0.0
 70
    32
  0
VERTEX
  5
1CDD
  8
241
  6
CONTINUOUS
 10
58.122599999999998
 20
18.145199999999999
 30
0.0
 70
    32
  0
VERTEX
  5
1CDE
  8
241
  6
CONTINUOUS
 10
58.067
 20
18.287400000000002
 30
0.0
 70
    32
  0
VERTEX
  5
1CDF
  8
241
  6
CONTINUOUS
 10
58.001600000000003
 20
18.427399999999999
 30
0.0
 70
    32
  0
VERTEX
  5
1CE0
  8
241
  6
CONTINUOUS
 10
57.926499999999997
 20
18.565100000000001
 30
0.0
 70
    32
  0
VERTEX
  5
1CE1
  8
241
  6
CONTINUOUS
 10
57.841999999999999
 20
18.6999
 30
0.0
 70
    32
  0
VERTEX
  5
1CE2
  8
241
  6
CONTINUOUS
 10
57.748199999999997
 20
18.831700000000001
 30
0.0
 70
    32
  0
VERTEX
  5
1CE3
  8
241
  6
CONTINUOUS
 10
57.645299999999999
 20
18.960000000000001
 30
0.0
 70
    32
  0
VERTEX
  5
1CE4
  8
241
  6
CONTINUOUS
 10
57.533700000000003
 20
19.084599999999998
 30
0.0
 70
    32
  0
VERTEX
  5
1CE5
  8
241
  6
CONTINUOUS
 10
57.413600000000002
 20
19.205200000000001
 30
0.0
 70
    32
  0
VERTEX
  5
1CE6
  8
241
  6
CONTINUOUS
 10
57.285299999999999
 20
19.3215
 30
0.0
 70
    32
  0
VERTEX
  5
1CE7
  8
241
  6
CONTINUOUS
 10
57.149000000000001
 20
19.433199999999999
 30
0.0
 70
    32
  0
VERTEX
  5
1CE8
  8
241
  6
CONTINUOUS
 10
57.005200000000002
 20
19.539999999999999
 30
0.0
 70
    32
  0
VERTEX
  5
1CE9
  8
241
  6
CONTINUOUS
 10
56.854100000000003
 20
19.6417
 30
0.0
 70
    32
  0
VERTEX
  5
1CEA
  8
241
  6
CONTINUOUS
 10
56.696199999999997
 20
19.738099999999999
 30
0.0
 70
    32
  0
VERTEX
  5
1CEB
  8
241
  6
CONTINUOUS
 10
56.531700000000001
 20
19.828800000000001
 30
0.0
 70
    32
  0
VERTEX
  5
1CEC
  8
241
  6
CONTINUOUS
 10
56.361199999999997
 20
19.913799999999998
 30
0.0
 70
    32
  0
VERTEX
  5
1CED
  8
241
  6
CONTINUOUS
 10
56.184899999999999
 20
19.992699999999999
 30
0.0
 70
    32
  0
VERTEX
  5
1CEE
  8
241
  6
CONTINUOUS
 10
56.003399999999999
 20
20.0654
 30
0.0
 70
    32
  0
VERTEX
  5
1CEF
  8
241
  6
CONTINUOUS
 10
55.817100000000011
 20
20.131699999999999
 30
0.0
 70
    32
  0
VERTEX
  5
1CF0
  8
241
  6
CONTINUOUS
 10
55.626399999999997
 20
20.191500000000001
 30
0.0
 70
    32
  0
VERTEX
  5
1CF1
  8
241
  6
CONTINUOUS
 10
55.431800000000003
 20
20.244599999999998
 30
0.0
 70
    32
  0
VERTEX
  5
1CF2
  8
241
  6
CONTINUOUS
 10
55.233699999999992
 20
20.290800000000001
 30
0.0
 70
    32
  0
VERTEX
  5
1CF3
  8
241
  6
CONTINUOUS
 10
55.032699999999998
 20
20.330200000000001
 30
0.0
 70
    32
  0
VERTEX
  5
1CF4
  8
241
  6
CONTINUOUS
 10
54.829099999999997
 20
20.362500000000001
 30
0.0
 70
    32
  0
VERTEX
  5
1CF5
  8
241
  6
CONTINUOUS
 10
54.623600000000003
 20
20.387699999999999
 30
0.0
 70
    32
  0
VERTEX
  5
1CF6
  8
241
  6
CONTINUOUS
 10
54.416600000000003
 20
20.405799999999999
 30
0.0
 70
    32
  0
VERTEX
  5
1CF7
  8
241
  6
CONTINUOUS
 10
54.208500000000001
 20
20.416599999999999
 30
0.0
 70
    32
  0
VERTEX
  5
1CF8
  8
241
  6
CONTINUOUS
 10
54.0
 20
20.420200000000001
 30
0.0
 70
    32
  0
VERTEX
  5
1CF9
  8
241
  6
CONTINUOUS
 10
53.791499999999999
 20
20.416599999999999
 30
0.0
 70
    32
  0
VERTEX
  5
1CFA
  8
241
  6
CONTINUOUS
 10
53.583399999999997
 20
20.405799999999999
 30
0.0
 70
    32
  0
VERTEX
  5
1CFB
  8
241
  6
CONTINUOUS
 10
53.376399999999997
 20
20.387699999999999
 30
0.0
 70
    32
  0
VERTEX
  5
1CFC
  8
241
  6
CONTINUOUS
 10
53.170900000000003
 20
20.362500000000001
 30
0.0
 70
    32
  0
VERTEX
  5
1CFD
  8
241
  6
CONTINUOUS
 10
52.967300000000002
 20
20.330200000000001
 30
0.0
 70
    32
  0
VERTEX
  5
1CFE
  8
241
  6
CONTINUOUS
 10
52.766300000000001
 20
20.290800000000001
 30
0.0
 70
    32
  0
VERTEX
  5
1CFF
  8
241
  6
CONTINUOUS
 10
52.568199999999997
 20
20.244599999999998
 30
0.0
 70
    32
  0
VERTEX
  5
1D00
  8
241
  6
CONTINUOUS
 10
52.373600000000003
 20
20.191500000000001
 30
0.0
 70
    32
  0
VERTEX
  5
1D01
  8
241
  6
CONTINUOUS
 10
52.182899999999989
 20
20.131699999999999
 30
0.0
 70
    32
  0
VERTEX
  5
1D02
  8
241
  6
CONTINUOUS
 10
51.996600000000001
 20
20.0654
 30
0.0
 70
    32
  0
VERTEX
  5
1D03
  8
241
  6
CONTINUOUS
 10
51.815100000000001
 20
19.992699999999999
 30
0.0
 70
    32
  0
VERTEX
  5
1D04
  8
241
  6
CONTINUOUS
 10
51.638800000000003
 20
19.913799999999998
 30
0.0
 70
    32
  0
VERTEX
  5
1D05
  8
241
  6
CONTINUOUS
 10
51.468299999999999
 20
19.828800000000001
 30
0.0
 70
    32
  0
VERTEX
  5
1D06
  8
241
  6
CONTINUOUS
 10
51.303800000000003
 20
19.738099999999999
 30
0.0
 70
    32
  0
VERTEX
  5
1D07
  8
241
  6
CONTINUOUS
 10
51.14589999999999
 20
19.6417
 30
0.0
 70
    32
  0
VERTEX
  5
1D08
  8
241
  6
CONTINUOUS
 10
50.994799999999991
 20
19.539999999999999
 30
0.0
 70
    32
  0
VERTEX
  5
1D09
  8
241
  6
CONTINUOUS
 10
50.850999999999999
 20
19.433199999999999
 30
0.0
 70
    32
  0
VERTEX
  5
1D0A
  8
241
  6
CONTINUOUS
 10
50.714700000000001
 20
19.3215
 30
0.0
 70
    32
  0
VERTEX
  5
1D0B
  8
241
  6
CONTINUOUS
 10
50.586399999999998
 20
19.205200000000001
 30
0.0
 70
    32
  0
VERTEX
  5
1D0C
  8
241
  6
CONTINUOUS
 10
50.466299999999997
 20
19.084599999999998
 30
0.0
 70
    32
  0
VERTEX
  5
1D0D
  8
241
  6
CONTINUOUS
 10
50.354700000000001
 20
18.960000000000001
 30
0.0
 70
    32
  0
VERTEX
  5
1D0E
  8
241
  6
CONTINUOUS
 10
50.251800000000003
 20
18.831700000000001
 30
0.0
 70
    32
  0
VERTEX
  5
1D0F
  8
241
  6
CONTINUOUS
 10
50.158000000000001
 20
18.6999
 30
0.0
 70
    32
  0
VERTEX
  5
1D10
  8
241
  6
CONTINUOUS
 10
50.073500000000003
 20
18.565100000000001
 30
0.0
 70
    32
  0
VERTEX
  5
1D11
  8
241
  6
CONTINUOUS
 10
49.998399999999982
 20
18.427399999999999
 30
0.0
 70
    32
  0
VERTEX
  5
1D12
  8
241
  6
CONTINUOUS
 10
49.933
 20
18.287400000000002
 30
0.0
 70
    32
  0
VERTEX
  5
1D13
  8
241
  6
CONTINUOUS
 10
49.877400000000002
 20
18.145199999999999
 30
0.0
 70
    32
  0
VERTEX
  5
1D14
  8
241
  6
CONTINUOUS
 10
49.831699999999998
 20
18.001300000000001
 30
0.0
 70
    32
  0
VERTEX
  5
1D15
  8
241
  6
CONTINUOUS
 10
49.795999999999999
 20
17.856000000000002
 30
0.0
 70
    32
  0
VERTEX
  5
1D16
  8
241
  6
CONTINUOUS
 10
49.770499999999998
 20
17.709599999999991
 30
0.0
 70
    32
  0
VERTEX
  5
1D17
  8
241
  6
CONTINUOUS
 10
49.755099999999992
 20
17.5625
 30
0.0
 70
    32
  0
VERTEX
  5
1D18
  8
241
  6
CONTINUOUS
 10
49.75
 20
17.414999999999999
 30
0.0
 70
    32
  0
SEQEND
  5
1D19
  8
241
  6
CONTINUOUS
  0
POLYLINE
  5
1D1A
  8
242
  6
CONTINUOUS
 66
     1
 10
0.0
 20
0.0
 30
0.0
 70
     8
  0
VERTEX
  5
1D1B
  8
242
  6
CONTINUOUS
 10
49.0
 20
17.313099999999999
 30
0.0
 70
    32
  0
VERTEX
  5
1D1C
  8
242
  6
CONTINUOUS
 10
49.006
 20
17.139600000000002
 30
0.0
 70
    32
  0
VERTEX
  5
1D1D
  8
242
  6
CONTINUOUS
 10
49.02409999999999
 20
16.9665
 30
0.0
 70
    32
  0
VERTEX
  5
1D1E
  8
242
  6
CONTINUOUS
 10
49.054099999999991
 20
16.7943
 30
0.0
 70
    32
  0
VERTEX
  5
1D1F
  8
242
  6
CONTINUOUS
 10
49.0961
 20
16.6233
 30
0.0
 70
    32
  0
VERTEX
  5
1D20
  8
242
  6
CONTINUOUS
 10
49.149799999999992
 20
16.454000000000001
 30
0.0
 70
    32
  0
VERTEX
  5
1D21
  8
242
  6
CONTINUOUS
 10
49.215299999999999
 20
16.286799999999999
 30
0.0
 70
    32
  0
VERTEX
  5
1D22
  8
242
  6
CONTINUOUS
 10
49.292299999999997
 20
16.122
 30
0.0
 70
    32
  0
VERTEX
  5
1D23
  8
242
  6
CONTINUOUS
 10
49.380600000000001
 20
15.960100000000001
 30
0.0
 70
    32
  0
VERTEX
  5
1D24
  8
242
  6
CONTINUOUS
 10
49.4801
 20
15.801399999999999
 30
0.0
 70
    32
  0
VERTEX
  5
1D25
  8
242
  6
CONTINUOUS
 10
49.590400000000002
 20
15.6464
 30
0.0
 70
    32
  0
VERTEX
  5
1D26
  8
242
  6
CONTINUOUS
 10
49.711399999999998
 20
15.4954
 30
0.0
 70
    32
  0
VERTEX
  5
1D27
  8
242
  6
CONTINUOUS
 10
49.842700000000001
 20
15.348800000000001
 30
0.0
 70
    32
  0
VERTEX
  5
1D28
  8
242
  6
CONTINUOUS
 10
49.984000000000002
 20
15.206899999999999
 30
0.0
 70
    32
  0
VERTEX
  5
1D29
  8
242
  6
CONTINUOUS
 10
50.134900000000002
 20
15.0701
 30
0.0
 70
    32
  0
VERTEX
  5
1D2A
  8
242
  6
CONTINUOUS
 10
50.295200000000001
 20
14.938700000000001
 30
0.0
 70
    32
  0
VERTEX
  5
1D2B
  8
242
  6
CONTINUOUS
 10
50.464500000000001
 20
14.8131
 30
0.0
 70
    32
  0
VERTEX
  5
1D2C
  8
242
  6
CONTINUOUS
 10
50.642200000000003
 20
14.6934
 30
0.0
 70
    32
  0
VERTEX
  5
1D2D
  8
242
  6
CONTINUOUS
 10
50.828000000000003
 20
14.5801
 30
0.0
 70
    32
  0
VERTEX
  5
1D2E
  8
242
  6
CONTINUOUS
 10
51.021500000000003
 20
14.4733
 30
0.0
 70
    32
  0
VERTEX
  5
1D2F
  8
242
  6
CONTINUOUS
 10
51.22209999999999
 20
14.3734
 30
0.0
 70
    32
  0
VERTEX
  5
1D30
  8
242
  6
CONTINUOUS
 10
51.42949999999999
 20
14.2805
 30
0.0
 70
    32
  0
VERTEX
  5
1D31
  8
242
  6
CONTINUOUS
 10
51.643000000000001
 20
14.195
 30
0.0
 70
    32
  0
VERTEX
  5
1D32
  8
242
  6
CONTINUOUS
 10
51.862200000000001
 20
14.117000000000001
 30
0.0
 70
    32
  0
VERTEX
  5
1D33
  8
242
  6
CONTINUOUS
 10
52.086599999999997
 20
14.0467
 30
0.0
 70
    32
  0
VERTEX
  5
1D34
  8
242
  6
CONTINUOUS
 10
52.315600000000003
 20
13.9842
 30
0.0
 70
    32
  0
VERTEX
  5
1D35
  8
242
  6
CONTINUOUS
 10
52.5486
 20
13.9298
 30
0.0
 70
    32
  0
VERTEX
  5
1D36
  8
242
  6
CONTINUOUS
 10
52.7851
 20
13.8835
 30
0.0
 70
    32
  0
VERTEX
  5
1D37
  8
242
  6
CONTINUOUS
 10
53.024500000000003
 20
13.845499999999999
 30
0.0
 70
    32
  0
VERTEX
  5
1D38
  8
242
  6
CONTINUOUS
 10
53.266300000000001
 20
13.815799999999999
 30
0.0
 70
    32
  0
VERTEX
  5
1D39
  8
242
  6
CONTINUOUS
 10
53.509900000000002
 20
13.794600000000001
 30
0.0
 70
    32
  0
VERTEX
  5
1D3A
  8
242
  6
CONTINUOUS
 10
53.754699999999993
 20
13.7818
 30
0.0
 70
    32
  0
VERTEX
  5
1D3B
  8
242
  6
CONTINUOUS
 10
54.0
 20
13.7775
 30
0.0
 70
    32
  0
VERTEX
  5
1D3C
  8
242
  6
CONTINUOUS
 10
54.2453
 20
13.7818
 30
0.0
 70
    32
  0
VERTEX
  5
1D3D
  8
242
  6
CONTINUOUS
 10
54.490099999999998
 20
13.794600000000001
 30
0.0
 70
    32
  0
VERTEX
  5
1D3E
  8
242
  6
CONTINUOUS
 10
54.733699999999999
 20
13.815799999999999
 30
0.0
 70
    32
  0
VERTEX
  5
1D3F
  8
242
  6
CONTINUOUS
 10
54.975499999999997
 20
13.845499999999999
 30
0.0
 70
    32
  0
VERTEX
  5
1D40
  8
242
  6
CONTINUOUS
 10
55.2149
 20
13.8835
 30
0.0
 70
    32
  0
VERTEX
  5
1D41
  8
242
  6
CONTINUOUS
 10
55.451399999999992
 20
13.9298
 30
0.0
 70
    32
  0
VERTEX
  5
1D42
  8
242
  6
CONTINUOUS
 10
55.684399999999982
 20
13.9842
 30
0.0
 70
    32
  0
VERTEX
  5
1D43
  8
242
  6
CONTINUOUS
 10
55.913400000000003
 20
14.0467
 30
0.0
 70
    32
  0
VERTEX
  5
1D44
  8
242
  6
CONTINUOUS
 10
56.137799999999999
 20
14.117000000000001
 30
0.0
 70
    32
  0
VERTEX
  5
1D45
  8
242
  6
CONTINUOUS
 10
56.356999999999992
 20
14.195
 30
0.0
 70
    32
  0
VERTEX
  5
1D46
  8
242
  6
CONTINUOUS
 10
56.570500000000003
 20
14.2805
 30
0.0
 70
    32
  0
VERTEX
  5
1D47
  8
242
  6
CONTINUOUS
 10
56.777900000000002
 20
14.3734
 30
0.0
 70
    32
  0
VERTEX
  5
1D48
  8
242
  6
CONTINUOUS
 10
56.978499999999983
 20
14.4733
 30
0.0
 70
    32
  0
VERTEX
  5
1D49
  8
242
  6
CONTINUOUS
 10
57.171999999999997
 20
14.5801
 30
0.0
 70
    32
  0
VERTEX
  5
1D4A
  8
242
  6
CONTINUOUS
 10
57.357799999999997
 20
14.6934
 30
0.0
 70
    32
  0
VERTEX
  5
1D4B
  8
242
  6
CONTINUOUS
 10
57.535499999999999
 20
14.8131
 30
0.0
 70
    32
  0
VERTEX
  5
1D4C
  8
242
  6
CONTINUOUS
 10
57.704799999999999
 20
14.938700000000001
 30
0.0
 70
    32
  0
VERTEX
  5
1D4D
  8
242
  6
CONTINUOUS
 10
57.865099999999991
 20
15.0701
 30
0.0
 70
    32
  0
VERTEX
  5
1D4E
  8
242
  6
CONTINUOUS
 10
58.015999999999998
 20
15.206899999999999
 30
0.0
 70
    32
  0
VERTEX
  5
1D4F
  8
242
  6
CONTINUOUS
 10
58.157299999999999
 20
15.348800000000001
 30
0.0
 70
    32
  0
VERTEX
  5
1D50
  8
242
  6
CONTINUOUS
 10
58.288600000000002
 20
15.4954
 30
0.0
 70
    32
  0
VERTEX
  5
1D51
  8
242
  6
CONTINUOUS
 10
58.40959999999999
 20
15.6464
 30
0.0
 70
    32
  0
VERTEX
  5
1D52
  8
242
  6
CONTINUOUS
 10
58.5199
 20
15.801399999999999
 30
0.0
 70
    32
  0
VERTEX
  5
1D53
  8
242
  6
CONTINUOUS
 10
58.619399999999999
 20
15.960100000000001
 30
0.0
 70
    32
  0
VERTEX
  5
1D54
  8
242
  6
CONTINUOUS
 10
58.707700000000003
 20
16.122
 30
0.0
 70
    32
  0
VERTEX
  5
1D55
  8
242
  6
CONTINUOUS
 10
58.784700000000001
 20
16.286799999999999
 30
0.0
 70
    32
  0
VERTEX
  5
1D56
  8
242
  6
CONTINUOUS
 10
58.850200000000001
 20
16.454000000000001
 30
0.0
 70
    32
  0
VERTEX
  5
1D57
  8
242
  6
CONTINUOUS
 10
58.9039
 20
16.6233
 30
0.0
 70
    32
  0
VERTEX
  5
1D58
  8
242
  6
CONTINUOUS
 10
58.945900000000002
 20
16.7943
 30
0.0
 70
    32
  0
VERTEX
  5
1D59
  8
242
  6
CONTINUOUS
 10
58.975900000000003
 20
16.9665
 30
0.0
 70
    32
  0
VERTEX
  5
1D5A
  8
242
  6
CONTINUOUS
 10
58.993999999999993
 20
17.139600000000002
 30
0.0
 70
    32
  0
VERTEX
  5
1D5B
  8
242
  6
CONTINUOUS
 10
59.0
 20
17.313099999999999
 30
0.0
 70
    32
  0
VERTEX
  5
1D5C
  8
242
  6
CONTINUOUS
 10
58.993999999999993
 20
17.486499999999999
 30
0.0
 70
    32
  0
VERTEX
  5
1D5D
  8
242
  6
CONTINUOUS
 10
58.975900000000003
 20
17.659600000000001
 30
0.0
 70
    32
  0
VERTEX
  5
1D5E
  8
242
  6
CONTINUOUS
 10
58.945900000000002
 20
17.831800000000001
 30
0.0
 70
    32
  0
VERTEX
  5
1D5F
  8
242
  6
CONTINUOUS
 10
58.9039
 20
18.002800000000001
 30
0.0
 70
    32
  0
VERTEX
  5
1D60
  8
242
  6
CONTINUOUS
 10
58.850200000000001
 20
18.1721
 30
0.0
 70
    32
  0
VERTEX
  5
1D61
  8
242
  6
CONTINUOUS
 10
58.784700000000001
 20
18.339400000000001
 30
0.0
 70
    32
  0
VERTEX
  5
1D62
  8
242
  6
CONTINUOUS
 10
58.707700000000003
 20
18.504100000000001
 30
0.0
 70
    32
  0
VERTEX
  5
1D63
  8
242
  6
CONTINUOUS
 10
58.619399999999999
 20
18.6661
 30
0.0
 70
    32
  0
VERTEX
  5
1D64
  8
242
  6
CONTINUOUS
 10
58.5199
 20
18.8247
 30
0.0
 70
    32
  0
VERTEX
  5
1D65
  8
242
  6
CONTINUOUS
 10
58.40959999999999
 20
18.979700000000001
 30
0.0
 70
    32
  0
VERTEX
  5
1D66
  8
242
  6
CONTINUOUS
 10
58.288600000000002
 20
19.130700000000001
 30
0.0
 70
    32
  0
VERTEX
  5
1D67
  8
242
  6
CONTINUOUS
 10
58.157299999999999
 20
19.2773
 30
0.0
 70
    32
  0
VERTEX
  5
1D68
  8
242
  6
CONTINUOUS
 10
58.015999999999998
 20
19.4192
 30
0.0
 70
    32
  0
VERTEX
  5
1D69
  8
242
  6
CONTINUOUS
 10
57.865099999999991
 20
19.556000000000001
 30
0.0
 70
    32
  0
VERTEX
  5
1D6A
  8
242
  6
CONTINUOUS
 10
57.704799999999999
 20
19.6874
 30
0.0
 70
    32
  0
VERTEX
  5
1D6B
  8
242
  6
CONTINUOUS
 10
57.535499999999999
 20
19.813099999999999
 30
0.0
 70
    32
  0
VERTEX
  5
1D6C
  8
242
  6
CONTINUOUS
 10
57.357799999999997
 20
19.932700000000001
 30
0.0
 70
    32
  0
VERTEX
  5
1D6D
  8
242
  6
CONTINUOUS
 10
57.171999999999997
 20
20.046099999999999
 30
0.0
 70
    32
  0
VERTEX
  5
1D6E
  8
242
  6
CONTINUOUS
 10
56.978499999999983
 20
20.152799999999999
 30
0.0
 70
    32
  0
VERTEX
  5
1D6F
  8
242
  6
CONTINUOUS
 10
56.777900000000002
 20
20.252800000000001
 30
0.0
 70
    32
  0
VERTEX
  5
1D70
  8
242
  6
CONTINUOUS
 10
56.570500000000003
 20
20.345600000000001
 30
0.0
 70
    32
  0
VERTEX
  5
1D71
  8
242
  6
CONTINUOUS
 10
56.356999999999992
 20
20.431100000000001
 30
0.0
 70
    32
  0
VERTEX
  5
1D72
  8
242
  6
CONTINUOUS
 10
56.137799999999999
 20
20.5091
 30
0.0
 70
    32
  0
VERTEX
  5
1D73
  8
242
  6
CONTINUOUS
 10
55.913400000000003
 20
20.579499999999999
 30
0.0
 70
    32
  0
VERTEX
  5
1D74
  8
242
  6
CONTINUOUS
 10
55.684399999999982
 20
20.6419
 30
0.0
 70
    32
  0
VERTEX
  5
1D75
  8
242
  6
CONTINUOUS
 10
55.451399999999992
 20
20.696400000000001
 30
0.0
 70
    32
  0
VERTEX
  5
1D76
  8
242
  6
CONTINUOUS
 10
55.2149
 20
20.742599999999999
 30
0.0
 70
    32
  0
VERTEX
  5
1D77
  8
242
  6
CONTINUOUS
 10
54.975499999999997
 20
20.7807
 30
0.0
 70
    32
  0
VERTEX
  5
1D78
  8
242
  6
CONTINUOUS
 10
54.733699999999999
 20
20.810300000000002
 30
0.0
 70
    32
  0
VERTEX
  5
1D79
  8
242
  6
CONTINUOUS
 10
54.490099999999998
 20
20.831600000000002
 30
0.0
 70
    32
  0
VERTEX
  5
1D7A
  8
242
  6
CONTINUOUS
 10
54.2453
 20
20.8443
 30
0.0
 70
    32
  0
VERTEX
  5
1D7B
  8
242
  6
CONTINUOUS
 10
54.0
 20
20.848600000000001
 30
0.0
 70
    32
  0
VERTEX
  5
1D7C
  8
242
  6
CONTINUOUS
 10
53.754699999999993
 20
20.8443
 30
0.0
 70
    32
  0
VERTEX
  5
1D7D
  8
242
  6
CONTINUOUS
 10
53.509900000000002
 20
20.831600000000002
 30
0.0
 70
    32
  0
VERTEX
  5
1D7E
  8
242
  6
CONTINUOUS
 10
53.266300000000001
 20
20.810300000000002
 30
0.0
 70
    32
  0
VERTEX
  5
1D7F
  8
242
  6
CONTINUOUS
 10
53.024500000000003
 20
20.7807
 30
0.0
 70
    32
  0
VERTEX
  5
1D80
  8
242
  6
CONTINUOUS
 10
52.7851
 20
20.742599999999999
 30
0.0
 70
    32
  0
VERTEX
  5
1D81
  8
242
  6
CONTINUOUS
 10
52.5486
 20
20.696400000000001
 30
0.0
 70
    32
  0
VERTEX
  5
1D82
  8
242
  6
CONTINUOUS
 10
52.315600000000003
 20
20.6419
 30
0.0
 70
    32
  0
VERTEX
  5
1D83
  8
242
  6
CONTINUOUS
 10
52.086599999999997
 20
20.579499999999999
 30
0.0
 70
    32
  0
VERTEX
  5
1D84
  8
242
  6
CONTINUOUS
 10
51.862200000000001
 20
20.5091
 30
0.0
 70
    32
  0
VERTEX
  5
1D85
  8
242
  6
CONTINUOUS
 10
51.643000000000001
 20
20.431100000000001
 30
0.0
 70
    32
  0
VERTEX
  5
1D86
  8
242
  6
CONTINUOUS
 10
51.42949999999999
 20
20.345600000000001
 30
0.0
 70
    32
  0
VERTEX
  5
1D87
  8
242
  6
CONTINUOUS
 10
51.22209999999999
 20
20.252800000000001
 30
0.0
 70
    32
  0
VERTEX
  5
1D88
  8
242
  6
CONTINUOUS
 10
51.021500000000003
 20
20.152799999999999
 30
0.0
 70
    32
  0
VERTEX
  5
1D89
  8
242
  6
CONTINUOUS
 10
50.828000000000003
 20
20.046099999999999
 30
0.0
 70
    32
  0
VERTEX
  5
1D8A
  8
242
  6
CONTINUOUS
 10
50.642200000000003
 20
19.932700000000001
 30
0.0
 70
    32
  0
VERTEX
  5
1D8B
  8
242
  6
CONTINUOUS
 10
50.464500000000001
 20
19.813099999999999
 30
0.0
 70
    32
  0
VERTEX
  5
1D8C
  8
242
  6
CONTINUOUS
 10
50.295200000000001
 20
19.6874
 30
0.0
 70
    32
  0
VERTEX
  5
1D8D
  8
242
  6
CONTINUOUS
 10
50.134900000000002
 20
19.556000000000001
 30
0.0
 70
    32
  0
VERTEX
  5
1D8E
  8
242
  6
CONTINUOUS
 10
49.984000000000002
 20
19.4192
 30
0.0
 70
    32
  0
VERTEX
  5
1D8F
  8
242
  6
CONTINUOUS
 10
49.842700000000001
 20
19.2773
 30
0.0
 70
    32
  0
VERTEX
  5
1D90
  8
242
  6
CONTINUOUS
 10
49.711399999999998
 20
19.130700000000001
 30
0.0
 70
    32
  0
VERTEX
  5
1D91
  8
242
  6
CONTINUOUS
 10
49.590400000000002
 20
18.979700000000001
 30
0.0
 70
    32
  0
VERTEX
  5
1D92
  8
242
  6
CONTINUOUS
 10
49.4801
 20
18.8247
 30
0.0
 70
    32
  0
VERTEX
  5
1D93
  8
242
  6
CONTINUOUS
 10
49.380600000000001
 20
18.6661
 30
0.0
 70
    32
  0
VERTEX
  5
1D94
  8
242
  6
CONTINUOUS
 10
49.292299999999997
 20
18.504100000000001
 30
0.0
 70
    32
  0
VERTEX
  5
1D95
  8
242
  6
CONTINUOUS
 10
49.215299999999999
 20
18.339400000000001
 30
0.0
 70
    32
  0
VERTEX
  5
1D96
  8
242
  6
CONTINUOUS
 10
49.149799999999992
 20
18.1721
 30
0.0
 70
    32
  0
VERTEX
  5
1D97
  8
242
  6
CONTINUOUS
 10
49.0961
 20
18.002800000000001
 30
0.0
 70
    32
  0
VERTEX
  5
1D98
  8
242
  6
CONTINUOUS
 10
49.054099999999991
 20
17.831800000000001
 30
0.0
 70
    32
  0
VERTEX
  5
1D99
  8
242
  6
CONTINUOUS
 10
49.02409999999999
 20
17.659600000000001
 30
0.0
 70
    32
  0
VERTEX
  5
1D9A
  8
242
  6
CONTINUOUS
 10
49.006
 20
17.486499999999999
 30
0.0
 70
    32
  0
VERTEX
  5
1D9B
  8
242
  6
CONTINUOUS
 10
49.0
 20
17.313099999999999
 30
0.0
 70
    32
  0
SEQEND
  5
1D9C
  8
242
  6
CONTINUOUS
  0
LINE
  5
1D9D
  8
245
  6
CENTER2
 10
49.0
 20
17.677669529660299
 30
0.0
 11
58.999999999996362
 21
17.677669529660299
 31
0.0
  0
LINE
  5
1D9E
  8
241
  6
CONTINUOUS
 10
46.0
 20
-24.999999999995449
 30
0.0
 11
46.0
 21
24.999999999999091
 31
0.0
  0
LINE
  5
1D9F
  8
241
  6
CONTINUOUS
 10
44.399999999994172
 20
-24.999999999995449
 30
0.0
 11
44.399999999986917
 21
24.999999999999091
 31
0.0
  0
LINE
  5
1DA0
  8
241
  6
CONTINUOUS
 10
42.99999999999698
 20
-12.99999999999727
 30
0.0
 11
42.99999999999045
 21
13.00000000000273
 31
0.0
  0
LINE
  5
1DA1
  8
241
  6
CONTINUOUS
 10
41.399999999994172
 20
-24.999999999996358
 30
0.0
 11
41.399999999994172
 21
24.999999999999091
 31
0.0
  0
LINE
  5
1DA4
  8
241
  6
CONTINUOUS
 10
0.0
 20
-26.999999999975209
 30
0.0
 11
0.0
 21
26.999999999979082
 31
0.0
  0
LINE
  5
1DA6
  8
241
  6
CONTINUOUS
 10
0.5626933041021403
 20
-25.327978977136709
 30
0.0
 11
0.5626933041021403
 21
25.327978977136851
 31
0.0
  0
LINE
  5
1DA9
  8
240
  6
CONTINUOUS
 10
0.0000000000074772
 20
-26.999999999975199
 30
0.0
 11
0.337299546546727
 21
-25.741180954904731
 31
0.0
  0
LINE
  5
1DAA
  8
240
  6
CONTINUOUS
 10
64.999999999985164
 20
21.999999999998181
 30
0.0
 11
65.000000000000284
 21
-21.999999999991552
 31
0.0
  0
LINE
  5
1DAC
  8
240
  6
CONTINUOUS
 10
1.303225372836428
 20
-25.000000000004171
 30
0.0
 11
62.000000000003737
 21
-24.999999999992571
 31
0.0
  0
LINE
  5
1DAD
  8
240
  6
CONTINUOUS
 10
62.000000000003737
 20
-24.999999999992571
 30
0.0
 11
65.000000000000284
 21
-21.999999999991552
 31
0.0
1001
GENIUS_GENFIL_13
1070
     0
1040
3.0
1040
3.0
1040
0.25
1040
45.0
1002
{
1002
}
1001
GENIUS_GENODEF_13
1002
{
1000
HIER
1070
     0
1002
}
1002
{
1000
MANEDIT
1070
     0
1002
}
1002
{
1000
NOSEL
1070
     0
1002
}
1002
{
1000
BEHIND
1070
     0
1002
}
1002
{
1000
OTHER
1070
     0
1002
}
1002
{
1000
REACTOR
1002
}
1001
GENIUS_GENOBJ-N-CHA_13
1002
{
1000
OWNER
1000
GEN
1002
}
  0
LINE
  5
1DB1
  8
245
  6
CENTER2
 10
54.0
 20
-20.84859790266546
 30
0.0
 11
54.0
 21
-13.777530090799701
 31
0.0
  0
POLYLINE
  5
1DB2
  8
241
  6
CONTINUOUS
 66
     1
 10
0.0
 20
0.0
 30
0.0
 70
     8
  0
VERTEX
  5
1DB3
  8
241
  6
CONTINUOUS
 10
49.75
 20
-17.414999999999999
 30
0.0
 70
    32
  0
VERTEX
  5
1DB4
  8
241
  6
CONTINUOUS
 10
49.755099999999992
 20
-17.267600000000002
 30
0.0
 70
    32
  0
VERTEX
  5
1DB5
  8
241
  6
CONTINUOUS
 10
49.770499999999998
 20
-17.1205
 30
0.0
 70
    32
  0
VERTEX
  5
1DB6
  8
241
  6
CONTINUOUS
 10
49.795999999999999
 20
-16.9741
 30
0.0
 70
    32
  0
VERTEX
  5
1DB7
  8
241
  6
CONTINUOUS
 10
49.831699999999998
 20
-16.828700000000001
 30
0.0
 70
    32
  0
VERTEX
  5
1DB8
  8
241
  6
CONTINUOUS
 10
49.877400000000002
 20
-16.684799999999999
 30
0.0
 70
    32
  0
VERTEX
  5
1DB9
  8
241
  6
CONTINUOUS
 10
49.933
 20
-16.5427
 30
0.0
 70
    32
  0
VERTEX
  5
1DBA
  8
241
  6
CONTINUOUS
 10
49.998399999999982
 20
-16.4026
 30
0.0
 70
    32
  0
VERTEX
  5
1DBB
  8
241
  6
CONTINUOUS
 10
50.073500000000003
 20
-16.265000000000001
 30
0.0
 70
    32
  0
VERTEX
  5
1DBC
  8
241
  6
CONTINUOUS
 10
50.158000000000001
 20
-16.130099999999999
 30
0.0
 70
    32
  0
VERTEX
  5
1DBD
  8
241
  6
CONTINUOUS
 10
50.251800000000003
 20
-15.9984
 30
0.0
 70
    32
  0
VERTEX
  5
1DBE
  8
241
  6
CONTINUOUS
 10
50.354700000000001
 20
-15.869999999999999
 30
0.0
 70
    32
  0
VERTEX
  5
1DBF
  8
241
  6
CONTINUOUS
 10
50.466299999999997
 20
-15.7454
 30
0.0
 70
    32
  0
VERTEX
  5
1DC0
  8
241
  6
CONTINUOUS
 10
50.586399999999998
 20
-15.6248
 30
0.0
 70
    32
  0
VERTEX
  5
1DC1
  8
241
  6
CONTINUOUS
 10
50.714700000000001
 20
-15.5085
 30
0.0
 70
    32
  0
VERTEX
  5
1DC2
  8
241
  6
CONTINUOUS
 10
50.850999999999999
 20
-15.3969
 30
0.0
 70
    32
  0
VERTEX
  5
1DC3
  8
241
  6
CONTINUOUS
 10
50.994799999999991
 20
-15.289999999999999
 30
0.0
 70
    32
  0
VERTEX
  5
1DC4
  8
241
  6
CONTINUOUS
 10
51.14589999999999
 20
-15.1883
 30
0.0
 70
    32
  0
VERTEX
  5
1DC5
  8
241
  6
CONTINUOUS
 10
51.303800000000003
 20
-15.092000000000001
 30
0.0
 70
    32
  0
VERTEX
  5
1DC6
  8
241
  6
CONTINUOUS
 10
51.468299999999999
 20
-15.001200000000001
 30
0.0
 70
    32
  0
VERTEX
  5
1DC7
  8
241
  6
CONTINUOUS
 10
51.638800000000003
 20
-14.9163
 30
0.0
 70
    32
  0
VERTEX
  5
1DC8
  8
241
  6
CONTINUOUS
 10
51.815100000000001
 20
-14.837400000000001
 30
0.0
 70
    32
  0
VERTEX
  5
1DC9
  8
241
  6
CONTINUOUS
 10
51.996600000000001
 20
-14.764699999999999
 30
0.0
 70
    32
  0
VERTEX
  5
1DCA
  8
241
  6
CONTINUOUS
 10
52.182899999999989
 20
-14.698399999999999
 30
0.0
 70
    32
  0
VERTEX
  5
1DCB
  8
241
  6
CONTINUOUS
 10
52.373600000000003
 20
-14.6386
 30
0.0
 70
    32
  0
VERTEX
  5
1DCC
  8
241
  6
CONTINUOUS
 10
52.568199999999997
 20
-14.5855
 30
0.0
 70
    32
  0
VERTEX
  5
1DCD
  8
241
  6
CONTINUOUS
 10
52.766300000000001
 20
-14.539199999999999
 30
0.0
 70
    32
  0
VERTEX
  5
1DCE
  8
241
  6
CONTINUOUS
 10
52.967300000000002
 20
-14.4999
 30
0.0
 70
    32
  0
VERTEX
  5
1DCF
  8
241
  6
CONTINUOUS
 10
53.170900000000003
 20
-14.467599999999999
 30
0.0
 70
    32
  0
VERTEX
  5
1DD0
  8
241
  6
CONTINUOUS
 10
53.376399999999997
 20
-14.442299999999999
 30
0.0
 70
    32
  0
VERTEX
  5
1DD1
  8
241
  6
CONTINUOUS
 10
53.583399999999997
 20
-14.424300000000001
 30
0.0
 70
    32
  0
VERTEX
  5
1DD2
  8
241
  6
CONTINUOUS
 10
53.791499999999999
 20
-14.413399999999999
 30
0.0
 70
    32
  0
VERTEX
  5
1DD3
  8
241
  6
CONTINUOUS
 10
54.0
 20
-14.409800000000001
 30
0.0
 70
    32
  0
VERTEX
  5
1DD4
  8
241
  6
CONTINUOUS
 10
54.208500000000001
 20
-14.413399999999999
 30
0.0
 70
    32
  0
VERTEX
  5
1DD5
  8
241
  6
CONTINUOUS
 10
54.416600000000003
 20
-14.424300000000001
 30
0.0
 70
    32
  0
VERTEX
  5
1DD6
  8
241
  6
CONTINUOUS
 10
54.623600000000003
 20
-14.442299999999999
 30
0.0
 70
    32
  0
VERTEX
  5
1DD7
  8
241
  6
CONTINUOUS
 10
54.829099999999997
 20
-14.467599999999999
 30
0.0
 70
    32
  0
VERTEX
  5
1DD8
  8
241
  6
CONTINUOUS
 10
55.032699999999998
 20
-14.4999
 30
0.0
 70
    32
  0
VERTEX
  5
1DD9
  8
241
  6
CONTINUOUS
 10
55.233699999999992
 20
-14.539199999999999
 30
0.0
 70
    32
  0
VERTEX
  5
1DDA
  8
241
  6
CONTINUOUS
 10
55.431800000000003
 20
-14.5855
 30
0.0
 70
    32
  0
VERTEX
  5
1DDB
  8
241
  6
CONTINUOUS
 10
55.626399999999997
 20
-14.6386
 30
0.0
 70
    32
  0
VERTEX
  5
1DDC
  8
241
  6
CONTINUOUS
 10
55.817100000000011
 20
-14.698399999999999
 30
0.0
 70
    32
  0
VERTEX
  5
1DDD
  8
241
  6
CONTINUOUS
 10
56.003399999999999
 20
-14.764699999999999
 30
0.0
 70
    32
  0
VERTEX
  5
1DDE
  8
241
  6
CONTINUOUS
 10
56.184899999999999
 20
-14.837400000000001
 30
0.0
 70
    32
  0
VERTEX
  5
1DDF
  8
241
  6
CONTINUOUS
 10
56.361199999999997
 20
-14.9163
 30
0.0
 70
    32
  0
VERTEX
  5
1DE0
  8
241
  6
CONTINUOUS
 10
56.531700000000001
 20
-15.001200000000001
 30
0.0
 70
    32
  0
VERTEX
  5
1DE1
  8
241
  6
CONTINUOUS
 10
56.696199999999997
 20
-15.092000000000001
 30
0.0
 70
    32
  0
VERTEX
  5
1DE2
  8
241
  6
CONTINUOUS
 10
56.854100000000003
 20
-15.1883
 30
0.0
 70
    32
  0
VERTEX
  5
1DE3
  8
241
  6
CONTINUOUS
 10
57.005200000000002
 20
-15.289999999999999
 30
0.0
 70
    32
  0
VERTEX
  5
1DE4
  8
241
  6
CONTINUOUS
 10
57.149000000000001
 20
-15.3969
 30
0.0
 70
    32
  0
VERTEX
  5
1DE5
  8
241
  6
CONTINUOUS
 10
57.285299999999999
 20
-15.5085
 30
0.0
 70
    32
  0
VERTEX
  5
1DE6
  8
241
  6
CONTINUOUS
 10
57.413600000000002
 20
-15.6248
 30
0.0
 70
    32
  0
VERTEX
  5
1DE7
  8
241
  6
CONTINUOUS
 10
57.533700000000003
 20
-15.7454
 30
0.0
 70
    32
  0
VERTEX
  5
1DE8
  8
241
  6
CONTINUOUS
 10
57.645299999999999
 20
-15.869999999999999
 30
0.0
 70
    32
  0
VERTEX
  5
1DE9
  8
241
  6
CONTINUOUS
 10
57.748199999999997
 20
-15.9984
 30
0.0
 70
    32
  0
VERTEX
  5
1DEA
  8
241
  6
CONTINUOUS
 10
57.841999999999999
 20
-16.130099999999999
 30
0.0
 70
    32
  0
VERTEX
  5
1DEB
  8
241
  6
CONTINUOUS
 10
57.926499999999997
 20
-16.265000000000001
 30
0.0
 70
    32
  0
VERTEX
  5
1DEC
  8
241
  6
CONTINUOUS
 10
58.001600000000003
 20
-16.4026
 30
0.0
 70
    32
  0
VERTEX
  5
1DED
  8
241
  6
CONTINUOUS
 10
58.067
 20
-16.5427
 30
0.0
 70
    32
  0
VERTEX
  5
1DEE
  8
241
  6
CONTINUOUS
 10
58.122599999999998
 20
-16.684799999999999
 30
0.0
 70
    32
  0
VERTEX
  5
1DEF
  8
241
  6
CONTINUOUS
 10
58.168300000000002
 20
-16.828700000000001
 30
0.0
 70
    32
  0
VERTEX
  5
1DF0
  8
241
  6
CONTINUOUS
 10
58.204000000000001
 20
-16.9741
 30
0.0
 70
    32
  0
VERTEX
  5
1DF1
  8
241
  6
CONTINUOUS
 10
58.229500000000002
 20
-17.1205
 30
0.0
 70
    32
  0
VERTEX
  5
1DF2
  8
241
  6
CONTINUOUS
 10
58.244900000000001
 20
-17.267600000000002
 30
0.0
 70
    32
  0
VERTEX
  5
1DF3
  8
241
  6
CONTINUOUS
 10
58.25
 20
-17.414999999999999
 30
0.0
 70
    32
  0
VERTEX
  5
1DF4
  8
241
  6
CONTINUOUS
 10
58.244900000000001
 20
-17.5625
 30
0.0
 70
    32
  0
VERTEX
  5
1DF5
  8
241
  6
CONTINUOUS
 10
58.229500000000002
 20
-17.709599999999991
 30
0.0
 70
    32
  0
VERTEX
  5
1DF6
  8
241
  6
CONTINUOUS
 10
58.204000000000001
 20
-17.856000000000002
 30
0.0
 70
    32
  0
VERTEX
  5
1DF7
  8
241
  6
CONTINUOUS
 10
58.168300000000002
 20
-18.001300000000001
 30
0.0
 70
    32
  0
VERTEX
  5
1DF8
  8
241
  6
CONTINUOUS
 10
58.122599999999998
 20
-18.145199999999999
 30
0.0
 70
    32
  0
VERTEX
  5
1DF9
  8
241
  6
CONTINUOUS
 10
58.067
 20
-18.287400000000002
 30
0.0
 70
    32
  0
VERTEX
  5
1DFA
  8
241
  6
CONTINUOUS
 10
58.001600000000003
 20
-18.427399999999999
 30
0.0
 70
    32
  0
VERTEX
  5
1DFB
  8
241
  6
CONTINUOUS
 10
57.926499999999997
 20
-18.565100000000001
 30
0.0
 70
    32
  0
VERTEX
  5
1DFC
  8
241
  6
CONTINUOUS
 10
57.841999999999999
 20
-18.6999
 30
0.0
 70
    32
  0
VERTEX
  5
1DFD
  8
241
  6
CONTINUOUS
 10
57.748199999999997
 20
-18.831700000000001
 30
0.0
 70
    32
  0
VERTEX
  5
1DFE
  8
241
  6
CONTINUOUS
 10
57.645299999999999
 20
-18.960000000000001
 30
0.0
 70
    32
  0
VERTEX
  5
1DFF
  8
241
  6
CONTINUOUS
 10
57.533700000000003
 20
-19.084599999999998
 30
0.0
 70
    32
  0
VERTEX
  5
1E00
  8
241
  6
CONTINUOUS
 10
57.413600000000002
 20
-19.205200000000001
 30
0.0
 70
    32
  0
VERTEX
  5
1E01
  8
241
  6
CONTINUOUS
 10
57.285299999999999
 20
-19.3215
 30
0.0
 70
    32
  0
VERTEX
  5
1E02
  8
241
  6
CONTINUOUS
 10
57.149000000000001
 20
-19.433199999999999
 30
0.0
 70
    32
  0
VERTEX
  5
1E03
  8
241
  6
CONTINUOUS
 10
57.005200000000002
 20
-19.539999999999999
 30
0.0
 70
    32
  0
VERTEX
  5
1E04
  8
241
  6
CONTINUOUS
 10
56.854100000000003
 20
-19.6417
 30
0.0
 70
    32
  0
VERTEX
  5
1E05
  8
241
  6
CONTINUOUS
 10
56.696199999999997
 20
-19.738099999999999
 30
0.0
 70
    32
  0
VERTEX
  5
1E06
  8
241
  6
CONTINUOUS
 10
56.531700000000001
 20
-19.828800000000001
 30
0.0
 70
    32
  0
VERTEX
  5
1E07
  8
241
  6
CONTINUOUS
 10
56.361199999999997
 20
-19.913799999999998
 30
0.0
 70
    32
  0
VERTEX
  5
1E08
  8
241
  6
CONTINUOUS
 10
56.184899999999999
 20
-19.992699999999999
 30
0.0
 70
    32
  0
VERTEX
  5
1E09
  8
241
  6
CONTINUOUS
 10
56.003399999999999
 20
-20.0654
 30
0.0
 70
    32
  0
VERTEX
  5
1E0A
  8
241
  6
CONTINUOUS
 10
55.817100000000011
 20
-20.131699999999999
 30
0.0
 70
    32
  0
VERTEX
  5
1E0B
  8
241
  6
CONTINUOUS
 10
55.626399999999997
 20
-20.191500000000001
 30
0.0
 70
    32
  0
VERTEX
  5
1E0C
  8
241
  6
CONTINUOUS
 10
55.431800000000003
 20
-20.244599999999998
 30
0.0
 70
    32
  0
VERTEX
  5
1E0D
  8
241
  6
CONTINUOUS
 10
55.233699999999992
 20
-20.290800000000001
 30
0.0
 70
    32
  0
VERTEX
  5
1E0E
  8
241
  6
CONTINUOUS
 10
55.032699999999998
 20
-20.330200000000001
 30
0.0
 70
    32
  0
VERTEX
  5
1E0F
  8
241
  6
CONTINUOUS
 10
54.829099999999997
 20
-20.362500000000001
 30
0.0
 70
    32
  0
VERTEX
  5
1E10
  8
241
  6
CONTINUOUS
 10
54.623600000000003
 20
-20.387699999999999
 30
0.0
 70
    32
  0
VERTEX
  5
1E11
  8
241
  6
CONTINUOUS
 10
54.416600000000003
 20
-20.405799999999999
 30
0.0
 70
    32
  0
VERTEX
  5
1E12
  8
241
  6
CONTINUOUS
 10
54.208500000000001
 20
-20.416599999999999
 30
0.0
 70
    32
  0
VERTEX
  5
1E13
  8
241
  6
CONTINUOUS
 10
54.0
 20
-20.420200000000001
 30
0.0
 70
    32
  0
VERTEX
  5
1E14
  8
241
  6
CONTINUOUS
 10
53.791499999999999
 20
-20.416599999999999
 30
0.0
 70
    32
  0
VERTEX
  5
1E15
  8
241
  6
CONTINUOUS
 10
53.583399999999997
 20
-20.405799999999999
 30
0.0
 70
    32
  0
VERTEX
  5
1E16
  8
241
  6
CONTINUOUS
 10
53.376399999999997
 20
-20.387699999999999
 30
0.0
 70
    32
  0
VERTEX
  5
1E17
  8
241
  6
CONTINUOUS
 10
53.170900000000003
 20
-20.362500000000001
 30
0.0
 70
    32
  0
VERTEX
  5
1E18
  8
241
  6
CONTINUOUS
 10
52.967300000000002
 20
-20.330200000000001
 30
0.0
 70
    32
  0
VERTEX
  5
1E19
  8
241
  6
CONTINUOUS
 10
52.766300000000001
 20
-20.290800000000001
 30
0.0
 70
    32
  0
VERTEX
  5
1E1A
  8
241
  6
CONTINUOUS
 10
52.568199999999997
 20
-20.244599999999998
 30
0.0
 70
    32
  0
VERTEX
  5
1E1B
  8
241
  6
CONTINUOUS
 10
52.373600000000003
 20
-20.191500000000001
 30
0.0
 70
    32
  0
VERTEX
  5
1E1C
  8
241
  6
CONTINUOUS
 10
52.182899999999989
 20
-20.131699999999999
 30
0.0
 70
    32
  0
VERTEX
  5
1E1D
  8
241
  6
CONTINUOUS
 10
51.996600000000001
 20
-20.0654
 30
0.0
 70
    32
  0
VERTEX
  5
1E1E
  8
241
  6
CONTINUOUS
 10
51.815100000000001
 20
-19.992699999999999
 30
0.0
 70
    32
  0
VERTEX
  5
1E1F
  8
241
  6
CONTINUOUS
 10
51.638800000000003
 20
-19.913799999999998
 30
0.0
 70
    32
  0
VERTEX
  5
1E20
  8
241
  6
CONTINUOUS
 10
51.468299999999999
 20
-19.828800000000001
 30
0.0
 70
    32
  0
VERTEX
  5
1E21
  8
241
  6
CONTINUOUS
 10
51.303800000000003
 20
-19.738099999999999
 30
0.0
 70
    32
  0
VERTEX
  5
1E22
  8
241
  6
CONTINUOUS
 10
51.14589999999999
 20
-19.6417
 30
0.0
 70
    32
  0
VERTEX
  5
1E23
  8
241
  6
CONTINUOUS
 10
50.994799999999991
 20
-19.539999999999999
 30
0.0
 70
    32
  0
VERTEX
  5
1E24
  8
241
  6
CONTINUOUS
 10
50.850999999999999
 20
-19.433199999999999
 30
0.0
 70
    32
  0
VERTEX
  5
1E25
  8
241
  6
CONTINUOUS
 10
50.714700000000001
 20
-19.3215
 30
0.0
 70
    32
  0
VERTEX
  5
1E26
  8
241
  6
CONTINUOUS
 10
50.586399999999998
 20
-19.205200000000001
 30
0.0
 70
    32
  0
VERTEX
  5
1E27
  8
241
  6
CONTINUOUS
 10
50.466299999999997
 20
-19.084599999999998
 30
0.0
 70
    32
  0
VERTEX
  5
1E28
  8
241
  6
CONTINUOUS
 10
50.354700000000001
 20
-18.960000000000001
 30
0.0
 70
    32
  0
VERTEX
  5
1E29
  8
241
  6
CONTINUOUS
 10
50.251800000000003
 20
-18.831700000000001
 30
0.0
 70
    32
  0
VERTEX
  5
1E2A
  8
241
  6
CONTINUOUS
 10
50.158000000000001
 20
-18.6999
 30
0.0
 70
    32
  0
VERTEX
  5
1E2B
  8
241
  6
CONTINUOUS
 10
50.073500000000003
 20
-18.565100000000001
 30
0.0
 70
    32
  0
VERTEX
  5
1E2C
  8
241
  6
CONTINUOUS
 10
49.998399999999982
 20
-18.427399999999999
 30
0.0
 70
    32
  0
VERTEX
  5
1E2D
  8
241
  6
CONTINUOUS
 10
49.933
 20
-18.287400000000002
 30
0.0
 70
    32
  0
VERTEX
  5
1E2E
  8
241
  6
CONTINUOUS
 10
49.877400000000002
 20
-18.145199999999999
 30
0.0
 70
    32
  0
VERTEX
  5
1E2F
  8
241
  6
CONTINUOUS
 10
49.831699999999998
 20
-18.001300000000001
 30
0.0
 70
    32
  0
VERTEX
  5
1E30
  8
241
  6
CONTINUOUS
 10
49.795999999999999
 20
-17.856000000000002
 30
0.0
 70
    32
  0
VERTEX
  5
1E31
  8
241
  6
CONTINUOUS
 10
49.770499999999998
 20
-17.709599999999991
 30
0.0
 70
    32
  0
VERTEX
  5
1E32
  8
241
  6
CONTINUOUS
 10
49.755099999999992
 20
-17.5625
 30
0.0
 70
    32
  0
VERTEX
  5
1E33
  8
241
  6
CONTINUOUS
 10
49.75
 20
-17.414999999999999
 30
0.0
 70
    32
  0
SEQEND
  5
1E34
  8
241
  6
CONTINUOUS
  0
POLYLINE
  5
1E35
  8
242
  6
CONTINUOUS
 66
     1
 10
0.0
 20
0.0
 30
0.0
 70
     8
  0
VERTEX
  5
1E36
  8
242
  6
CONTINUOUS
 10
49.0
 20
-17.313099999999999
 30
0.0
 70
    32
  0
VERTEX
  5
1E37
  8
242
  6
CONTINUOUS
 10
49.006
 20
-17.139600000000002
 30
0.0
 70
    32
  0
VERTEX
  5
1E38
  8
242
  6
CONTINUOUS
 10
49.02409999999999
 20
-16.9665
 30
0.0
 70
    32
  0
VERTEX
  5
1E39
  8
242
  6
CONTINUOUS
 10
49.054099999999991
 20
-16.7943
 30
0.0
 70
    32
  0
VERTEX
  5
1E3A
  8
242
  6
CONTINUOUS
 10
49.0961
 20
-16.6233
 30
0.0
 70
    32
  0
VERTEX
  5
1E3B
  8
242
  6
CONTINUOUS
 10
49.149799999999992
 20
-16.454000000000001
 30
0.0
 70
    32
  0
VERTEX
  5
1E3C
  8
242
  6
CONTINUOUS
 10
49.215299999999999
 20
-16.286799999999999
 30
0.0
 70
    32
  0
VERTEX
  5
1E3D
  8
242
  6
CONTINUOUS
 10
49.292299999999997
 20
-16.122
 30
0.0
 70
    32
  0
VERTEX
  5
1E3E
  8
242
  6
CONTINUOUS
 10
49.380600000000001
 20
-15.960100000000001
 30
0.0
 70
    32
  0
VERTEX
  5
1E3F
  8
242
  6
CONTINUOUS
 10
49.4801
 20
-15.801399999999999
 30
0.0
 70
    32
  0
VERTEX
  5
1E40
  8
242
  6
CONTINUOUS
 10
49.590400000000002
 20
-15.6464
 30
0.0
 70
    32
  0
VERTEX
  5
1E41
  8
242
  6
CONTINUOUS
 10
49.711399999999998
 20
-15.4954
 30
0.0
 70
    32
  0
VERTEX
  5
1E42
  8
242
  6
CONTINUOUS
 10
49.842700000000001
 20
-15.348800000000001
 30
0.0
 70
    32
  0
VERTEX
  5
1E43
  8
242
  6
CONTINUOUS
 10
49.984000000000002
 20
-15.206899999999999
 30
0.0
 70
    32
  0
VERTEX
  5
1E44
  8
242
  6
CONTINUOUS
 10
50.134900000000002
 20
-15.0701
 30
0.0
 70
    32
  0
VERTEX
  5
1E45
  8
242
  6
CONTINUOUS
 10
50.295200000000001
 20
-14.938700000000001
 30
0.0
 70
    32
  0
VERTEX
  5
1E46
  8
242
  6
CONTINUOUS
 10
50.464500000000001
 20
-14.8131
 30
0.0
 70
    32
  0
VERTEX
  5
1E47
  8
242
  6
CONTINUOUS
 10
50.642200000000003
 20
-14.6934
 30
0.0
 70
    32
  0
VERTEX
  5
1E48
  8
242
  6
CONTINUOUS
 10
50.828000000000003
 20
-14.5801
 30
0.0
 70
    32
  0
VERTEX
  5
1E49
  8
242
  6
CONTINUOUS
 10
51.021500000000003
 20
-14.4733
 30
0.0
 70
    32
  0
VERTEX
  5
1E4A
  8
242
  6
CONTINUOUS
 10
51.22209999999999
 20
-14.3734
 30
0.0
 70
    32
  0
VERTEX
  5
1E4B
  8
242
  6
CONTINUOUS
 10
51.42949999999999
 20
-14.2805
 30
0.0
 70
    32
  0
VERTEX
  5
1E4C
  8
242
  6
CONTINUOUS
 10
51.643000000000001
 20
-14.195
 30
0.0
 70
    32
  0
VERTEX
  5
1E4D
  8
242
  6
CONTINUOUS
 10
51.862200000000001
 20
-14.117000000000001
 30
0.0
 70
    32
  0
VERTEX
  5
1E4E
  8
242
  6
CONTINUOUS
 10
52.086599999999997
 20
-14.0467
 30
0.0
 70
    32
  0
VERTEX
  5
1E4F
  8
242
  6
CONTINUOUS
 10
52.315600000000003
 20
-13.9842
 30
0.0
 70
    32
  0
VERTEX
  5
1E50
  8
242
  6
CONTINUOUS
 10
52.5486
 20
-13.9298
 30
0.0
 70
    32
  0
VERTEX
  5
1E51
  8
242
  6
CONTINUOUS
 10
52.7851
 20
-13.8835
 30
0.0
 70
    32
  0
VERTEX
  5
1E52
  8
242
  6
CONTINUOUS
 10
53.024500000000003
 20
-13.845499999999999
 30
0.0
 70
    32
  0
VERTEX
  5
1E53
  8
242
  6
CONTINUOUS
 10
53.266300000000001
 20
-13.815799999999999
 30
0.0
 70
    32
  0
VERTEX
  5
1E54
  8
242
  6
CONTINUOUS
 10
53.509900000000002
 20
-13.794600000000001
 30
0.0
 70
    32
  0
VERTEX
  5
1E55
  8
242
  6
CONTINUOUS
 10
53.754699999999993
 20
-13.7818
 30
0.0
 70
    32
  0
VERTEX
  5
1E56
  8
242
  6
CONTINUOUS
 10
54.0
 20
-13.7775
 30
0.0
 70
    32
  0
VERTEX
  5
1E57
  8
242
  6
CONTINUOUS
 10
54.2453
 20
-13.7818
 30
0.0
 70
    32
  0
VERTEX
  5
1E58
  8
242
  6
CONTINUOUS
 10
54.490099999999998
 20
-13.794600000000001
 30
0.0
 70
    32
  0
VERTEX
  5
1E59
  8
242
  6
CONTINUOUS
 10
54.733699999999999
 20
-13.815799999999999
 30
0.0
 70
    32
  0
VERTEX
  5
1E5A
  8
242
  6
CONTINUOUS
 10
54.975499999999997
 20
-13.845499999999999
 30
0.0
 70
    32
  0
VERTEX
  5
1E5B
  8
242
  6
CONTINUOUS
 10
55.2149
 20
-13.8835
 30
0.0
 70
    32
  0
VERTEX
  5
1E5C
  8
242
  6
CONTINUOUS
 10
55.451399999999992
 20
-13.9298
 30
0.0
 70
    32
  0
VERTEX
  5
1E5D
  8
242
  6
CONTINUOUS
 10
55.684399999999982
 20
-13.9842
 30
0.0
 70
    32
  0
VERTEX
  5
1E5E
  8
242
  6
CONTINUOUS
 10
55.913400000000003
 20
-14.0467
 30
0.0
 70
    32
  0
VERTEX
  5
1E5F
  8
242
  6
CONTINUOUS
 10
56.137799999999999
 20
-14.117000000000001
 30
0.0
 70
    32
  0
VERTEX
  5
1E60
  8
242
  6
CONTINUOUS
 10
56.356999999999992
 20
-14.195
 30
0.0
 70
    32
  0
VERTEX
  5
1E61
  8
242
  6
CONTINUOUS
 10
56.570500000000003
 20
-14.2805
 30
0.0
 70
    32
  0
VERTEX
  5
1E62
  8
242
  6
CONTINUOUS
 10
56.777900000000002
 20
-14.3734
 30
0.0
 70
    32
  0
VERTEX
  5
1E63
  8
242
  6
CONTINUOUS
 10
56.978499999999983
 20
-14.4733
 30
0.0
 70
    32
  0
VERTEX
  5
1E64
  8
242
  6
CONTINUOUS
 10
57.171999999999997
 20
-14.5801
 30
0.0
 70
    32
  0
VERTEX
  5
1E65
  8
242
  6
CONTINUOUS
 10
57.357799999999997
 20
-14.6934
 30
0.0
 70
    32
  0
VERTEX
  5
1E66
  8
242
  6
CONTINUOUS
 10
57.535499999999999
 20
-14.8131
 30
0.0
 70
    32
  0
VERTEX
  5
1E67
  8
242
  6
CONTINUOUS
 10
57.704799999999999
 20
-14.938700000000001
 30
0.0
 70
    32
  0
VERTEX
  5
1E68
  8
242
  6
CONTINUOUS
 10
57.865099999999991
 20
-15.0701
 30
0.0
 70
    32
  0
VERTEX
  5
1E69
  8
242
  6
CONTINUOUS
 10
58.015999999999998
 20
-15.206899999999999
 30
0.0
 70
    32
  0
VERTEX
  5
1E6A
  8
242
  6
CONTINUOUS
 10
58.157299999999999
 20
-15.348800000000001
 30
0.0
 70
    32
  0
VERTEX
  5
1E6B
  8
242
  6
CONTINUOUS
 10
58.288600000000002
 20
-15.4954
 30
0.0
 70
    32
  0
VERTEX
  5
1E6C
  8
242
  6
CONTINUOUS
 10
58.40959999999999
 20
-15.6464
 30
0.0
 70
    32
  0
VERTEX
  5
1E6D
  8
242
  6
CONTINUOUS
 10
58.5199
 20
-15.801399999999999
 30
0.0
 70
    32
  0
VERTEX
  5
1E6E
  8
242
  6
CONTINUOUS
 10
58.619399999999999
 20
-15.960100000000001
 30
0.0
 70
    32
  0
VERTEX
  5
1E6F
  8
242
  6
CONTINUOUS
 10
58.707700000000003
 20
-16.122
 30
0.0
 70
    32
  0
VERTEX
  5
1E70
  8
242
  6
CONTINUOUS
 10
58.784700000000001
 20
-16.286799999999999
 30
0.0
 70
    32
  0
VERTEX
  5
1E71
  8
242
  6
CONTINUOUS
 10
58.850200000000001
 20
-16.454000000000001
 30
0.0
 70
    32
  0
VERTEX
  5
1E72
  8
242
  6
CONTINUOUS
 10
58.9039
 20
-16.6233
 30
0.0
 70
    32
  0
VERTEX
  5
1E73
  8
242
  6
CONTINUOUS
 10
58.945900000000002
 20
-16.7943
 30
0.0
 70
    32
  0
VERTEX
  5
1E74
  8
242
  6
CONTINUOUS
 10
58.975900000000003
 20
-16.9665
 30
0.0
 70
    32
  0
VERTEX
  5
1E75
  8
242
  6
CONTINUOUS
 10
58.993999999999993
 20
-17.139600000000002
 30
0.0
 70
    32
  0
VERTEX
  5
1E76
  8
242
  6
CONTINUOUS
 10
59.0
 20
-17.313099999999999
 30
0.0
 70
    32
  0
VERTEX
  5
1E77
  8
242
  6
CONTINUOUS
 10
58.993999999999993
 20
-17.486499999999999
 30
0.0
 70
    32
  0
VERTEX
  5
1E78
  8
242
  6
CONTINUOUS
 10
58.975900000000003
 20
-17.659600000000001
 30
0.0
 70
    32
  0
VERTEX
  5
1E79
  8
242
  6
CONTINUOUS
 10
58.945900000000002
 20
-17.831800000000001
 30
0.0
 70
    32
  0
VERTEX
  5
1E7A
  8
242
  6
CONTINUOUS
 10
58.9039
 20
-18.002800000000001
 30
0.0
 70
    32
  0
VERTEX
  5
1E7B
  8
242
  6
CONTINUOUS
 10
58.850200000000001
 20
-18.1721
 30
0.0
 70
    32
  0
VERTEX
  5
1E7C
  8
242
  6
CONTINUOUS
 10
58.784700000000001
 20
-18.339400000000001
 30
0.0
 70
    32
  0
VERTEX
  5
1E7D
  8
242
  6
CONTINUOUS
 10
58.707700000000003
 20
-18.504100000000001
 30
0.0
 70
    32
  0
VERTEX
  5
1E7E
  8
242
  6
CONTINUOUS
 10
58.619399999999999
 20
-18.6661
 30
0.0
 70
    32
  0
VERTEX
  5
1E7F
  8
242
  6
CONTINUOUS
 10
58.5199
 20
-18.8247
 30
0.0
 70
    32
  0
VERTEX
  5
1E80
  8
242
  6
CONTINUOUS
 10
58.40959999999999
 20
-18.979700000000001
 30
0.0
 70
    32
  0
VERTEX
  5
1E81
  8
242
  6
CONTINUOUS
 10
58.288600000000002
 20
-19.130700000000001
 30
0.0
 70
    32
  0
VERTEX
  5
1E82
  8
242
  6
CONTINUOUS
 10
58.157299999999999
 20
-19.2773
 30
0.0
 70
    32
  0
VERTEX
  5
1E83
  8
242
  6
CONTINUOUS
 10
58.015999999999998
 20
-19.4192
 30
0.0
 70
    32
  0
VERTEX
  5
1E84
  8
242
  6
CONTINUOUS
 10
57.865099999999991
 20
-19.556000000000001
 30
0.0
 70
    32
  0
VERTEX
  5
1E85
  8
242
  6
CONTINUOUS
 10
57.704799999999999
 20
-19.6874
 30
0.0
 70
    32
  0
VERTEX
  5
1E86
  8
242
  6
CONTINUOUS
 10
57.535499999999999
 20
-19.813099999999999
 30
0.0
 70
    32
  0
VERTEX
  5
1E87
  8
242
  6
CONTINUOUS
 10
57.357799999999997
 20
-19.932700000000001
 30
0.0
 70
    32
  0
VERTEX
  5
1E88
  8
242
  6
CONTINUOUS
 10
57.171999999999997
 20
-20.046099999999999
 30
0.0
 70
    32
  0
VERTEX
  5
1E89
  8
242
  6
CONTINUOUS
 10
56.978499999999983
 20
-20.152799999999999
 30
0.0
 70
    32
  0
VERTEX
  5
1E8A
  8
242
  6
CONTINUOUS
 10
56.777900000000002
 20
-20.252800000000001
 30
0.0
 70
    32
  0
VERTEX
  5
1E8B
  8
242
  6
CONTINUOUS
 10
56.570500000000003
 20
-20.345600000000001
 30
0.0
 70
    32
  0
VERTEX
  5
1E8C
  8
242
  6
CONTINUOUS
 10
56.356999999999992
 20
-20.431100000000001
 30
0.0
 70
    32
  0
VERTEX
  5
1E8D
  8
242
  6
CONTINUOUS
 10
56.137799999999999
 20
-20.5091
 30
0.0
 70
    32
  0
VERTEX
  5
1E8E
  8
242
  6
CONTINUOUS
 10
55.913400000000003
 20
-20.579499999999999
 30
0.0
 70
    32
  0
VERTEX
  5
1E8F
  8
242
  6
CONTINUOUS
 10
55.684399999999982
 20
-20.6419
 30
0.0
 70
    32
  0
VERTEX
  5
1E90
  8
242
  6
CONTINUOUS
 10
55.451399999999992
 20
-20.696400000000001
 30
0.0
 70
    32
  0
VERTEX
  5
1E91
  8
242
  6
CONTINUOUS
 10
55.2149
 20
-20.742599999999999
 30
0.0
 70
    32
  0
VERTEX
  5
1E92
  8
242
  6
CONTINUOUS
 10
54.975499999999997
 20
-20.7807
 30
0.0
 70
    32
  0
VERTEX
  5
1E93
  8
242
  6
CONTINUOUS
 10
54.733699999999999
 20
-20.810300000000002
 30
0.0
 70
    32
  0
VERTEX
  5
1E94
  8
242
  6
CONTINUOUS
 10
54.490099999999998
 20
-20.831600000000002
 30
0.0
 70
    32
  0
VERTEX
  5
1E95
  8
242
  6
CONTINUOUS
 10
54.2453
 20
-20.8443
 30
0.0
 70
    32
  0
VERTEX
  5
1E96
  8
242
  6
CONTINUOUS
 10
54.0
 20
-20.848600000000001
 30
0.0
 70
    32
  0
VERTEX
  5
1E97
  8
242
  6
CONTINUOUS
 10
53.754699999999993
 20
-20.8443
 30
0.0
 70
    32
  0
VERTEX
  5
1E98
  8
242
  6
CONTINUOUS
 10
53.509900000000002
 20
-20.831600000000002
 30
0.0
 70
    32
  0
VERTEX
  5
1E99
  8
242
  6
CONTINUOUS
 10
53.266300000000001
 20
-20.810300000000002
 30
0.0
 70
    32
  0
VERTEX
  5
1E9A
  8
242
  6
CONTINUOUS
 10
53.024500000000003
 20
-20.7807
 30
0.0
 70
    32
  0
VERTEX
  5
1E9B
  8
242
  6
CONTINUOUS
 10
52.7851
 20
-20.742599999999999
 30
0.0
 70
    32
  0
VERTEX
  5
1E9C
  8
242
  6
CONTINUOUS
 10
52.5486
 20
-20.696400000000001
 30
0.0
 70
    32
  0
VERTEX
  5
1E9D
  8
242
  6
CONTINUOUS
 10
52.315600000000003
 20
-20.6419
 30
0.0
 70
    32
  0
VERTEX
  5
1E9E
  8
242
  6
CONTINUOUS
 10
52.086599999999997
 20
-20.579499999999999
 30
0.0
 70
    32
  0
VERTEX
  5
1E9F
  8
242
  6
CONTINUOUS
 10
51.862200000000001
 20
-20.5091
 30
0.0
 70
    32
  0
VERTEX
  5
1EA0
  8
242
  6
CONTINUOUS
 10
51.643000000000001
 20
-20.431100000000001
 30
0.0
 70
    32
  0
VERTEX
  5
1EA1
  8
242
  6
CONTINUOUS
 10
51.42949999999999
 20
-20.345600000000001
 30
0.0
 70
    32
  0
VERTEX
  5
1EA2
  8
242
  6
CONTINUOUS
 10
51.22209999999999
 20
-20.252800000000001
 30
0.0
 70
    32
  0
VERTEX
  5
1EA3
  8
242
  6
CONTINUOUS
 10
51.021500000000003
 20
-20.152799999999999
 30
0.0
 70
    32
  0
VERTEX
  5
1EA4
  8
242
  6
CONTINUOUS
 10
50.828000000000003
 20
-20.046099999999999
 30
0.0
 70
    32
  0
VERTEX
  5
1EA5
  8
242
  6
CONTINUOUS
 10
50.642200000000003
 20
-19.932700000000001
 30
0.0
 70
    32
  0
VERTEX
  5
1EA6
  8
242
  6
CONTINUOUS
 10
50.464500000000001
 20
-19.813099999999999
 30
0.0
 70
    32
  0
VERTEX
  5
1EA7
  8
242
  6
CONTINUOUS
 10
50.295200000000001
 20
-19.6874
 30
0.0
 70
    32
  0
VERTEX
  5
1EA8
  8
242
  6
CONTINUOUS
 10
50.134900000000002
 20
-19.556000000000001
 30
0.0
 70
    32
  0
VERTEX
  5
1EA9
  8
242
  6
CONTINUOUS
 10
49.984000000000002
 20
-19.4192
 30
0.0
 70
    32
  0
VERTEX
  5
1EAA
  8
242
  6
CONTINUOUS
 10
49.842700000000001
 20
-19.2773
 30
0.0
 70
    32
  0
VERTEX
  5
1EAB
  8
242
  6
CONTINUOUS
 10
49.711399999999998
 20
-19.130700000000001
 30
0.0
 70
    32
  0
VERTEX
  5
1EAC
  8
242
  6
CONTINUOUS
 10
49.590400000000002
 20
-18.979700000000001
 30
0.0
 70
    32
  0
VERTEX
  5
1EAD
  8
242
  6
CONTINUOUS
 10
49.4801
 20
-18.8247
 30
0.0
 70
    32
  0
VERTEX
  5
1EAE
  8
242
  6
CONTINUOUS
 10
49.380600000000001
 20
-18.6661
 30
0.0
 70
    32
  0
VERTEX
  5
1EAF
  8
242
  6
CONTINUOUS
 10
49.292299999999997
 20
-18.504100000000001
 30
0.0
 70
    32
  0
VERTEX
  5
1EB0
  8
242
  6
CONTINUOUS
 10
49.215299999999999
 20
-18.339400000000001
 30
0.0
 70
    32
  0
VERTEX
  5
1EB1
  8
242
  6
CONTINUOUS
 10
49.149799999999992
 20
-18.1721
 30
0.0
 70
    32
  0
VERTEX
  5
1EB2
  8
242
  6
CONTINUOUS
 10
49.0961
 20
-18.002800000000001
 30
0.0
 70
    32
  0
VERTEX
  5
1EB3
  8
242
  6
CONTINUOUS
 10
49.054099999999991
 20
-17.831800000000001
 30
0.0
 70
    32
  0
VERTEX
  5
1EB4
  8
242
  6
CONTINUOUS
 10
49.02409999999999
 20
-17.659600000000001
 30
0.0
 70
    32
  0
VERTEX
  5
1EB5
  8
242
  6
CONTINUOUS
 10
49.006
 20
-17.486499999999999
 30
0.0
 70
    32
  0
VERTEX
  5
1EB6
  8
242
  6
CONTINUOUS
 10
49.0
 20
-17.313099999999999
 30
0.0
 70
    32
  0
SEQEND
  5
1EB7
  8
242
  6
CONTINUOUS
  0
LINE
  5
1EB8
  8
245
  6
CENTER2
 10
49.0
 20
-17.677669529656669
 30
0.0
 11
59.0
 21
-17.677669529655759
 31
0.0
  0
LINE
  5
1EB9
  8
241
  6
CONTINUOUS
 10
62.0
 20
24.999999999997161
 30
0.0
 11
62.0
 21
-25.000000000000011
 31
0.0
  0
LINE
  5
1EBB
  8
240
  6
CONTINUOUS
 10
-90.000000000002686
 20
19.99999999999682
 30
0.0
 11
-90.000000000004633
 21
-20.00000000000729
 31
0.0
  0
LINE
  5
1EC2
  8
240
  6
CONTINUOUS
 10
-90.000000000002686
 20
19.99999999999682
 30
0.0
 11
-80.499999999997243
 21
19.99999999999682
 31
0.0
  0
LINE
  5
1ECC
  8
240
  6
CONTINUOUS
 10
-90.000000000004633
 20
-20.00000000000728
 30
0.0
 11
-80.499999999997243
 21
-20.00000000000728
 31
0.0
  0
LINE
  5
1EDF
  8
241
  6
CONTINUOUS
 10
-42.500000000007269
 20
-20.00000000001598
 30
0.0
 11
-42.500000000007269
 21
19.99999999998505
 31
0.0
  0
LINE
  5
1EE0
  8
241
  6
CONTINUOUS
 10
-45.000000000007283
 20
-20.000000000015842
 30
0.0
 11
-45.00000000000361
 21
19.999999999984912
 31
0.0
  0
LINE
  5
1EE3
  8
241
  6
CONTINUOUS
 10
-29.00000000000729
 20
-20.000000000016762
 30
0.0
 11
-29.00000000000729
 21
19.999999999985828
 31
0.0
  0
LINE
  5
1EE4
  8
241
  6
CONTINUOUS
 10
-31.500000000003642
 20
-20.00000000001662
 30
0.0
 11
-31.500000000003642
 21
19.999999999985679
 31
0.0
  0
POINT
  5
1EF3
  8
0
 10
-10644.58081275664
 20
9504.3545548311158
 30
0.0
1001
GENIUS_GENOLIS_13
1002
{
1000
ENT
1005
0
1005
0
1005
1C3E
1005
0
1002
}
1001
GENIUS_GENOENT_13
1002
{
1000
MYREF
1005
1EF3
1002
}
1002
{
1000
GRP
1005
0
1002
}
1001
GENIUS_GENOBJ-N-CRS_13
1002
{
1000
OWNER
1000
GEN
1002
}
1001
GENIUS_GENODEF_13
1002
{
1000
HIER
1070
    10
1002
}
1002
{
1000
MANEDIT
1070
     1
1002
}
1002
{
1000
NOSEL
1070
     0
1002
}
1002
{
1000
BEHIND
1070
     0
1002
}
1002
{
1000
OTHER
1070
     0
1002
}
1002
{
1000
REACTOR
1002
}
  0
LINE
  5
1EFF
  8
240
  6
CONTINUOUS
 10
-9.0000000000036344
 20
-20.00000000001792
 30
0.0
 11
-9.0000000000036344
 21
-26.500000000010679
 31
0.0
  0
LINE
  5
1F24
  8
244
  6
HIDDEN2
 10
18.999999999996358
 20
10.50000000000273
 30
0.0
 11
42.999999999996341
 21
-10.499999999998179
 31
0.0
  0
LINE
  5
1F25
  8
244
  6
HIDDEN2
 10
18.999999999996358
 20
-10.49999999999727
 30
0.0
 11
42.999999999996341
 21
10.50000000000273
 31
0.0
  0
TEXT
  5
1F26
  8
250
  6
CONTINUOUS
 10
24.73855975934919
 20
-44.529087221478449
 30
0.0
 40
6.0
  1
üá
 50
90.0
  0
TEXT
  5
1F27
  8
250
  6
CONTINUOUS
 10
24.73855975934919
 20
-37.386230078621331
 30
0.0
 40
6.0
  1
21
 50
90.0
  0
ARC
  5
1F2A
  8
240
  6
CONTINUOUS
 10
1.303225372836079
 20
26.000000000004889
 30
0.0
 40
1.0
 50
195.00000000013239
 51
269.99999999999272
1001
GENIUS_GENOBJ-N-FIL_13
1002
{
1000
OWNER
1000
GEN
1002
}
1001
GENIUS_GENODEF_13
1002
{
1000
HIER
1070
     0
1002
}
1002
{
1000
MANEDIT
1070
     0
1002
}
1002
{
1000
NOSEL
1070
     0
1002
}
1002
{
1000
BEHIND
1070
     0
1002
}
1002
{
1000
OTHER
1070
     0
1002
}
1002
{
1000
REACTOR
1002
}
  0
ARC
  5
1F2B
  8
240
  6
CONTINUOUS
 10
1.3032253728366201
 20
-26.000000000004171
 30
0.0
 40
1.0
 50
90.000000000010914
 51
165.00000000018261
1001
GENIUS_GENOBJ-N-FIL_13
1002
{
1000
OWNER
1000
GEN
1002
}
1001
GENIUS_GENODEF_13
1002
{
1000
HIER
1070
     0
1002
}
1002
{
1000
MANEDIT
1070
     0
1002
}
1002
{
1000
NOSEL
1070
     0
1002
}
1002
{
1000
BEHIND
1070
     0
1002
}
1002
{
1000
OTHER
1070
     0
1002
}
1002
{
1000
REACTOR
1002
}
  0
LINE
  5
1FB2
  8
240
  6
CONTINUOUS
 10
-9.0000000000036344
 20
19.999999999986979
 30
0.0
 11
-9.0000000000036344
 21
26.499999999979771
 31
0.0
  0
LINE
  5
209C
  8
247
  6
CONTINUOUS
 10
6.5626933041020843
 20
-11.74999999998734
 30
0.0
 11
6.5626933041021411
 21
-7.1153846156573692
 31
0.0
  0
LINE
  5
209D
  8
247
  6
CONTINUOUS
 10
4.0626933041021411
 20
-10.954893499975279
 30
0.0
 11
6.1626933040181484
 21
-11.557058810044699
 31
0.0
  0
LINE
  5
209E
  8
247
  6
CONTINUOUS
 10
5.0588471502161392
 20
-10.32515140350637
 30
0.0
 11
5.0588471502161392
 21
-11.24053601885438
 31
0.0
  0
ARC
  5
209F
  8
247
  6
CONTINUOUS
 10
4.447412371396239
 20
-10.087263401934139
 30
0.0
 40
0.3876715809326743
 50
72.997889675291987
 51
172.92416621851271
  0
ARC
  5
20A0
  8
247
  6
CONTINUOUS
 10
4.367916435130156
 20
-10.38247755679145
 30
0.0
 40
0.693304796535877
 50
4.7429368522013986
 51
73.849226273266481
1001
GENIUS_GENOBJ-N-FIL_13
1002
{
1000
OWNER
1000
GEN
1002
}
1001
GENIUS_GENODEF_13
1002
{
1000
HIER
1070
     0
1002
}
1002
{
1000
MANEDIT
1070
     0
1002
}
1002
{
1000
NOSEL
1070
     0
1002
}
1002
{
1000
BEHIND
1070
     0
1002
}
1002
{
1000
OTHER
1070
     0
1002
}
1002
{
1000
REACTOR
1002
}
  0
LINE
  5
20A1
  8
247
  6
CONTINUOUS
 10
6.1626933040181484
 20
-10.641674194696691
 30
0.0
 11
6.1626933040181484
 21
-11.557058810044699
 31
0.0
  0
LINE
  5
20A2
  8
247
  6
CONTINUOUS
 10
4.0626933041021411
 20
-10.95489349997529
 30
0.0
 11
4.0626933041021411
 21
-10.03950888462729
 31
0.0
  0
ARC
  5
20A3
  8
247
  6
CONTINUOUS
 10
5.4501102668700119
 20
-10.378306476254171
 30
0.0
 40
0.394857301075386
 50
65.990941652528775
 51
172.2634434590698
  0
ARC
  5
20A4
  8
247
  6
CONTINUOUS
 10
5.4538936314347088
 20
-10.712446610414251
 30
0.0
 40
0.7123241612361686
 50
5.7019851642581454
 51
77.27733843682222
1001
GENIUS_GENOBJ-N-FIL_13
1002
{
1000
OWNER
1000
GEN
1002
}
1001
GENIUS_GENODEF_13
1002
{
1000
HIER
1070
     0
1002
}
1002
{
1000
MANEDIT
1070
     0
1002
}
1002
{
1000
NOSEL
1070
     0
1002
}
1002
{
1000
BEHIND
1070
     0
1002
}
1002
{
1000
OTHER
1070
     0
1002
}
1002
{
1000
REACTOR
1002
}
  0
LINE
  5
20A5
  8
247
  6
CONTINUOUS
 10
6.1626933040181484
 20
-9.6839818870507113
 30
0.0
 11
4.0626933041021411
 21
-9.0818165769813035
 31
0.0
  0
LINE
  5
20A6
  8
247
  6
CONTINUOUS
 10
4.0626933041021411
 20
-7.5856627308952991
 30
0.0
 11
4.0626933041021411
 21
-7.9816783642909188
 31
0.0
  0
LINE
  5
20A7
  8
247
  6
CONTINUOUS
 10
6.1626933040181484
 20
-8.6087396539312984
 30
0.0
 11
6.1626933040181484
 21
-8.1779704231793104
 31
0.0
  0
ARC
  5
20A8
  8
247
  6
CONTINUOUS
 10
5.5209928991855
 20
-7.3818165770572994
 30
0.0
 40
1.576855057639547
 50
202.35948814152749
 51
254.99324854284589
  0
ARC
  5
20A9
  8
247
  6
CONTINUOUS
 10
4.6285121626402761
 20
-7.8475113661205631
 30
0.0
 40
0.6234706797009447
 50
94.994589319075374
 51
155.16632895730319
1001
GENIUS_GENOBJ-N-FIL_13
1002
{
1000
OWNER
1000
GEN
1002
}
1001
GENIUS_GENODEF_13
1002
{
1000
HIER
1070
     0
1002
}
1002
{
1000
MANEDIT
1070
     0
1002
}
1002
{
1000
NOSEL
1070
     0
1002
}
1002
{
1000
BEHIND
1070
     0
1002
}
1002
{
1000
OTHER
1070
     0
1002
}
1002
{
1000
REACTOR
1002
}
  0
ARC
  5
20AA
  8
247
  6
CONTINUOUS
 10
5.2247954260715801
 20
-8.4441839510201149
 30
0.0
 40
0.9749472149106983
 50
15.846096555779839
 51
82.325137004169122
  0
ARC
  5
20AB
  8
247
  6
CONTINUOUS
 10
5.434163706073206
 20
-8.0352116387595558
 30
0.0
 40
0.9271945638692009
 50
249.71360167049701
 51
321.7887456564099
1001
GENIUS_GENOBJ-N-FIL_13
1002
{
1000
OWNER
1000
GEN
1002
}
1001
GENIUS_GENODEF_13
1002
{
1000
HIER
1070
     0
1002
}
1002
{
1000
MANEDIT
1070
     0
1002
}
1002
{
1000
NOSEL
1070
     0
1002
}
1002
{
1000
BEHIND
1070
     0
1002
}
1002
{
1000
OTHER
1070
     0
1002
}
1002
{
1000
REACTOR
1002
}
  0
LINE
  5
20AC
  8
247
  6
CONTINUOUS
 10
5.3550009963581138
 20
-7.9625858078032987
 30
0.0
 11
5.3550009963581138
 21
-7.4779704232073021
 31
0.0
  0
ARC
  5
20AD
  8
247
  6
CONTINUOUS
 10
5.3126933041021411
 20
-11.74999999998734
 30
0.0
 40
1.25
 50
180.0
 51
0.0
  0
LINE
  5
20AE
  8
247
  6
CONTINUOUS
 10
4.0626933041021411
 20
-11.74999999998734
 30
0.0
 11
4.0626933041021411
 21
-11.30384615390134
 31
0.0
  0
ARC
  5
20AF
  8
247
  6
CONTINUOUS
 10
5.3126933041021411
 20
-7.115384615657355
 30
0.0
 40
1.25
 50
0.0
 51
180.0
  0
VIEWPORT
  5
22
 67
     1
  8
0
 10
261.51769911504419
 20
148.5
 30
0.0
 40
523.0353982300885
 41
297.0
 68
     1
 69
     1
1001
ACAD
1000
MVIEW
1002
{
1070
    16
1010
0.0
1020
0.0
1030
0.0
1010
0.0
1020
0.0
1030
1.0
1040
0.0
1040
297.0
1040
261.51769911504419
1040
148.5
1040
50.0
1040
0.0
1040
0.0
1070
     0
1070
   100
1070
     1
1070
     1
1070
     0
1070
     0
1070
     0
1070
     0
1040
0.0
1040
0.0
1040
0.0
1040
1.0
1040
1.0
1040
10.0
1040
10.0
1070
     0
1002
{
1002
}
1002
}
1001
GENIUS_GENODEF_13
1002
{
1000
HIER
1070
     0
1002
}
1002
{
1000
MANEDIT
1070
     0
1002
}
1002
{
1000
NOSEL
1070
     0
1002
}
1002
{
1000
BEHIND
1070
     0
1002
}
1002
{
1000
OTHER
1070
     0
1002
}
1002
{
1000
REACTOR
1002
}
1001
GENIUS_GENOBJ-N-SDF_13
1002
{
1000
OWNER
1000
GEN
1002
}
1001
GENIUS_GENSCREG_15
1000
PF
1040
1.0
1000
DF
1040
1.0
1000
MIN
1011
0.0
1021
0.0
1031
0.0
1021
0.0
1031
0.0
1000
MAX
1011
523.0353982300885
1021
0.0
1031
0.0
1021
297.0
1031
0.0
1000
FLAGS
1070
     4
  0
ENDSEC
  0
EOF
