  0
SECTION
  2
HEADER
  9
$ACADVER
  1
AC1009
  9
$INSBASE
 10
0.0
 20
0.0
 30
0.0
  9
$EXTMIN
 10
-94.151205376666667
 20
-41.929628863818039
 30
0.0
  9
$EXTMAX
 10
92.0
 20
67.522764076409999
 30
0.0
  9
$LIMMIN
 10
0.0
 20
0.0
  9
$LIMMAX
 10
297.0
 20
210.0
  9
$ORTHOMODE
 70
     1
  9
$REGENMODE
 70
     1
  9
$FILLMODE
 70
     1
  9
$QTEXTMODE
 70
     0
  9
$MIRRTEXT
 70
     1
  9
$DRAGMODE
 70
     2
  9
$LTSCALE
 40
10.0
  9
$OSMODE
 70
    39
  9
$ATTMODE
 70
     1
  9
$TEXTSIZE
 40
3.0
  9
$TRACEWID
 40
1.0
  9
$TEXTSTYLE
  7
YOKO
  9
$CLAYER
  8
250
  9
$CELTYPE
  6
BYLAYER
  9
$CECOLOR
 62
   256
  9
$DIMSCALE
 40
1.0
  9
$DIMASZ
 40
2.2299999999999991
  9
$DIMEXO
 40
0.5
  9
$DIMDLI
 40
7.0
  9
$DIMRND
 40
0.0
  9
$DIMDLE
 40
0.0
  9
$DIMEXE
 40
1.0
  9
$DIMTP
 40
0.0
  9
$DIMTM
 40
0.01
  9
$DIMTXT
 40
2.799999999999998
  9
$DIMCEN
 40
0.0
  9
$DIMTSZ
 40
0.0
  9
$DIMTOL
 70
     0
  9
$DIMLIM
 70
     0
  9
$DIMTIH
 70
     0
  9
$DIMTOH
 70
     0
  9
$DIMSE1
 70
     0
  9
$DIMSE2
 70
     0
  9
$DIMTAD
 70
     3
  9
$DIMZIN
 70
     9
  9
$DIMBLK
  1
OPEN
  9
$DIMASO
 70
     1
  9
$DIMSHO
 70
     1
  9
$DIMPOST
  1

  9
$DIMAPOST
  1

  9
$DIMALT
 70
     0
  9
$DIMALTD
 70
     2
  9
$DIMALTF
 40
25.399999999999999
  9
$DIMLFAC
 40
1.0
  9
$DIMTOFL
 70
     1
  9
$DIMTVP
 40
0.0
  9
$DIMTIX
 70
     1
  9
$DIMSOXD
 70
     0
  9
$DIMSAH
 70
     0
  9
$DIMBLK1
  1

  9
$DIMBLK2
  1

  9
$DIMSTYLE
  2
BIGT
  9
$DIMCLRD
 70
   256
  9
$DIMCLRE
 70
   256
  9
$DIMCLRT
 70
    40
  9
$DIMTFAC
 40
1.0
  9
$DIMGAP
 40
1.0
  9
$LUNITS
 70
     2
  9
$LUPREC
 70
     3
  9
$SKETCHINC
 40
1.0
  9
$FILLETRAD
 40
1.0
  9
$AUNITS
 70
     0
  9
$AUPREC
 70
     3
  9
$MENU
  1
.
  9
$ELEVATION
 40
0.0
  9
$PELEVATION
 40
0.0
  9
$THICKNESS
 40
0.0
  9
$LIMCHECK
 70
     0
  9
$BLIPMODE
 70
     0
  9
$CHAMFERA
 40
0.25
  9
$CHAMFERB
 40
0.25
  9
$SKPOLY
 70
     0
  9
$TDCREATE
 40
2455799.6879548961
  9
$TDUPDATE
 40
2457835.702910868
  9
$TDINDWG
 40
0.0424255903
  9
$TDUSRTIMER
 40
0.0424255556
  9
$USRTIMER
 70
     1
  9
$ANGBASE
 50
0.0
  9
$ANGDIR
 70
     0
  9
$PDMODE
 70
     1
  9
$PDSIZE
 40
0.0
  9
$PLINEWID
 40
0.0
  9
$COORDS
 70
     1
  9
$SPLFRAME
 70
     0
  9
$SPLINETYPE
 70
     6
  9
$SPLINESEGS
 70
     4
  9
$ATTDIA
 70
     1
  9
$ATTREQ
 70
     1
  9
$HANDLING
 70
     1
  9
$HANDSEED
  5
2316
  9
$SURFTAB1
 70
     6
  9
$SURFTAB2
 70
     6
  9
$SURFTYPE
 70
     6
  9
$SURFU
 70
     6
  9
$SURFV
 70
     6
  9
$UCSNAME
  2

  9
$UCSORG
 10
0.0
 20
0.0
 30
0.0
  9
$UCSXDIR
 10
1.0
 20
0.0
 30
0.0
  9
$UCSYDIR
 10
0.0
 20
1.0
 30
0.0
  9
$PUCSNAME
  2

  9
$PUCSORG
 10
0.0
 20
0.0
 30
0.0
  9
$PUCSXDIR
 10
1.0
 20
0.0
 30
0.0
  9
$PUCSYDIR
 10
0.0
 20
1.0
 30
0.0
  9
$USERI1
 70
     1
  9
$USERI2
 70
     0
  9
$USERI3
 70
     0
  9
$USERI4
 70
     0
  9
$USERI5
 70
     0
  9
$USERR1
 40
0.0
  9
$USERR2
 40
0.0
  9
$USERR3
 40
0.0
  9
$USERR4
 40
0.0
  9
$USERR5
 40
0.0
  9
$WORLDVIEW
 70
     1
  9
$SHADEDGE
 70
     3
  9
$SHADEDIF
 70
    70
  9
$TILEMODE
 70
     1
  9
$MAXACTVP
 70
    16
  9
$PLIMCHECK
 70
     0
  9
$PEXTMIN
 10
1.0000000000000000E+020
 20
1.0000000000000000E+020
 30
1.0000000000000000E+020
  9
$PEXTMAX
 10
-1.0000000000000000E+020
 20
-1.0000000000000000E+020
 30
-1.0000000000000000E+020
  9
$PLIMMIN
 10
0.0
 20
0.0
  9
$PLIMMAX
 10
420.0
 20
297.0
  9
$UNITMODE
 70
     0
  9
$VISRETAIN
 70
     1
  9
$PLINEGEN
 70
     0
  9
$PSLTSCALE
 70
     1
  0
ENDSEC
  0
SECTION
  2
TABLES
  0
TABLE
  2
VPORT
 70
     1
  0
VPORT
  2
*ACTIVE
 70
     0
 10
0.0
 20
0.0
 11
1.0
 21
1.0
 12
6.2270284530865041
 22
12.06982030902496
 13
0.0
 23
0.0
 14
7.0
 24
7.0
 15
7.0
 25
7.0
 16
0.0
 26
0.0
 36
1.0
 17
0.0
 27
0.0
 37
0.0
 40
118.75866198247989
 41
1.6795646916565889
 42
50.0
 43
0.0
 44
0.0
 50
0.0
 51
0.0
 71
     0
 72
  2000
 73
     1
 74
     0
 75
     0
 76
     0
 77
     0
 78
     0
  0
ENDTAB
  0
TABLE
  2
LTYPE
 70
    16
  0
LTYPE
  2
CONTINUOUS
 70
     0
  3
Solid line
 72
    65
 73
     0
 40
0.0
  0
LTYPE
  2
CENTER2
 70
     0
  3
___ _ ___ _ ___ _ ___ _ ___ _ ___ _ ___ _ ___ _
 72
    65
 73
     4
 40
1.125
 49
0.75
 49
-0.125
 49
0.125
 49
-0.125
  0
LTYPE
  2
HIDDEN2
 70
     0
  3
_ _ _ _ _ _ _ _ _ _ _ _ _ _ _ _ _ _ _ _ _ _ _ _
 72
    65
 73
     2
 40
0.1875
 49
0.125
 49
-0.0625
  0
LTYPE
  2
PHANTOM2
 70
     0
  3
___ _ _ ___ _ _ ___ _ _ ___ _ _ ___ _ _ ___ _ _
 72
    65
 73
     6
 40
1.25
 49
0.625
 49
-0.125
 49
0.125
 49
-0.125
 49
0.125
 49
-0.125
  0
LTYPE
  2
CENTER
 70
     0
  3
____ _ ____ _ ____ _ ____ _ ____ _ ____ _ ____ 
 72
    65
 73
     4
 40
2.0
 49
1.25
 49
-0.25
 49
0.25
 49
-0.25
  0
LTYPE
  2
AMCONSTR
 70
     0
  3
_______________________
 72
    65
 73
     2
 40
9999.0
 49
9999.0
 49
0.0
  0
LTYPE
  2
HIDDEN
 70
     0
  3
Hidden __ __ __ __ __ __ __ __ __ __ __ __ __ _
 72
    65
 73
     2
 40
9.5249999999999986
 49
6.349999999999997
 49
-3.174999999999998
  0
LTYPE
  2
AMZIGZAG2
 70
     0
  3
/\/-/\/-/\/-/\/-/\/-/\/
 72
    65
 73
     2
 40
0.4401
 49
0.0001
 49
-0.4400000000000002
  0
LTYPE
  2
ACANSTGB
 70
     0
  3
__ . . __ . .
 72
    65
 73
     6
 40
0.35433070866
 49
0.15748031496
 49
-0.03937007874
 49
0.03937007874
 49
-0.03937007874
 49
0.03937007874
 49
-0.03937007874
  0
LTYPE
  2
ACANSTGL
 70
     0
  3
_ _ _ _ _
 72
    65
 73
     2
 40
0.11811023622
 49
0.07874015748
 49
-0.03937007874
  0
ENDTAB
  0
TABLE
  2
LAYER
 70
    11
  0
LAYER
  2
0
 70
     0
 62
     7
  6
CONTINUOUS
  0
LAYER
  2
250
 70
     0
 62
     3
  6
CONTINUOUS
  0
LAYER
  2
240
 70
     0
 62
     4
  6
CONTINUOUS
  0
LAYER
  2
DEFPOINTS
 70
     0
 62
     7
  6
CONTINUOUS
  0
LAYER
  2
245
 70
     0
 62
     2
  6
CENTER2
  0
LAYER
  2
241
 70
     0
 62
   211
  6
CONTINUOUS
  0
LAYER
  2
242
 70
     0
 62
     3
  6
CONTINUOUS
  0
LAYER
  2
243
 70
     0
 62
   211
  6
HIDDEN2
  0
LAYER
  2
244
 70
     0
 62
     3
  6
HIDDEN2
  0
LAYER
  2
247
 70
     0
 62
    60
  6
CONTINUOUS
  0
LAYER
  2
AM_5
 70
     0
 62
     3
  6
CONTINUOUS
  0
ENDTAB
  0
TABLE
  2
STYLE
 70
     6
  0
STYLE
  2
STANDARD
 70
     0
 40
0.0
 41
1.0
 50
0.0
 71
     0
 42
3.0
  3
romans.shx
  4
extfont.shx
  0
STYLE
  2
YOKO
 70
     0
 40
0.0
 41
1.0
 50
0.0
 71
     0
 42
3.0
  3
romans.shx
  4
extfont.shx
  0
STYLE
  2
ACANSGDT
 70
     0
 40
0.0
 41
1.0
 50
0.0
 71
     0
 42
3.0
  3
amgdt.shx
  4

  0
ENDTAB
  0
TABLE
  2
VIEW
 70
     0
  0
ENDTAB
  0
TABLE
  2
UCS
 70
     0
  0
ENDTAB
  0
TABLE
  2
APPID
 70
    45
  0
APPID
  2
ACAD
 70
     0
  0
APPID
  2
ACADANNOTATIVE
 70
     0
  0
APPID
  2
GLOBAL
 70
     0
  0
APPID
  2
DETAIL
 70
     0
  0
APPID
  2
GRPNAME
 70
     0
  0
APPID
  2
GPARA
 70
     0
  0
APPID
  2
MCAD_NO_VIS
 70
     0
  0
APPID
  2
ACAD_TEMP_GRAPHIC
 70
     0
  0
APPID
  2
ACATTRIBSERVICES
 70
     0
  0
APPID
  2
GENIUS_GENSCREG_15
 70
     0
  0
APPID
  2
GENIUS_GENODEF_13
 70
     0
  0
APPID
  2
GENIUS_GENOBJ-N-SDF_13
 70
     0
  0
APPID
  2
GENIUS_GENREC_14
 70
     0
  0
APPID
  2
GENIUS_GENOBJ-N-REC_13
 70
     0
  0
APPID
  2
GENIUS_GENDIMSH_14
 70
     0
  0
APPID
  2
GENIUS_GENOBJ-N-DIM_13
 70
     0
  0
APPID
  2
GENIUS_GENDIM_13
 70
     0
  0
APPID
  2
GENIUS_GENDTOL_13
 70
     0
  0
APPID
  2
GENIUS_GENOLIS_13
 70
     0
  0
APPID
  2
GENIUS_GENOENT_13
 70
     0
  0
APPID
  2
GENIUS_GENOBJ-F-FEM_13
 70
     0
  0
APPID
  2
GENIUS_GENOREF_13
 70
     0
  0
APPID
  2
GENIUS_GEFFEM_13
 70
     0
  0
APPID
  2
GENIUS_GEFFEMP_13
 70
     0
  0
APPID
  2
AD_DRAW
 70
     0
  0
APPID
  2
DESIGNERASSEMBLIES
 70
     0
  0
APPID
  2
ACADM_DIM_EDIT
 70
     0
  0
APPID
  2
AMDT_DM_ADJ
 70
     0
  0
APPID
  2
GENIUS_GENOBJ-N-FIL_13
 70
     0
  0
APPID
  2
GENIUS_GENFIL_13
 70
     0
  0
APPID
  2
GENIUS_GENOBJ-N-CHA_13
 70
     0
  0
APPID
  2
GENIUS_GENOBJ-N-CRS_13
 70
     0
  0
APPID
  2
HATCH_TYPE
 70
     0
  0
APPID
  2
HATCH_DISPLAY
 70
     0
  0
APPID
  2
HATCH_DISTANCE
 70
     0
  0
APPID
  2
ACAD_DSTYLE_DIMJAG
 70
     0
  0
APPID
  2
ACAD_DSTYLE_DIMBREAK
 70
     0
  0
APPID
  2
ACAD_NAV_VCDISPLAY
 70
     0
  0
APPID
  2
ACAD_EXEMPT_FROM_CAD_STANDARDS
 70
     0
  0
APPID
  2
ACAD_DSTYLE_DIMINSPECT
 70
     0
  0
APPID
  2
ACAD_MLEADERVER
 70
     0
  0
APPID
  2
ACAD_DSTYLE_DIMARC_LENGTH_
 70
     0
  0
APPID
  2
ACAD_DSTYLE_DIM_LINETYPE
 70
     0
  0
APPID
  2
ACAD_DSTYLE_DIM_EXT1_LINETYPE
 70
     0
  0
APPID
  2
ACAD_DSTYLE_DIM_EXT2_LINETYPE
 70
     0
  0
ENDTAB
  0
TABLE
  2
DIMSTYLE
 70
    10
  0
DIMSTYLE
  2
STANDARD
 70
     0
  3

  4

  5

  6

  7

 40
1.0
 41
0.18
 42
0.0625
 43
0.38
 44
0.18
 45
0.0
 46
0.0
 47
0.0
 48
0.0
140
0.18
141
0.09
142
0.0
143
25.399999999999999
144
1.0
145
0.0
146
1.0
147
0.09
 71
     0
 72
     0
 73
     1
 74
     1
 75
     0
 76
     0
 77
     0
 78
     0
170
     0
171
     2
172
     0
173
     0
174
     0
175
     0
176
     0
177
     0
178
     0
  0
DIMSTYLE
  2
BIGT
 70
     0
  3

  4

  5

  6

  7

 40
1.0
 41
2.2299999999999991
 42
0.5
 43
7.0
 44
1.0
 45
0.0
 46
0.0
 47
0.0
 48
0.01
140
2.799999999999998
141
0.0
142
0.0
143
25.399999999999999
144
1.0
145
0.0
146
1.0
147
1.0
 71
     0
 72
     0
 73
     0
 74
     0
 75
     0
 76
     0
 77
     3
 78
     9
170
     0
171
     2
172
     1
173
     0
174
     1
175
     0
176
   256
177
   256
178
    40
  0
DIMSTYLE
  2
AM_ANSI
 70
     0
  3

  4
mm
  5

  6

  7

 40
1.0
 41
0.12
 42
0.05
 43
0.5
 44
0.1
 45
0.0
 46
0.0
 47
0.1
 48
0.1
140
0.12
141
0.0
142
0.0
143
25.399999999999999
144
1.0
145
0.0
146
0.71
147
0.06
 71
     0
 72
     0
 73
     1
 74
     1
 75
     0
 76
     0
 77
     0
 78
     7
170
     0
171
     2
172
     0
173
     0
174
     0
175
     0
176
   256
177
   256
178
     2
  0
DIMSTYLE
  2
AM_ANSI$3
 70
     0
  3

  4
mm
  5

  6

  7

 40
1.0
 41
0.12
 42
0.05
 43
0.5
 44
0.1
 45
0.0
 46
0.0
 47
0.1
 48
0.1
140
0.12
141
0.0
142
0.0
143
25.399999999999999
144
1.0
145
0.0
146
0.71
147
0.06
 71
     0
 72
     0
 73
     1
 74
     1
 75
     0
 76
     0
 77
     0
 78
     7
170
     0
171
     2
172
     0
173
     0
174
     0
175
     0
176
   256
177
   256
178
     2
  0
DIMSTYLE
  2
AM_ANSI$4
 70
     0
  3

  4
mm
  5

  6

  7

 40
1.0
 41
0.12
 42
0.05
 43
0.5
 44
0.1
 45
0.0
 46
0.0
 47
0.1
 48
0.1
140
0.12
141
0.0
142
0.0
143
25.399999999999999
144
1.0
145
0.0
146
0.71
147
0.06
 71
     0
 72
     0
 73
     1
 74
     1
 75
     0
 76
     0
 77
     0
 78
     7
170
     0
171
     2
172
     0
173
     0
174
     0
175
     0
176
   256
177
   256
178
     2
  0
DIMSTYLE
  2
AM_ANSI$7
 70
     0
  3

  4
mm
  5

  6

  7

 40
1.0
 41
0.12
 42
0.05
 43
0.5
 44
0.1
 45
0.0
 46
0.0
 47
0.1
 48
0.1
140
0.12
141
0.0
142
0.0
143
25.399999999999999
144
1.0
145
0.0
146
0.71
147
0.06
 71
     0
 72
     0
 73
     1
 74
     1
 75
     0
 76
     0
 77
     0
 78
     7
170
     0
171
     2
172
     0
173
     0
174
     0
175
     0
176
   256
177
   256
178
     2
  0
DIMSTYLE
  2
AM_ANSI$SF
 70
     0
  3

  4
mm
  5

  6

  7

 40
1.0
 41
0.12
 42
0.05
 43
0.5
 44
0.1
 45
0.0
 46
0.0
 47
0.1
 48
0.1
140
0.12
141
0.0
142
0.0
143
25.399999999999999
144
1.0
145
0.0
146
0.71
147
0.06
 71
     0
 72
     0
 73
     1
 74
     1
 75
     1
 76
     1
 77
     0
 78
     7
170
     0
171
     2
172
     0
173
     0
174
     0
175
     0
176
   256
177
   256
178
     2
  0
DIMSTYLE
  2
AM_ANSI$SH
 70
     0
  3

  4
mm
  5

  6

  7

 40
1.0
 41
0.12
 42
0.05
 43
0.5
 44
0.1
 45
0.0
 46
0.0
 47
0.1
 48
0.1
140
0.12
141
0.0
142
0.0
143
25.399999999999999
144
1.0
145
0.0
146
0.71
147
0.06
 71
     0
 72
     0
 73
     1
 74
     1
 75
     1
 76
     1
 77
     0
 78
     7
170
     0
171
     2
172
     0
173
     1
174
     0
175
     0
176
   256
177
   256
178
     2
  0
ENDTAB
  0
ENDSEC
  0
SECTION
  2
BLOCKS
  0
BLOCK
  8
0
  2
$MODEL_SPACE
 70
     0
 10
0.0
 20
0.0
 30
0.0
  3
$MODEL_SPACE
  1

  0
ENDBLK
  5
2199
  8
0
  0
BLOCK
 67
     1
  8
0
  2
$PAPER_SPACE
 70
     0
 10
0.0
 20
0.0
 30
0.0
  3
$PAPER_SPACE
  1

  0
ENDBLK
  5
2195
 67
     1
  8
0
  0
BLOCK
  8
0
  2
_OPEN
 70
     0
 10
0.0
 20
0.0
 30
0.0
  3
_OPEN
  1

  0
LINE
  5
1865
  8
0
  6
BYBLOCK
 62
     0
 10
-1.0
 20
0.1666666666666666
 30
0.0
 11
0.0
 21
0.0
 31
0.0
  0
LINE
  5
1866
  8
0
  6
BYBLOCK
 62
     0
 10
-1.0
 20
-0.1666666666666666
 30
0.0
 11
0.0
 21
0.0
 31
0.0
  0
LINE
  5
1867
  8
0
  6
BYBLOCK
 62
     0
 10
0.0
 20
0.0
 30
0.0
 11
-1.0
 21
0.0
 31
0.0
  0
ENDBLK
  5
1868
  8
0
  0
BLOCK
  8
0
  2
_ACMFILLEDHALF
 70
     0
 10
0.0
 20
0.0
 30
0.0
  3
_ACMFILLEDHALF
  1

  0
TRACE
  5
1C14
  8
240
 62
     0
 10
-0.8
 20
0.0
 30
0.0
 11
-1.0
 21
0.166666666
 31
0.0
 12
0.0
 22
0.0
 32
0.0
 13
0.0
 23
0.0
 33
0.0
  0
LINE
  5
1C15
  8
240
 62
     0
 10
-1.0
 20
0.0
 30
0.0
 11
-0.8
 21
0.0
 31
0.0
  0
ENDBLK
  5
1C13
  8
0
  0
ENDSEC
  0
SECTION
  2
ENTITIES
  0
TEXT
  5
1523
  8
241
  6
CONTINUOUS
 10
-90.706710985126833
 20
58.594192647838561
 30
0.0
 40
7.5
  1
MGT36-P1/2-65
  7
YOKO
  0
LINE
  5
1701
  8
250
  6
CONTINUOUS
 10
-0.000000000001819
 20
27.499999999975891
 30
0.0
 11
-0.000000000001818
 21
43.0
 31
0.0
  0
LINE
  5
1702
  8
250
  6
CONTINUOUS
 10
65.000000000001819
 20
15.49999999997998
 30
0.0
 11
65.000000000001819
 21
43.0
 31
0.0
  0
LINE
  5
1703
  8
250
  6
CONTINUOUS
 10
2.2299999999981801
 20
42.0
 30
0.0
 11
62.770000000001822
 21
42.0
 31
0.0
  0
LINE
  5
1708
  8
250
  6
CONTINUOUS
 10
62.0
 20
17.499999999996191
 30
0.0
 11
92.0
 21
17.499999999994529
 31
0.0
  0
LINE
  5
1709
  8
250
  6
CONTINUOUS
 10
62.0
 20
-17.499999999997272
 30
0.0
 11
92.0
 21
-17.499999999997279
 31
0.0
  0
LINE
  5
170A
  8
250
  6
CONTINUOUS
 10
91.0
 20
15.26999999999453
 30
0.0
 11
91.0
 21
-15.26999999999728
 31
0.0
  0
LINE
  5
170E
  8
250
  6
CONTINUOUS
 10
65.499999999995197
 20
8.9999999999979057
 30
0.0
 11
78.715832854528799
 21
8.9999999999979021
 31
0.0
  0
LINE
  5
170F
  8
250
  6
CONTINUOUS
 10
65.499999999995197
 20
-9.0000000000015454
 30
0.0
 11
78.715832854528799
 21
-9.0000000000015472
 31
0.0
  0
LINE
  5
1710
  8
250
  6
CONTINUOUS
 10
77.715832854528799
 20
6.7699999999978999
 30
0.0
 11
77.715832854528799
 21
-6.770000000001545
 31
0.0
  0
LINE
  5
1716
  8
250
  6
CONTINUOUS
 10
20.217333743937392
 20
4.7699999999981788
 30
0.0
 11
20.217333743937392
 21
-4.770000000001815
 31
0.0
  0
LINE
  5
1717
  8
250
  6
CONTINUOUS
 10
20.217333743937381
 20
-41.929628863818039
 30
0.0
 11
20.217333743937392
 21
-7.0000000000018172
 31
0.0
  0
TEXT
  5
171B
  8
250
  6
CONTINUOUS
 10
26.642857142857149
 20
43.0
 30
0.0
 40
6.0
  1
65
  0
LINE
  5
171C
  8
250
  6
CONTINUOUS
 10
62.770000000001822
 20
42.371666666666663
 30
0.0
 11
65.000000000001819
 21
42.0
 31
0.0
  0
LINE
  5
171D
  8
250
  6
CONTINUOUS
 10
62.770000000001822
 20
41.62833333333333
 30
0.0
 11
65.000000000001819
 21
42.0
 31
0.0
  0
LINE
  5
171E
  8
250
  6
CONTINUOUS
 10
65.000000000001819
 20
42.0
 30
0.0
 11
62.770000000001822
 21
42.0
 31
0.0
  0
LINE
  5
171F
  8
250
  6
CONTINUOUS
 10
2.2299999999981801
 20
41.62833333333333
 30
0.0
 11
-0.0000000000018181
 21
42.0
 31
0.0
  0
LINE
  5
1720
  8
250
  6
CONTINUOUS
 10
2.2299999999981801
 20
42.371666666666663
 30
0.0
 11
-0.0000000000018181
 21
42.0
 31
0.0
  0
LINE
  5
1721
  8
250
  6
CONTINUOUS
 10
-0.0000000000018181
 20
42.0
 30
0.0
 11
2.2299999999981801
 21
42.0
 31
0.0
  0
TEXT
  5
1722
  8
250
  6
CONTINUOUS
 10
90.0
 20
-8.142857142858503
 30
0.0
 40
6.0
  1
\U+220535
 50
90.0
  0
LINE
  5
1723
  8
250
  6
CONTINUOUS
 10
91.371666666666684
 20
-15.26999999999728
 30
0.0
 11
91.0
 21
-17.499999999997279
 31
0.0
  0
LINE
  5
1724
  8
250
  6
CONTINUOUS
 10
90.628333333333316
 20
-15.26999999999728
 30
0.0
 11
91.0
 21
-17.499999999997279
 31
0.0
  0
LINE
  5
1725
  8
250
  6
CONTINUOUS
 10
91.0
 20
-17.499999999997279
 30
0.0
 11
91.0
 21
-15.26999999999728
 31
0.0
  0
LINE
  5
1726
  8
250
  6
CONTINUOUS
 10
90.628333333333316
 20
15.26999999999453
 30
0.0
 11
91.0
 21
17.499999999994529
 31
0.0
  0
LINE
  5
1727
  8
250
  6
CONTINUOUS
 10
91.371666666666684
 20
15.26999999999453
 30
0.0
 11
91.0
 21
17.499999999994529
 31
0.0
  0
LINE
  5
1728
  8
250
  6
CONTINUOUS
 10
91.0
 20
17.499999999994529
 30
0.0
 11
91.0
 21
15.26999999999453
 31
0.0
  0
TEXT
  5
1729
  8
250
  6
CONTINUOUS
 10
76.715832854528799
 20
-8.1428571428589542
 30
0.0
 40
6.0
  1
\U+220518
 50
90.0
  0
LINE
  5
172A
  8
250
  6
CONTINUOUS
 10
78.087499521195454
 20
-6.7700000000015459
 30
0.0
 11
77.715832854528799
 21
-9.0000000000015472
 31
0.0
  0
LINE
  5
172B
  8
250
  6
CONTINUOUS
 10
77.344166187862115
 20
-6.7700000000015459
 30
0.0
 11
77.715832854528799
 21
-9.0000000000015472
 31
0.0
  0
LINE
  5
172C
  8
250
  6
CONTINUOUS
 10
77.715832854528799
 20
-9.0000000000015472
 30
0.0
 11
77.715832854528799
 21
-6.7700000000015459
 31
0.0
  0
LINE
  5
172D
  8
250
  6
CONTINUOUS
 10
77.344166187862115
 20
6.769999999997899
 30
0.0
 11
77.715832854528799
 21
8.9999999999979021
 31
0.0
  0
LINE
  5
172E
  8
250
  6
CONTINUOUS
 10
78.087499521195454
 20
6.769999999997899
 30
0.0
 11
77.715832854528799
 21
8.9999999999979021
 31
0.0
  0
LINE
  5
172F
  8
250
  6
CONTINUOUS
 10
77.715832854528799
 20
8.9999999999979021
 30
0.0
 11
77.715832854528799
 21
6.769999999997899
 31
0.0
  0
LINE
  5
1730
  8
250
  6
CONTINUOUS
 10
20.589000410604061
 20
-4.7700000000018159
 30
0.0
 11
20.217333743937392
 21
-7.0000000000018172
 31
0.0
  0
LINE
  5
1731
  8
250
  6
CONTINUOUS
 10
19.845667077270718
 20
-4.7700000000018159
 30
0.0
 11
20.217333743937392
 21
-7.0000000000018172
 31
0.0
  0
LINE
  5
1732
  8
250
  6
CONTINUOUS
 10
20.217333743937392
 20
-7.0000000000018172
 30
0.0
 11
20.217333743937392
 21
-4.7700000000018159
 31
0.0
  0
LINE
  5
1733
  8
250
  6
CONTINUOUS
 10
19.845667077270718
 20
4.7699999999981824
 30
0.0
 11
20.217333743937392
 21
6.999999999998181
 31
0.0
  0
LINE
  5
1734
  8
250
  6
CONTINUOUS
 10
20.589000410604061
 20
4.7699999999981824
 30
0.0
 11
20.217333743937392
 21
6.999999999998181
 31
0.0
  0
LINE
  5
1735
  8
250
  6
CONTINUOUS
 10
20.217333743937392
 20
6.999999999998181
 30
0.0
 11
20.217333743937392
 21
4.7699999999981824
 31
0.0
  0
LINE
  5
1C34
  8
245
  6
CENTER2
 10
-94.151205376666667
 20
0.0
 30
0.0
 11
67.129825564073599
 21
0.0
 31
0.0
  0
LINE
  5
1C37
  8
245
  6
CENTER2
 10
31.999999999996369
 20
3.0
 30
0.0
 11
31.999999999996369
 21
-3.0
 31
0.0
  0
LINE
  5
1C38
  8
240
  6
CONTINUOUS
 10
64.999999999988745
 20
-14.500000000007081
 30
0.0
 11
64.999999999996703
 21
14.49999999999913
 31
0.0
  0
LINE
  5
1C39
  8
240
  6
CONTINUOUS
 10
61.999999999995239
 20
17.499999999996191
 30
0.0
 11
64.999999999996703
 21
14.499999999999121
 31
0.0
1001
GENIUS_GENFIL_13
1070
     0
1040
3.0
1040
3.0
1040
0.25
1040
45.0
1002
{
1002
}
1001
GENIUS_GENOBJ-N-CHA_13
1002
{
1000
OWNER
1000
GEN
1002
}
1001
GENIUS_GENODEF_13
1002
{
1000
HIER
1070
     0
1002
}
1002
{
1000
MANEDIT
1070
     0
1002
}
1002
{
1000
NOSEL
1070
     0
1002
}
1002
{
1000
BEHIND
1070
     0
1002
}
1002
{
1000
OTHER
1070
     0
1002
}
1002
{
1000
REACTOR
1002
}
  0
LINE
  5
1C3C
  8
240
  6
CONTINUOUS
 10
3.312844316069504
 20
17.50000000000389
 30
0.0
 11
61.999999999995239
 21
17.499999999996191
 31
0.0
  0
LINE
  5
1C3F
  8
243
  6
HIDDEN2
 10
22.999999999996358
 20
7.0
 30
0.0
 11
22.999999999996358
 21
-7.0
 31
0.0
  0
LINE
  5
1C40
  8
243
  6
HIDDEN2
 10
22.999999999996358
 20
-7.0
 30
0.0
 11
39.999999999996362
 21
-7.0
 31
0.0
  0
LINE
  5
1C41
  8
243
  6
HIDDEN2
 10
39.999999999996362
 20
9.0
 30
0.0
 11
39.999999999996362
 21
-9.0
 31
0.0
  0
LINE
  5
1C42
  8
243
  6
HIDDEN2
 10
39.999999999996362
 20
-9.0
 30
0.0
 11
64.999999999995197
 21
-9.0
 31
0.0
  0
LINE
  5
1C43
  8
243
  6
HIDDEN2
 10
39.999999999996362
 20
9.0
 30
0.0
 11
64.999999999995197
 21
9.0
 31
0.0
  0
LINE
  5
1C45
  8
243
  6
HIDDEN2
 10
22.999999999996358
 20
7.0
 30
0.0
 11
39.999999999996362
 21
7.0
 31
0.0
  0
CIRCLE
  5
1C47
  8
242
  6
CONTINUOUS
 10
31.999999999996369
 20
0.0
 30
0.0
 40
3.000000000000028
  0
CIRCLE
  5
1C48
  8
241
  6
CONTINUOUS
 10
31.999999999996369
 20
0.0
 30
0.0
 40
2.500000000000028
  0
LINE
  5
1C4D
  8
240
  6
CONTINUOUS
 10
61.999999999995239
 20
-17.499999999996191
 30
0.0
 11
64.999999999988745
 21
-14.500000000007081
 31
0.0
1001
GENIUS_GENFIL_13
1070
     0
1040
3.0
1040
3.0
1040
0.25
1040
45.0
1002
{
1002
}
1001
GENIUS_GENOBJ-N-CHA_13
1002
{
1000
OWNER
1000
GEN
1002
}
1001
GENIUS_GENODEF_13
1002
{
1000
HIER
1070
     0
1002
}
1002
{
1000
MANEDIT
1070
     0
1002
}
1002
{
1000
NOSEL
1070
     0
1002
}
1002
{
1000
BEHIND
1070
     0
1002
}
1002
{
1000
OTHER
1070
     0
1002
}
1002
{
1000
REACTOR
1002
}
  0
LINE
  5
1C50
  8
240
  6
CONTINUOUS
 10
3.3128443160698362
 20
-17.500000000003912
 30
0.0
 11
61.999999999995239
 21
-17.499999999996191
 31
0.0
  0
LINE
  5
1C52
  8
AM_5
 10
22.499999999996358
 20
6.999999999998181
 30
0.0
 11
19.217333743937381
 21
6.999999999998181
 31
0.0
  0
LINE
  5
1C53
  8
AM_5
 10
22.499999999996358
 20
-7.0000000000018172
 30
0.0
 11
19.217333743937381
 21
-7.0000000000018172
 31
0.0
  0
LINE
  5
1C54
  8
245
  6
CENTER2
 10
54.999999999996341
 20
14.295035900786379
 30
0.0
 11
54.999999999996341
 21
10.052395213666379
 31
0.0
  0
LINE
  5
1C55
  8
245
  6
CENTER2
 10
51.999999999996362
 20
12.374368670763941
 30
0.0
 11
57.999999999996341
 21
12.374368670763941
 31
0.0
  0
POLYLINE
  5
1C56
  8
241
  6
CONTINUOUS
 66
     1
 10
0.0
 20
0.0
 30
0.0
 70
     8
  0
VERTEX
  5
1C57
  8
241
  6
CONTINUOUS
 10
52.5
 20
12.2354
 30
0.0
 70
    32
  0
VERTEX
  5
1C58
  8
241
  6
CONTINUOUS
 10
52.503
 20
12.1487
 30
0.0
 70
    32
  0
VERTEX
  5
1C59
  8
241
  6
CONTINUOUS
 10
52.512
 20
12.062099999999999
 30
0.0
 70
    32
  0
VERTEX
  5
1C5A
  8
241
  6
CONTINUOUS
 10
52.527099999999997
 20
11.976000000000001
 30
0.0
 70
    32
  0
VERTEX
  5
1C5B
  8
241
  6
CONTINUOUS
 10
52.548000000000002
 20
11.890499999999999
 30
0.0
 70
    32
  0
VERTEX
  5
1C5C
  8
241
  6
CONTINUOUS
 10
52.5749
 20
11.805899999999999
 30
0.0
 70
    32
  0
VERTEX
  5
1C5D
  8
241
  6
CONTINUOUS
 10
52.607599999999998
 20
11.722300000000001
 30
0.0
 70
    32
  0
VERTEX
  5
1C5E
  8
241
  6
CONTINUOUS
 10
52.646099999999997
 20
11.639900000000001
 30
0.0
 70
    32
  0
VERTEX
  5
1C5F
  8
241
  6
CONTINUOUS
 10
52.690300000000001
 20
11.5589
 30
0.0
 70
    32
  0
VERTEX
  5
1C60
  8
241
  6
CONTINUOUS
 10
52.740000000000002
 20
11.4796
 30
0.0
 70
    32
  0
VERTEX
  5
1C61
  8
241
  6
CONTINUOUS
 10
52.795200000000001
 20
11.402100000000001
 30
0.0
 70
    32
  0
VERTEX
  5
1C62
  8
241
  6
CONTINUOUS
 10
52.855699999999992
 20
11.326599999999999
 30
0.0
 70
    32
  0
VERTEX
  5
1C63
  8
241
  6
CONTINUOUS
 10
52.921300000000002
 20
11.253299999999999
 30
0.0
 70
    32
  0
VERTEX
  5
1C64
  8
241
  6
CONTINUOUS
 10
52.99199999999999
 20
11.182399999999999
 30
0.0
 70
    32
  0
VERTEX
  5
1C65
  8
241
  6
CONTINUOUS
 10
53.067500000000003
 20
11.113899999999999
 30
0.0
 70
    32
  0
VERTEX
  5
1C66
  8
241
  6
CONTINUOUS
 10
53.14759999999999
 20
11.0482
 30
0.0
 70
    32
  0
VERTEX
  5
1C67
  8
241
  6
CONTINUOUS
 10
53.232199999999999
 20
10.9854
 30
0.0
 70
    32
  0
VERTEX
  5
1C68
  8
241
  6
CONTINUOUS
 10
53.321100000000001
 20
10.925599999999999
 30
0.0
 70
    32
  0
VERTEX
  5
1C69
  8
241
  6
CONTINUOUS
 10
53.414000000000001
 20
10.8689
 30
0.0
 70
    32
  0
VERTEX
  5
1C6A
  8
241
  6
CONTINUOUS
 10
53.510800000000003
 20
10.8155
 30
0.0
 70
    32
  0
VERTEX
  5
1C6B
  8
241
  6
CONTINUOUS
 10
53.6111
 20
10.765599999999999
 30
0.0
 70
    32
  0
VERTEX
  5
1C6C
  8
241
  6
CONTINUOUS
 10
53.714700000000001
 20
10.719099999999999
 30
0.0
 70
    32
  0
VERTEX
  5
1C6D
  8
241
  6
CONTINUOUS
 10
53.8215
 20
10.676399999999999
 30
0.0
 70
    32
  0
VERTEX
  5
1C6E
  8
241
  6
CONTINUOUS
 10
53.931100000000001
 20
10.6374
 30
0.0
 70
    32
  0
VERTEX
  5
1C6F
  8
241
  6
CONTINUOUS
 10
54.043300000000002
 20
10.6022
 30
0.0
 70
    32
  0
VERTEX
  5
1C70
  8
241
  6
CONTINUOUS
 10
54.157800000000002
 20
10.571
 30
0.0
 70
    32
  0
VERTEX
  5
1C71
  8
241
  6
CONTINUOUS
 10
54.274299999999997
 20
10.543799999999999
 30
0.0
 70
    32
  0
VERTEX
  5
1C72
  8
241
  6
CONTINUOUS
 10
54.392499999999998
 20
10.5206
 30
0.0
 70
    32
  0
VERTEX
  5
1C73
  8
241
  6
CONTINUOUS
 10
54.512300000000003
 20
10.5016
 30
0.0
 70
    32
  0
VERTEX
  5
1C74
  8
241
  6
CONTINUOUS
 10
54.633200000000002
 20
10.486800000000001
 30
0.0
 70
    32
  0
VERTEX
  5
1C75
  8
241
  6
CONTINUOUS
 10
54.755000000000003
 20
10.4762
 30
0.0
 70
    32
  0
VERTEX
  5
1C76
  8
241
  6
CONTINUOUS
 10
54.877299999999991
 20
10.469799999999999
 30
0.0
 70
    32
  0
VERTEX
  5
1C77
  8
241
  6
CONTINUOUS
 10
55.0
 20
10.467599999999999
 30
0.0
 70
    32
  0
VERTEX
  5
1C78
  8
241
  6
CONTINUOUS
 10
55.122700000000002
 20
10.469799999999999
 30
0.0
 70
    32
  0
VERTEX
  5
1C79
  8
241
  6
CONTINUOUS
 10
55.24499999999999
 20
10.4762
 30
0.0
 70
    32
  0
VERTEX
  5
1C7A
  8
241
  6
CONTINUOUS
 10
55.366799999999998
 20
10.486800000000001
 30
0.0
 70
    32
  0
VERTEX
  5
1C7B
  8
241
  6
CONTINUOUS
 10
55.487699999999997
 20
10.5016
 30
0.0
 70
    32
  0
VERTEX
  5
1C7C
  8
241
  6
CONTINUOUS
 10
55.607500000000002
 20
10.5206
 30
0.0
 70
    32
  0
VERTEX
  5
1C7D
  8
241
  6
CONTINUOUS
 10
55.725700000000003
 20
10.543799999999999
 30
0.0
 70
    32
  0
VERTEX
  5
1C7E
  8
241
  6
CONTINUOUS
 10
55.842199999999998
 20
10.571
 30
0.0
 70
    32
  0
VERTEX
  5
1C7F
  8
241
  6
CONTINUOUS
 10
55.956699999999998
 20
10.6022
 30
0.0
 70
    32
  0
VERTEX
  5
1C80
  8
241
  6
CONTINUOUS
 10
56.068899999999992
 20
10.6374
 30
0.0
 70
    32
  0
VERTEX
  5
1C81
  8
241
  6
CONTINUOUS
 10
56.1785
 20
10.676399999999999
 30
0.0
 70
    32
  0
VERTEX
  5
1C82
  8
241
  6
CONTINUOUS
 10
56.285299999999999
 20
10.719099999999999
 30
0.0
 70
    32
  0
VERTEX
  5
1C83
  8
241
  6
CONTINUOUS
 10
56.388899999999992
 20
10.765599999999999
 30
0.0
 70
    32
  0
VERTEX
  5
1C84
  8
241
  6
CONTINUOUS
 10
56.489199999999997
 20
10.8155
 30
0.0
 70
    32
  0
VERTEX
  5
1C85
  8
241
  6
CONTINUOUS
 10
56.585999999999991
 20
10.8689
 30
0.0
 70
    32
  0
VERTEX
  5
1C86
  8
241
  6
CONTINUOUS
 10
56.678899999999992
 20
10.925599999999999
 30
0.0
 70
    32
  0
VERTEX
  5
1C87
  8
241
  6
CONTINUOUS
 10
56.767800000000001
 20
10.9854
 30
0.0
 70
    32
  0
VERTEX
  5
1C88
  8
241
  6
CONTINUOUS
 10
56.852400000000003
 20
11.0482
 30
0.0
 70
    32
  0
VERTEX
  5
1C89
  8
241
  6
CONTINUOUS
 10
56.93249999999999
 20
11.113899999999999
 30
0.0
 70
    32
  0
VERTEX
  5
1C8A
  8
241
  6
CONTINUOUS
 10
57.008000000000003
 20
11.182399999999999
 30
0.0
 70
    32
  0
VERTEX
  5
1C8B
  8
241
  6
CONTINUOUS
 10
57.078699999999991
 20
11.253299999999999
 30
0.0
 70
    32
  0
VERTEX
  5
1C8C
  8
241
  6
CONTINUOUS
 10
57.144300000000001
 20
11.326599999999999
 30
0.0
 70
    32
  0
VERTEX
  5
1C8D
  8
241
  6
CONTINUOUS
 10
57.204799999999999
 20
11.402100000000001
 30
0.0
 70
    32
  0
VERTEX
  5
1C8E
  8
241
  6
CONTINUOUS
 10
57.259999999999991
 20
11.4796
 30
0.0
 70
    32
  0
VERTEX
  5
1C8F
  8
241
  6
CONTINUOUS
 10
57.309699999999999
 20
11.5589
 30
0.0
 70
    32
  0
VERTEX
  5
1C90
  8
241
  6
CONTINUOUS
 10
57.353900000000003
 20
11.639900000000001
 30
0.0
 70
    32
  0
VERTEX
  5
1C91
  8
241
  6
CONTINUOUS
 10
57.392400000000002
 20
11.722300000000001
 30
0.0
 70
    32
  0
VERTEX
  5
1C92
  8
241
  6
CONTINUOUS
 10
57.4251
 20
11.805899999999999
 30
0.0
 70
    32
  0
VERTEX
  5
1C93
  8
241
  6
CONTINUOUS
 10
57.451999999999998
 20
11.890499999999999
 30
0.0
 70
    32
  0
VERTEX
  5
1C94
  8
241
  6
CONTINUOUS
 10
57.472900000000003
 20
11.976000000000001
 30
0.0
 70
    32
  0
VERTEX
  5
1C95
  8
241
  6
CONTINUOUS
 10
57.488
 20
12.062099999999999
 30
0.0
 70
    32
  0
VERTEX
  5
1C96
  8
241
  6
CONTINUOUS
 10
57.497
 20
12.1487
 30
0.0
 70
    32
  0
VERTEX
  5
1C97
  8
241
  6
CONTINUOUS
 10
57.5
 20
12.2354
 30
0.0
 70
    32
  0
VERTEX
  5
1C98
  8
241
  6
CONTINUOUS
 10
57.497
 20
12.322100000000001
 30
0.0
 70
    32
  0
VERTEX
  5
1C99
  8
241
  6
CONTINUOUS
 10
57.488
 20
12.4087
 30
0.0
 70
    32
  0
VERTEX
  5
1C9A
  8
241
  6
CONTINUOUS
 10
57.472900000000003
 20
12.4948
 30
0.0
 70
    32
  0
VERTEX
  5
1C9B
  8
241
  6
CONTINUOUS
 10
57.451999999999998
 20
12.580299999999999
 30
0.0
 70
    32
  0
VERTEX
  5
1C9C
  8
241
  6
CONTINUOUS
 10
57.4251
 20
12.664899999999999
 30
0.0
 70
    32
  0
VERTEX
  5
1C9D
  8
241
  6
CONTINUOUS
 10
57.392400000000002
 20
12.7486
 30
0.0
 70
    32
  0
VERTEX
  5
1C9E
  8
241
  6
CONTINUOUS
 10
57.353900000000003
 20
12.831
 30
0.0
 70
    32
  0
VERTEX
  5
1C9F
  8
241
  6
CONTINUOUS
 10
57.309699999999999
 20
12.911899999999999
 30
0.0
 70
    32
  0
VERTEX
  5
1CA0
  8
241
  6
CONTINUOUS
 10
57.259999999999991
 20
12.991199999999999
 30
0.0
 70
    32
  0
VERTEX
  5
1CA1
  8
241
  6
CONTINUOUS
 10
57.204799999999999
 20
13.0687
 30
0.0
 70
    32
  0
VERTEX
  5
1CA2
  8
241
  6
CONTINUOUS
 10
57.144300000000001
 20
13.1442
 30
0.0
 70
    32
  0
VERTEX
  5
1CA3
  8
241
  6
CONTINUOUS
 10
57.078699999999991
 20
13.217499999999999
 30
0.0
 70
    32
  0
VERTEX
  5
1CA4
  8
241
  6
CONTINUOUS
 10
57.008000000000003
 20
13.288500000000001
 30
0.0
 70
    32
  0
VERTEX
  5
1CA5
  8
241
  6
CONTINUOUS
 10
56.93249999999999
 20
13.3569
 30
0.0
 70
    32
  0
VERTEX
  5
1CA6
  8
241
  6
CONTINUOUS
 10
56.852400000000003
 20
13.422599999999999
 30
0.0
 70
    32
  0
VERTEX
  5
1CA7
  8
241
  6
CONTINUOUS
 10
56.767800000000001
 20
13.4854
 30
0.0
 70
    32
  0
VERTEX
  5
1CA8
  8
241
  6
CONTINUOUS
 10
56.678899999999992
 20
13.545199999999999
 30
0.0
 70
    32
  0
VERTEX
  5
1CA9
  8
241
  6
CONTINUOUS
 10
56.585999999999991
 20
13.601900000000001
 30
0.0
 70
    32
  0
VERTEX
  5
1CAA
  8
241
  6
CONTINUOUS
 10
56.489199999999997
 20
13.6553
 30
0.0
 70
    32
  0
VERTEX
  5
1CAB
  8
241
  6
CONTINUOUS
 10
56.388899999999992
 20
13.705299999999999
 30
0.0
 70
    32
  0
VERTEX
  5
1CAC
  8
241
  6
CONTINUOUS
 10
56.285299999999999
 20
13.7517
 30
0.0
 70
    32
  0
VERTEX
  5
1CAD
  8
241
  6
CONTINUOUS
 10
56.1785
 20
13.7944
 30
0.0
 70
    32
  0
VERTEX
  5
1CAE
  8
241
  6
CONTINUOUS
 10
56.068899999999992
 20
13.833500000000001
 30
0.0
 70
    32
  0
VERTEX
  5
1CAF
  8
241
  6
CONTINUOUS
 10
55.956699999999998
 20
13.868600000000001
 30
0.0
 70
    32
  0
VERTEX
  5
1CB0
  8
241
  6
CONTINUOUS
 10
55.842199999999998
 20
13.899800000000001
 30
0.0
 70
    32
  0
VERTEX
  5
1CB1
  8
241
  6
CONTINUOUS
 10
55.725700000000003
 20
13.927099999999999
 30
0.0
 70
    32
  0
VERTEX
  5
1CB2
  8
241
  6
CONTINUOUS
 10
55.607500000000002
 20
13.950200000000001
 30
0.0
 70
    32
  0
VERTEX
  5
1CB3
  8
241
  6
CONTINUOUS
 10
55.487699999999997
 20
13.969200000000001
 30
0.0
 70
    32
  0
VERTEX
  5
1CB4
  8
241
  6
CONTINUOUS
 10
55.366799999999998
 20
13.984
 30
0.0
 70
    32
  0
VERTEX
  5
1CB5
  8
241
  6
CONTINUOUS
 10
55.24499999999999
 20
13.9947
 30
0.0
 70
    32
  0
VERTEX
  5
1CB6
  8
241
  6
CONTINUOUS
 10
55.122700000000002
 20
14.000999999999999
 30
0.0
 70
    32
  0
VERTEX
  5
1CB7
  8
241
  6
CONTINUOUS
 10
55.0
 20
14.0032
 30
0.0
 70
    32
  0
VERTEX
  5
1CB8
  8
241
  6
CONTINUOUS
 10
54.877299999999991
 20
14.000999999999999
 30
0.0
 70
    32
  0
VERTEX
  5
1CB9
  8
241
  6
CONTINUOUS
 10
54.755000000000003
 20
13.9947
 30
0.0
 70
    32
  0
VERTEX
  5
1CBA
  8
241
  6
CONTINUOUS
 10
54.633200000000002
 20
13.984
 30
0.0
 70
    32
  0
VERTEX
  5
1CBB
  8
241
  6
CONTINUOUS
 10
54.512300000000003
 20
13.969200000000001
 30
0.0
 70
    32
  0
VERTEX
  5
1CBC
  8
241
  6
CONTINUOUS
 10
54.392499999999998
 20
13.950200000000001
 30
0.0
 70
    32
  0
VERTEX
  5
1CBD
  8
241
  6
CONTINUOUS
 10
54.274299999999997
 20
13.927099999999999
 30
0.0
 70
    32
  0
VERTEX
  5
1CBE
  8
241
  6
CONTINUOUS
 10
54.157800000000002
 20
13.899800000000001
 30
0.0
 70
    32
  0
VERTEX
  5
1CBF
  8
241
  6
CONTINUOUS
 10
54.043300000000002
 20
13.868600000000001
 30
0.0
 70
    32
  0
VERTEX
  5
1CC0
  8
241
  6
CONTINUOUS
 10
53.931100000000001
 20
13.833500000000001
 30
0.0
 70
    32
  0
VERTEX
  5
1CC1
  8
241
  6
CONTINUOUS
 10
53.8215
 20
13.7944
 30
0.0
 70
    32
  0
VERTEX
  5
1CC2
  8
241
  6
CONTINUOUS
 10
53.714700000000001
 20
13.7517
 30
0.0
 70
    32
  0
VERTEX
  5
1CC3
  8
241
  6
CONTINUOUS
 10
53.6111
 20
13.705299999999999
 30
0.0
 70
    32
  0
VERTEX
  5
1CC4
  8
241
  6
CONTINUOUS
 10
53.510800000000003
 20
13.6553
 30
0.0
 70
    32
  0
VERTEX
  5
1CC5
  8
241
  6
CONTINUOUS
 10
53.414000000000001
 20
13.601900000000001
 30
0.0
 70
    32
  0
VERTEX
  5
1CC6
  8
241
  6
CONTINUOUS
 10
53.321100000000001
 20
13.545199999999999
 30
0.0
 70
    32
  0
VERTEX
  5
1CC7
  8
241
  6
CONTINUOUS
 10
53.232199999999999
 20
13.4854
 30
0.0
 70
    32
  0
VERTEX
  5
1CC8
  8
241
  6
CONTINUOUS
 10
53.14759999999999
 20
13.422599999999999
 30
0.0
 70
    32
  0
VERTEX
  5
1CC9
  8
241
  6
CONTINUOUS
 10
53.067500000000003
 20
13.3569
 30
0.0
 70
    32
  0
VERTEX
  5
1CCA
  8
241
  6
CONTINUOUS
 10
52.99199999999999
 20
13.288500000000001
 30
0.0
 70
    32
  0
VERTEX
  5
1CCB
  8
241
  6
CONTINUOUS
 10
52.921300000000002
 20
13.217499999999999
 30
0.0
 70
    32
  0
VERTEX
  5
1CCC
  8
241
  6
CONTINUOUS
 10
52.855699999999992
 20
13.1442
 30
0.0
 70
    32
  0
VERTEX
  5
1CCD
  8
241
  6
CONTINUOUS
 10
52.795200000000001
 20
13.0687
 30
0.0
 70
    32
  0
VERTEX
  5
1CCE
  8
241
  6
CONTINUOUS
 10
52.740000000000002
 20
12.991199999999999
 30
0.0
 70
    32
  0
VERTEX
  5
1CCF
  8
241
  6
CONTINUOUS
 10
52.690300000000001
 20
12.911899999999999
 30
0.0
 70
    32
  0
VERTEX
  5
1CD0
  8
241
  6
CONTINUOUS
 10
52.646099999999997
 20
12.831
 30
0.0
 70
    32
  0
VERTEX
  5
1CD1
  8
241
  6
CONTINUOUS
 10
52.607599999999998
 20
12.7486
 30
0.0
 70
    32
  0
VERTEX
  5
1CD2
  8
241
  6
CONTINUOUS
 10
52.5749
 20
12.664899999999999
 30
0.0
 70
    32
  0
VERTEX
  5
1CD3
  8
241
  6
CONTINUOUS
 10
52.548000000000002
 20
12.580299999999999
 30
0.0
 70
    32
  0
VERTEX
  5
1CD4
  8
241
  6
CONTINUOUS
 10
52.527099999999997
 20
12.4948
 30
0.0
 70
    32
  0
VERTEX
  5
1CD5
  8
241
  6
CONTINUOUS
 10
52.512
 20
12.4087
 30
0.0
 70
    32
  0
VERTEX
  5
1CD6
  8
241
  6
CONTINUOUS
 10
52.503
 20
12.322100000000001
 30
0.0
 70
    32
  0
VERTEX
  5
1CD7
  8
241
  6
CONTINUOUS
 10
52.5
 20
12.2354
 30
0.0
 70
    32
  0
SEQEND
  5
1CD8
  8
241
  6
CONTINUOUS
  0
POLYLINE
  5
1CD9
  8
242
  6
CONTINUOUS
 66
     1
 10
0.0
 20
0.0
 30
0.0
 70
     8
  0
VERTEX
  5
1CDA
  8
242
  6
CONTINUOUS
 10
52.0
 20
12.1737
 30
0.0
 70
    32
  0
VERTEX
  5
1CDB
  8
242
  6
CONTINUOUS
 10
52.003599999999992
 20
12.069599999999999
 30
0.0
 70
    32
  0
VERTEX
  5
1CDC
  8
242
  6
CONTINUOUS
 10
52.014400000000002
 20
11.9658
 30
0.0
 70
    32
  0
VERTEX
  5
1CDD
  8
242
  6
CONTINUOUS
 10
52.032499999999999
 20
11.862500000000001
 30
0.0
 70
    32
  0
VERTEX
  5
1CDE
  8
242
  6
CONTINUOUS
 10
52.057600000000001
 20
11.7599
 30
0.0
 70
    32
  0
VERTEX
  5
1CDF
  8
242
  6
CONTINUOUS
 10
52.0899
 20
11.658300000000001
 30
0.0
 70
    32
  0
VERTEX
  5
1CE0
  8
242
  6
CONTINUOUS
 10
52.129199999999997
 20
11.5579
 30
0.0
 70
    32
  0
VERTEX
  5
1CE1
  8
242
  6
CONTINUOUS
 10
52.175400000000003
 20
11.459099999999999
 30
0.0
 70
    32
  0
VERTEX
  5
1CE2
  8
242
  6
CONTINUOUS
 10
52.228400000000001
 20
11.3619
 30
0.0
 70
    32
  0
VERTEX
  5
1CE3
  8
242
  6
CONTINUOUS
 10
52.28799999999999
 20
11.2667
 30
0.0
 70
    32
  0
VERTEX
  5
1CE4
  8
242
  6
CONTINUOUS
 10
52.354199999999999
 20
11.1737
 30
0.0
 70
    32
  0
VERTEX
  5
1CE5
  8
242
  6
CONTINUOUS
 10
52.4268
 20
11.0831
 30
0.0
 70
    32
  0
VERTEX
  5
1CE6
  8
242
  6
CONTINUOUS
 10
52.505600000000001
 20
10.995200000000001
 30
0.0
 70
    32
  0
VERTEX
  5
1CE7
  8
242
  6
CONTINUOUS
 10
52.590400000000002
 20
10.91
 30
0.0
 70
    32
  0
VERTEX
  5
1CE8
  8
242
  6
CONTINUOUS
 10
52.680999999999997
 20
10.827999999999999
 30
0.0
 70
    32
  0
VERTEX
  5
1CE9
  8
242
  6
CONTINUOUS
 10
52.77709999999999
 20
10.7491
 30
0.0
 70
    32
  0
VERTEX
  5
1CEA
  8
242
  6
CONTINUOUS
 10
52.878700000000002
 20
10.6737
 30
0.0
 70
    32
  0
VERTEX
  5
1CEB
  8
242
  6
CONTINUOUS
 10
52.985300000000002
 20
10.601900000000001
 30
0.0
 70
    32
  0
VERTEX
  5
1CEC
  8
242
  6
CONTINUOUS
 10
53.096800000000002
 20
10.533899999999999
 30
0.0
 70
    32
  0
VERTEX
  5
1CED
  8
242
  6
CONTINUOUS
 10
53.212899999999998
 20
10.469900000000001
 30
0.0
 70
    32
  0
VERTEX
  5
1CEE
  8
242
  6
CONTINUOUS
 10
53.333300000000001
 20
10.4099
 30
0.0
 70
    32
  0
VERTEX
  5
1CEF
  8
242
  6
CONTINUOUS
 10
53.457700000000003
 20
10.354200000000001
 30
0.0
 70
    32
  0
VERTEX
  5
1CF0
  8
242
  6
CONTINUOUS
 10
53.585799999999992
 20
10.302899999999999
 30
0.0
 70
    32
  0
VERTEX
  5
1CF1
  8
242
  6
CONTINUOUS
 10
53.717300000000002
 20
10.2561
 30
0.0
 70
    32
  0
VERTEX
  5
1CF2
  8
242
  6
CONTINUOUS
 10
53.851900000000001
 20
10.213900000000001
 30
0.0
 70
    32
  0
VERTEX
  5
1CF3
  8
242
  6
CONTINUOUS
 10
53.9893
 20
10.176399999999999
 30
0.0
 70
    32
  0
VERTEX
  5
1CF4
  8
242
  6
CONTINUOUS
 10
54.129100000000001
 20
10.143700000000001
 30
0.0
 70
    32
  0
VERTEX
  5
1CF5
  8
242
  6
CONTINUOUS
 10
54.271099999999983
 20
10.116
 30
0.0
 70
    32
  0
VERTEX
  5
1CF6
  8
242
  6
CONTINUOUS
 10
54.414700000000003
 20
10.0932
 30
0.0
 70
    32
  0
VERTEX
  5
1CF7
  8
242
  6
CONTINUOUS
 10
54.559800000000003
 20
10.0754
 30
0.0
 70
    32
  0
VERTEX
  5
1CF8
  8
242
  6
CONTINUOUS
 10
54.7059
 20
10.0626
 30
0.0
 70
    32
  0
VERTEX
  5
1CF9
  8
242
  6
CONTINUOUS
 10
54.852800000000002
 20
10.055
 30
0.0
 70
    32
  0
VERTEX
  5
1CFA
  8
242
  6
CONTINUOUS
 10
55.0
 20
10.0524
 30
0.0
 70
    32
  0
VERTEX
  5
1CFB
  8
242
  6
CONTINUOUS
 10
55.147199999999998
 20
10.055
 30
0.0
 70
    32
  0
VERTEX
  5
1CFC
  8
242
  6
CONTINUOUS
 10
55.2941
 20
10.0626
 30
0.0
 70
    32
  0
VERTEX
  5
1CFD
  8
242
  6
CONTINUOUS
 10
55.44019999999999
 20
10.0754
 30
0.0
 70
    32
  0
VERTEX
  5
1CFE
  8
242
  6
CONTINUOUS
 10
55.585299999999997
 20
10.0932
 30
0.0
 70
    32
  0
VERTEX
  5
1CFF
  8
242
  6
CONTINUOUS
 10
55.72890000000001
 20
10.116
 30
0.0
 70
    32
  0
VERTEX
  5
1D00
  8
242
  6
CONTINUOUS
 10
55.870899999999992
 20
10.143700000000001
 30
0.0
 70
    32
  0
VERTEX
  5
1D01
  8
242
  6
CONTINUOUS
 10
56.010699999999993
 20
10.176399999999999
 30
0.0
 70
    32
  0
VERTEX
  5
1D02
  8
242
  6
CONTINUOUS
 10
56.148099999999999
 20
10.213900000000001
 30
0.0
 70
    32
  0
VERTEX
  5
1D03
  8
242
  6
CONTINUOUS
 10
56.282699999999998
 20
10.2561
 30
0.0
 70
    32
  0
VERTEX
  5
1D04
  8
242
  6
CONTINUOUS
 10
56.414200000000001
 20
10.302899999999999
 30
0.0
 70
    32
  0
VERTEX
  5
1D05
  8
242
  6
CONTINUOUS
 10
56.542299999999997
 20
10.354200000000001
 30
0.0
 70
    32
  0
VERTEX
  5
1D06
  8
242
  6
CONTINUOUS
 10
56.666699999999992
 20
10.4099
 30
0.0
 70
    32
  0
VERTEX
  5
1D07
  8
242
  6
CONTINUOUS
 10
56.787100000000002
 20
10.469900000000001
 30
0.0
 70
    32
  0
VERTEX
  5
1D08
  8
242
  6
CONTINUOUS
 10
56.903199999999991
 20
10.533899999999999
 30
0.0
 70
    32
  0
VERTEX
  5
1D09
  8
242
  6
CONTINUOUS
 10
57.014699999999998
 20
10.601900000000001
 30
0.0
 70
    32
  0
VERTEX
  5
1D0A
  8
242
  6
CONTINUOUS
 10
57.121299999999998
 20
10.6737
 30
0.0
 70
    32
  0
VERTEX
  5
1D0B
  8
242
  6
CONTINUOUS
 10
57.222900000000003
 20
10.7491
 30
0.0
 70
    32
  0
VERTEX
  5
1D0C
  8
242
  6
CONTINUOUS
 10
57.319000000000003
 20
10.827999999999999
 30
0.0
 70
    32
  0
VERTEX
  5
1D0D
  8
242
  6
CONTINUOUS
 10
57.409599999999998
 20
10.91
 30
0.0
 70
    32
  0
VERTEX
  5
1D0E
  8
242
  6
CONTINUOUS
 10
57.494399999999992
 20
10.995200000000001
 30
0.0
 70
    32
  0
VERTEX
  5
1D0F
  8
242
  6
CONTINUOUS
 10
57.573199999999993
 20
11.0831
 30
0.0
 70
    32
  0
VERTEX
  5
1D10
  8
242
  6
CONTINUOUS
 10
57.645800000000001
 20
11.1737
 30
0.0
 70
    32
  0
VERTEX
  5
1D11
  8
242
  6
CONTINUOUS
 10
57.712000000000003
 20
11.2667
 30
0.0
 70
    32
  0
VERTEX
  5
1D12
  8
242
  6
CONTINUOUS
 10
57.771599999999999
 20
11.3619
 30
0.0
 70
    32
  0
VERTEX
  5
1D13
  8
242
  6
CONTINUOUS
 10
57.824599999999997
 20
11.459099999999999
 30
0.0
 70
    32
  0
VERTEX
  5
1D14
  8
242
  6
CONTINUOUS
 10
57.870800000000003
 20
11.5579
 30
0.0
 70
    32
  0
VERTEX
  5
1D15
  8
242
  6
CONTINUOUS
 10
57.910099999999993
 20
11.658300000000001
 30
0.0
 70
    32
  0
VERTEX
  5
1D16
  8
242
  6
CONTINUOUS
 10
57.942399999999999
 20
11.7599
 30
0.0
 70
    32
  0
VERTEX
  5
1D17
  8
242
  6
CONTINUOUS
 10
57.967500000000001
 20
11.862500000000001
 30
0.0
 70
    32
  0
VERTEX
  5
1D18
  8
242
  6
CONTINUOUS
 10
57.985599999999998
 20
11.9658
 30
0.0
 70
    32
  0
VERTEX
  5
1D19
  8
242
  6
CONTINUOUS
 10
57.996400000000001
 20
12.069599999999999
 30
0.0
 70
    32
  0
VERTEX
  5
1D1A
  8
242
  6
CONTINUOUS
 10
58.0
 20
12.1737
 30
0.0
 70
    32
  0
VERTEX
  5
1D1B
  8
242
  6
CONTINUOUS
 10
57.996400000000001
 20
12.277799999999999
 30
0.0
 70
    32
  0
VERTEX
  5
1D1C
  8
242
  6
CONTINUOUS
 10
57.985599999999998
 20
12.381600000000001
 30
0.0
 70
    32
  0
VERTEX
  5
1D1D
  8
242
  6
CONTINUOUS
 10
57.967500000000001
 20
12.484999999999999
 30
0.0
 70
    32
  0
VERTEX
  5
1D1E
  8
242
  6
CONTINUOUS
 10
57.942399999999999
 20
12.5876
 30
0.0
 70
    32
  0
VERTEX
  5
1D1F
  8
242
  6
CONTINUOUS
 10
57.910099999999993
 20
12.6892
 30
0.0
 70
    32
  0
VERTEX
  5
1D20
  8
242
  6
CONTINUOUS
 10
57.870800000000003
 20
12.7895
 30
0.0
 70
    32
  0
VERTEX
  5
1D21
  8
242
  6
CONTINUOUS
 10
57.824599999999997
 20
12.888400000000001
 30
0.0
 70
    32
  0
VERTEX
  5
1D22
  8
242
  6
CONTINUOUS
 10
57.771599999999999
 20
12.9855
 30
0.0
 70
    32
  0
VERTEX
  5
1D23
  8
242
  6
CONTINUOUS
 10
57.712000000000003
 20
13.0807
 30
0.0
 70
    32
  0
VERTEX
  5
1D24
  8
242
  6
CONTINUOUS
 10
57.645800000000001
 20
13.1737
 30
0.0
 70
    32
  0
VERTEX
  5
1D25
  8
242
  6
CONTINUOUS
 10
57.573199999999993
 20
13.2643
 30
0.0
 70
    32
  0
VERTEX
  5
1D26
  8
242
  6
CONTINUOUS
 10
57.494399999999992
 20
13.3523
 30
0.0
 70
    32
  0
VERTEX
  5
1D27
  8
242
  6
CONTINUOUS
 10
57.409599999999998
 20
13.4374
 30
0.0
 70
    32
  0
VERTEX
  5
1D28
  8
242
  6
CONTINUOUS
 10
57.319000000000003
 20
13.519500000000001
 30
0.0
 70
    32
  0
VERTEX
  5
1D29
  8
242
  6
CONTINUOUS
 10
57.222900000000003
 20
13.5983
 30
0.0
 70
    32
  0
VERTEX
  5
1D2A
  8
242
  6
CONTINUOUS
 10
57.121299999999998
 20
13.6737
 30
0.0
 70
    32
  0
VERTEX
  5
1D2B
  8
242
  6
CONTINUOUS
 10
57.014699999999998
 20
13.7455
 30
0.0
 70
    32
  0
VERTEX
  5
1D2C
  8
242
  6
CONTINUOUS
 10
56.903199999999991
 20
13.813499999999999
 30
0.0
 70
    32
  0
VERTEX
  5
1D2D
  8
242
  6
CONTINUOUS
 10
56.787100000000002
 20
13.877599999999999
 30
0.0
 70
    32
  0
VERTEX
  5
1D2E
  8
242
  6
CONTINUOUS
 10
56.666699999999992
 20
13.9375
 30
0.0
 70
    32
  0
VERTEX
  5
1D2F
  8
242
  6
CONTINUOUS
 10
56.542299999999997
 20
13.9932
 30
0.0
 70
    32
  0
VERTEX
  5
1D30
  8
242
  6
CONTINUOUS
 10
56.414200000000001
 20
14.044600000000001
 30
0.0
 70
    32
  0
VERTEX
  5
1D31
  8
242
  6
CONTINUOUS
 10
56.282699999999998
 20
14.0914
 30
0.0
 70
    32
  0
VERTEX
  5
1D32
  8
242
  6
CONTINUOUS
 10
56.148099999999999
 20
14.133599999999999
 30
0.0
 70
    32
  0
VERTEX
  5
1D33
  8
242
  6
CONTINUOUS
 10
56.010699999999993
 20
14.170999999999999
 30
0.0
 70
    32
  0
VERTEX
  5
1D34
  8
242
  6
CONTINUOUS
 10
55.870899999999992
 20
14.2037
 30
0.0
 70
    32
  0
VERTEX
  5
1D35
  8
242
  6
CONTINUOUS
 10
55.72890000000001
 20
14.2315
 30
0.0
 70
    32
  0
VERTEX
  5
1D36
  8
242
  6
CONTINUOUS
 10
55.585299999999997
 20
14.254300000000001
 30
0.0
 70
    32
  0
VERTEX
  5
1D37
  8
242
  6
CONTINUOUS
 10
55.44019999999999
 20
14.2721
 30
0.0
 70
    32
  0
VERTEX
  5
1D38
  8
242
  6
CONTINUOUS
 10
55.2941
 20
14.284800000000001
 30
0.0
 70
    32
  0
VERTEX
  5
1D39
  8
242
  6
CONTINUOUS
 10
55.147199999999998
 20
14.2925
 30
0.0
 70
    32
  0
VERTEX
  5
1D3A
  8
242
  6
CONTINUOUS
 10
55.0
 20
14.295
 30
0.0
 70
    32
  0
VERTEX
  5
1D3B
  8
242
  6
CONTINUOUS
 10
54.852800000000002
 20
14.2925
 30
0.0
 70
    32
  0
VERTEX
  5
1D3C
  8
242
  6
CONTINUOUS
 10
54.7059
 20
14.284800000000001
 30
0.0
 70
    32
  0
VERTEX
  5
1D3D
  8
242
  6
CONTINUOUS
 10
54.559800000000003
 20
14.2721
 30
0.0
 70
    32
  0
VERTEX
  5
1D3E
  8
242
  6
CONTINUOUS
 10
54.414700000000003
 20
14.254300000000001
 30
0.0
 70
    32
  0
VERTEX
  5
1D3F
  8
242
  6
CONTINUOUS
 10
54.271099999999983
 20
14.2315
 30
0.0
 70
    32
  0
VERTEX
  5
1D40
  8
242
  6
CONTINUOUS
 10
54.129100000000001
 20
14.2037
 30
0.0
 70
    32
  0
VERTEX
  5
1D41
  8
242
  6
CONTINUOUS
 10
53.9893
 20
14.170999999999999
 30
0.0
 70
    32
  0
VERTEX
  5
1D42
  8
242
  6
CONTINUOUS
 10
53.851900000000001
 20
14.133599999999999
 30
0.0
 70
    32
  0
VERTEX
  5
1D43
  8
242
  6
CONTINUOUS
 10
53.717300000000002
 20
14.0914
 30
0.0
 70
    32
  0
VERTEX
  5
1D44
  8
242
  6
CONTINUOUS
 10
53.585799999999992
 20
14.044600000000001
 30
0.0
 70
    32
  0
VERTEX
  5
1D45
  8
242
  6
CONTINUOUS
 10
53.457700000000003
 20
13.9932
 30
0.0
 70
    32
  0
VERTEX
  5
1D46
  8
242
  6
CONTINUOUS
 10
53.333300000000001
 20
13.9375
 30
0.0
 70
    32
  0
VERTEX
  5
1D47
  8
242
  6
CONTINUOUS
 10
53.212899999999998
 20
13.877599999999999
 30
0.0
 70
    32
  0
VERTEX
  5
1D48
  8
242
  6
CONTINUOUS
 10
53.096800000000002
 20
13.813499999999999
 30
0.0
 70
    32
  0
VERTEX
  5
1D49
  8
242
  6
CONTINUOUS
 10
52.985300000000002
 20
13.7455
 30
0.0
 70
    32
  0
VERTEX
  5
1D4A
  8
242
  6
CONTINUOUS
 10
52.878700000000002
 20
13.6737
 30
0.0
 70
    32
  0
VERTEX
  5
1D4B
  8
242
  6
CONTINUOUS
 10
52.77709999999999
 20
13.5983
 30
0.0
 70
    32
  0
VERTEX
  5
1D4C
  8
242
  6
CONTINUOUS
 10
52.680999999999997
 20
13.519500000000001
 30
0.0
 70
    32
  0
VERTEX
  5
1D4D
  8
242
  6
CONTINUOUS
 10
52.590400000000002
 20
13.4374
 30
0.0
 70
    32
  0
VERTEX
  5
1D4E
  8
242
  6
CONTINUOUS
 10
52.505600000000001
 20
13.3523
 30
0.0
 70
    32
  0
VERTEX
  5
1D4F
  8
242
  6
CONTINUOUS
 10
52.4268
 20
13.2643
 30
0.0
 70
    32
  0
VERTEX
  5
1D50
  8
242
  6
CONTINUOUS
 10
52.354199999999999
 20
13.1737
 30
0.0
 70
    32
  0
VERTEX
  5
1D51
  8
242
  6
CONTINUOUS
 10
52.28799999999999
 20
13.0807
 30
0.0
 70
    32
  0
VERTEX
  5
1D52
  8
242
  6
CONTINUOUS
 10
52.228400000000001
 20
12.9855
 30
0.0
 70
    32
  0
VERTEX
  5
1D53
  8
242
  6
CONTINUOUS
 10
52.175400000000003
 20
12.888400000000001
 30
0.0
 70
    32
  0
VERTEX
  5
1D54
  8
242
  6
CONTINUOUS
 10
52.129199999999997
 20
12.7895
 30
0.0
 70
    32
  0
VERTEX
  5
1D55
  8
242
  6
CONTINUOUS
 10
52.0899
 20
12.6892
 30
0.0
 70
    32
  0
VERTEX
  5
1D56
  8
242
  6
CONTINUOUS
 10
52.057600000000001
 20
12.5876
 30
0.0
 70
    32
  0
VERTEX
  5
1D57
  8
242
  6
CONTINUOUS
 10
52.032499999999999
 20
12.484999999999999
 30
0.0
 70
    32
  0
VERTEX
  5
1D58
  8
242
  6
CONTINUOUS
 10
52.014400000000002
 20
12.381600000000001
 30
0.0
 70
    32
  0
VERTEX
  5
1D59
  8
242
  6
CONTINUOUS
 10
52.003599999999992
 20
12.277799999999999
 30
0.0
 70
    32
  0
VERTEX
  5
1D5A
  8
242
  6
CONTINUOUS
 10
52.0
 20
12.1737
 30
0.0
 70
    32
  0
SEQEND
  5
1D5B
  8
242
  6
CONTINUOUS
  0
LINE
  5
1D5C
  8
241
  6
CONTINUOUS
 10
48.999999999996362
 20
17.499999999998181
 30
0.0
 11
49.000000000003638
 21
-17.499999999997719
 31
0.0
  0
LINE
  5
1D5E
  8
245
  6
CENTER2
 10
-66.00000000000361
 20
19.999999999979991
 30
0.0
 11
-66.000000000007276
 21
-20.000000000012729
 31
0.0
1001
GENIUS_GENOREF_13
1005
1ED4
  0
LINE
  5
1D64
  8
240
  6
CONTINUOUS
 10
-9.0000000000036344
 20
26.499999999980169
 30
0.0
 11
-7.626261290279932
 21
26.999999999978169
 31
0.0
  0
LINE
  5
1D67
  8
240
  6
CONTINUOUS
 10
-0.0000000000044122
 20
26.999999999978169
 30
0.0
 11
-7.626261290279932
 21
26.999999999978169
 31
0.0
  0
LINE
  5
1D69
  8
240
  6
CONTINUOUS
 10
-0.0000000000044122
 20
26.999999999978169
 30
0.0
 11
2.3469184897807489
 21
18.24118095490072
 31
0.0
  0
LINE
  5
1D6F
  8
240
  6
CONTINUOUS
 10
-51.500000000021828
 20
19.999999999983629
 30
0.0
 11
-9.0000000000036326
 21
19.999999999986091
 31
0.0
  0
LINE
  5
1D70
  8
240
  6
CONTINUOUS
 10
-55.000000000021828
 20
16.499999999983629
 30
0.0
 11
-51.500000000021828
 21
19.999999999983629
 31
0.0
  0
LINE
  5
1D71
  8
240
  6
CONTINUOUS
 10
-55.000000000021828
 20
16.499999999983629
 30
0.0
 11
-66.000000000007276
 21
16.499999999983629
 31
0.0
  0
LINE
  5
1D72
  8
240
  6
CONTINUOUS
 10
-76.999999999989086
 20
16.49999999998181
 30
0.0
 11
-66.00000000000361
 21
16.499999999956341
 31
0.0
  0
LINE
  5
1D73
  8
240
  6
CONTINUOUS
 10
-76.999999999989086
 20
16.49999999998181
 30
0.0
 11
-80.499999999992724
 21
19.99999999998181
 31
0.0
  0
LINE
  5
1D79
  8
241
  6
CONTINUOUS
 10
-7.6262612902792171
 20
26.999999999978169
 30
0.0
 11
-7.6262612902792171
 21
-27.000000000010921
 31
0.0
  0
LINE
  5
1D7E
  8
241
  6
CONTINUOUS
 10
-9.0000000000036344
 20
19.999999999986091
 30
0.0
 11
-9.0000000000036326
 21
-20.000000000018829
 31
0.0
  0
LINE
  5
1D80
  8
240
  6
CONTINUOUS
 10
-9.0000000000036344
 20
-26.500000000012921
 30
0.0
 11
-7.6262612902799001
 21
-27.000000000010921
 31
0.0
  0
LINE
  5
1D82
  8
240
  6
CONTINUOUS
 10
-0.0000000000036333
 20
-27.000000000010921
 30
0.0
 11
-7.6262612902799001
 21
-27.000000000010921
 31
0.0
  0
LINE
  5
1D85
  8
240
  6
CONTINUOUS
 10
-0.0000000000036333
 20
-27.000000000010921
 30
0.0
 11
2.3469184897808391
 21
-18.24118095490169
 31
0.0
  0
LINE
  5
1D8B
  8
240
  6
CONTINUOUS
 10
-51.500000000021828
 20
-20.000000000016371
 30
0.0
 11
-9.0000000000036326
 21
-20.000000000018829
 31
0.0
  0
LINE
  5
1D8E
  8
240
  6
CONTINUOUS
 10
-55.000000000021828
 20
-16.500000000016371
 30
0.0
 11
-51.500000000021828
 21
-20.000000000016371
 31
0.0
  0
LINE
  5
1D8F
  8
240
  6
CONTINUOUS
 10
-55.000000000021828
 20
-16.500000000016371
 30
0.0
 11
-66.000000000007276
 21
-16.500000000016371
 31
0.0
  0
LINE
  5
1D90
  8
240
  6
CONTINUOUS
 10
-76.999999999989086
 20
-16.500000000014541
 30
0.0
 11
-66.00000000000361
 21
-16.499999999989079
 31
0.0
  0
LINE
  5
1D91
  8
240
  6
CONTINUOUS
 10
-76.999999999989086
 20
-16.500000000014541
 30
0.0
 11
-80.499999999992724
 21
-20.000000000014541
 31
0.0
  0
LINE
  5
1D96
  8
241
  6
CONTINUOUS
 10
-0.000000000003687
 20
-27.000000000011131
 30
0.0
 11
0.000000000003687
 21
26.999999999978179
 31
0.0
  0
LINE
  5
1D9A
  8
245
  6
CENTER2
 10
54.999999999996341
 20
-14.295035900786379
 30
0.0
 11
54.999999999996341
 21
-10.052395213666379
 31
0.0
  0
LINE
  5
1D9B
  8
245
  6
CENTER2
 10
51.999999999996362
 20
-12.374368670763941
 30
0.0
 11
57.999999999996341
 21
-12.374368670763941
 31
0.0
  0
POLYLINE
  5
1D9C
  8
241
  6
CONTINUOUS
 66
     1
 10
0.0
 20
0.0
 30
0.0
 70
     8
  0
VERTEX
  5
1D9D
  8
241
  6
CONTINUOUS
 10
52.5
 20
-12.2354
 30
0.0
 70
    32
  0
VERTEX
  5
1D9E
  8
241
  6
CONTINUOUS
 10
52.503
 20
-12.1487
 30
0.0
 70
    32
  0
VERTEX
  5
1D9F
  8
241
  6
CONTINUOUS
 10
52.512
 20
-12.062099999999999
 30
0.0
 70
    32
  0
VERTEX
  5
1DA0
  8
241
  6
CONTINUOUS
 10
52.527099999999997
 20
-11.976000000000001
 30
0.0
 70
    32
  0
VERTEX
  5
1DA1
  8
241
  6
CONTINUOUS
 10
52.548000000000002
 20
-11.890499999999999
 30
0.0
 70
    32
  0
VERTEX
  5
1DA2
  8
241
  6
CONTINUOUS
 10
52.5749
 20
-11.805899999999999
 30
0.0
 70
    32
  0
VERTEX
  5
1DA3
  8
241
  6
CONTINUOUS
 10
52.607599999999998
 20
-11.722300000000001
 30
0.0
 70
    32
  0
VERTEX
  5
1DA4
  8
241
  6
CONTINUOUS
 10
52.646099999999997
 20
-11.639900000000001
 30
0.0
 70
    32
  0
VERTEX
  5
1DA5
  8
241
  6
CONTINUOUS
 10
52.690300000000001
 20
-11.5589
 30
0.0
 70
    32
  0
VERTEX
  5
1DA6
  8
241
  6
CONTINUOUS
 10
52.740000000000002
 20
-11.4796
 30
0.0
 70
    32
  0
VERTEX
  5
1DA7
  8
241
  6
CONTINUOUS
 10
52.795200000000001
 20
-11.402100000000001
 30
0.0
 70
    32
  0
VERTEX
  5
1DA8
  8
241
  6
CONTINUOUS
 10
52.855699999999992
 20
-11.326599999999999
 30
0.0
 70
    32
  0
VERTEX
  5
1DA9
  8
241
  6
CONTINUOUS
 10
52.921300000000002
 20
-11.253299999999999
 30
0.0
 70
    32
  0
VERTEX
  5
1DAA
  8
241
  6
CONTINUOUS
 10
52.99199999999999
 20
-11.182399999999999
 30
0.0
 70
    32
  0
VERTEX
  5
1DAB
  8
241
  6
CONTINUOUS
 10
53.067500000000003
 20
-11.113899999999999
 30
0.0
 70
    32
  0
VERTEX
  5
1DAC
  8
241
  6
CONTINUOUS
 10
53.14759999999999
 20
-11.0482
 30
0.0
 70
    32
  0
VERTEX
  5
1DAD
  8
241
  6
CONTINUOUS
 10
53.232199999999999
 20
-10.9854
 30
0.0
 70
    32
  0
VERTEX
  5
1DAE
  8
241
  6
CONTINUOUS
 10
53.321100000000001
 20
-10.925599999999999
 30
0.0
 70
    32
  0
VERTEX
  5
1DAF
  8
241
  6
CONTINUOUS
 10
53.414000000000001
 20
-10.8689
 30
0.0
 70
    32
  0
VERTEX
  5
1DB0
  8
241
  6
CONTINUOUS
 10
53.510800000000003
 20
-10.8155
 30
0.0
 70
    32
  0
VERTEX
  5
1DB1
  8
241
  6
CONTINUOUS
 10
53.6111
 20
-10.765599999999999
 30
0.0
 70
    32
  0
VERTEX
  5
1DB2
  8
241
  6
CONTINUOUS
 10
53.714700000000001
 20
-10.719099999999999
 30
0.0
 70
    32
  0
VERTEX
  5
1DB3
  8
241
  6
CONTINUOUS
 10
53.8215
 20
-10.676399999999999
 30
0.0
 70
    32
  0
VERTEX
  5
1DB4
  8
241
  6
CONTINUOUS
 10
53.931100000000001
 20
-10.6374
 30
0.0
 70
    32
  0
VERTEX
  5
1DB5
  8
241
  6
CONTINUOUS
 10
54.043300000000002
 20
-10.6022
 30
0.0
 70
    32
  0
VERTEX
  5
1DB6
  8
241
  6
CONTINUOUS
 10
54.157800000000002
 20
-10.571
 30
0.0
 70
    32
  0
VERTEX
  5
1DB7
  8
241
  6
CONTINUOUS
 10
54.274299999999997
 20
-10.543799999999999
 30
0.0
 70
    32
  0
VERTEX
  5
1DB8
  8
241
  6
CONTINUOUS
 10
54.392499999999998
 20
-10.5206
 30
0.0
 70
    32
  0
VERTEX
  5
1DB9
  8
241
  6
CONTINUOUS
 10
54.512300000000003
 20
-10.5016
 30
0.0
 70
    32
  0
VERTEX
  5
1DBA
  8
241
  6
CONTINUOUS
 10
54.633200000000002
 20
-10.486800000000001
 30
0.0
 70
    32
  0
VERTEX
  5
1DBB
  8
241
  6
CONTINUOUS
 10
54.755000000000003
 20
-10.4762
 30
0.0
 70
    32
  0
VERTEX
  5
1DBC
  8
241
  6
CONTINUOUS
 10
54.877299999999991
 20
-10.469799999999999
 30
0.0
 70
    32
  0
VERTEX
  5
1DBD
  8
241
  6
CONTINUOUS
 10
55.0
 20
-10.467599999999999
 30
0.0
 70
    32
  0
VERTEX
  5
1DBE
  8
241
  6
CONTINUOUS
 10
55.122700000000002
 20
-10.469799999999999
 30
0.0
 70
    32
  0
VERTEX
  5
1DBF
  8
241
  6
CONTINUOUS
 10
55.24499999999999
 20
-10.4762
 30
0.0
 70
    32
  0
VERTEX
  5
1DC0
  8
241
  6
CONTINUOUS
 10
55.366799999999998
 20
-10.486800000000001
 30
0.0
 70
    32
  0
VERTEX
  5
1DC1
  8
241
  6
CONTINUOUS
 10
55.487699999999997
 20
-10.5016
 30
0.0
 70
    32
  0
VERTEX
  5
1DC2
  8
241
  6
CONTINUOUS
 10
55.607500000000002
 20
-10.5206
 30
0.0
 70
    32
  0
VERTEX
  5
1DC3
  8
241
  6
CONTINUOUS
 10
55.725700000000003
 20
-10.543799999999999
 30
0.0
 70
    32
  0
VERTEX
  5
1DC4
  8
241
  6
CONTINUOUS
 10
55.842199999999998
 20
-10.571
 30
0.0
 70
    32
  0
VERTEX
  5
1DC5
  8
241
  6
CONTINUOUS
 10
55.956699999999998
 20
-10.6022
 30
0.0
 70
    32
  0
VERTEX
  5
1DC6
  8
241
  6
CONTINUOUS
 10
56.068899999999992
 20
-10.6374
 30
0.0
 70
    32
  0
VERTEX
  5
1DC7
  8
241
  6
CONTINUOUS
 10
56.1785
 20
-10.676399999999999
 30
0.0
 70
    32
  0
VERTEX
  5
1DC8
  8
241
  6
CONTINUOUS
 10
56.285299999999999
 20
-10.719099999999999
 30
0.0
 70
    32
  0
VERTEX
  5
1DC9
  8
241
  6
CONTINUOUS
 10
56.388899999999992
 20
-10.765599999999999
 30
0.0
 70
    32
  0
VERTEX
  5
1DCA
  8
241
  6
CONTINUOUS
 10
56.489199999999997
 20
-10.8155
 30
0.0
 70
    32
  0
VERTEX
  5
1DCB
  8
241
  6
CONTINUOUS
 10
56.585999999999991
 20
-10.8689
 30
0.0
 70
    32
  0
VERTEX
  5
1DCC
  8
241
  6
CONTINUOUS
 10
56.678899999999992
 20
-10.925599999999999
 30
0.0
 70
    32
  0
VERTEX
  5
1DCD
  8
241
  6
CONTINUOUS
 10
56.767800000000001
 20
-10.9854
 30
0.0
 70
    32
  0
VERTEX
  5
1DCE
  8
241
  6
CONTINUOUS
 10
56.852400000000003
 20
-11.0482
 30
0.0
 70
    32
  0
VERTEX
  5
1DCF
  8
241
  6
CONTINUOUS
 10
56.93249999999999
 20
-11.113899999999999
 30
0.0
 70
    32
  0
VERTEX
  5
1DD0
  8
241
  6
CONTINUOUS
 10
57.008000000000003
 20
-11.182399999999999
 30
0.0
 70
    32
  0
VERTEX
  5
1DD1
  8
241
  6
CONTINUOUS
 10
57.078699999999991
 20
-11.253299999999999
 30
0.0
 70
    32
  0
VERTEX
  5
1DD2
  8
241
  6
CONTINUOUS
 10
57.144300000000001
 20
-11.326599999999999
 30
0.0
 70
    32
  0
VERTEX
  5
1DD3
  8
241
  6
CONTINUOUS
 10
57.204799999999999
 20
-11.402100000000001
 30
0.0
 70
    32
  0
VERTEX
  5
1DD4
  8
241
  6
CONTINUOUS
 10
57.259999999999991
 20
-11.4796
 30
0.0
 70
    32
  0
VERTEX
  5
1DD5
  8
241
  6
CONTINUOUS
 10
57.309699999999999
 20
-11.5589
 30
0.0
 70
    32
  0
VERTEX
  5
1DD6
  8
241
  6
CONTINUOUS
 10
57.353900000000003
 20
-11.639900000000001
 30
0.0
 70
    32
  0
VERTEX
  5
1DD7
  8
241
  6
CONTINUOUS
 10
57.392400000000002
 20
-11.722300000000001
 30
0.0
 70
    32
  0
VERTEX
  5
1DD8
  8
241
  6
CONTINUOUS
 10
57.4251
 20
-11.805899999999999
 30
0.0
 70
    32
  0
VERTEX
  5
1DD9
  8
241
  6
CONTINUOUS
 10
57.451999999999998
 20
-11.890499999999999
 30
0.0
 70
    32
  0
VERTEX
  5
1DDA
  8
241
  6
CONTINUOUS
 10
57.472900000000003
 20
-11.976000000000001
 30
0.0
 70
    32
  0
VERTEX
  5
1DDB
  8
241
  6
CONTINUOUS
 10
57.488
 20
-12.062099999999999
 30
0.0
 70
    32
  0
VERTEX
  5
1DDC
  8
241
  6
CONTINUOUS
 10
57.497
 20
-12.1487
 30
0.0
 70
    32
  0
VERTEX
  5
1DDD
  8
241
  6
CONTINUOUS
 10
57.5
 20
-12.2354
 30
0.0
 70
    32
  0
VERTEX
  5
1DDE
  8
241
  6
CONTINUOUS
 10
57.497
 20
-12.322100000000001
 30
0.0
 70
    32
  0
VERTEX
  5
1DDF
  8
241
  6
CONTINUOUS
 10
57.488
 20
-12.4087
 30
0.0
 70
    32
  0
VERTEX
  5
1DE0
  8
241
  6
CONTINUOUS
 10
57.472900000000003
 20
-12.4948
 30
0.0
 70
    32
  0
VERTEX
  5
1DE1
  8
241
  6
CONTINUOUS
 10
57.451999999999998
 20
-12.580299999999999
 30
0.0
 70
    32
  0
VERTEX
  5
1DE2
  8
241
  6
CONTINUOUS
 10
57.4251
 20
-12.664899999999999
 30
0.0
 70
    32
  0
VERTEX
  5
1DE3
  8
241
  6
CONTINUOUS
 10
57.392400000000002
 20
-12.7486
 30
0.0
 70
    32
  0
VERTEX
  5
1DE4
  8
241
  6
CONTINUOUS
 10
57.353900000000003
 20
-12.831
 30
0.0
 70
    32
  0
VERTEX
  5
1DE5
  8
241
  6
CONTINUOUS
 10
57.309699999999999
 20
-12.911899999999999
 30
0.0
 70
    32
  0
VERTEX
  5
1DE6
  8
241
  6
CONTINUOUS
 10
57.259999999999991
 20
-12.991199999999999
 30
0.0
 70
    32
  0
VERTEX
  5
1DE7
  8
241
  6
CONTINUOUS
 10
57.204799999999999
 20
-13.0687
 30
0.0
 70
    32
  0
VERTEX
  5
1DE8
  8
241
  6
CONTINUOUS
 10
57.144300000000001
 20
-13.1442
 30
0.0
 70
    32
  0
VERTEX
  5
1DE9
  8
241
  6
CONTINUOUS
 10
57.078699999999991
 20
-13.217499999999999
 30
0.0
 70
    32
  0
VERTEX
  5
1DEA
  8
241
  6
CONTINUOUS
 10
57.008000000000003
 20
-13.288500000000001
 30
0.0
 70
    32
  0
VERTEX
  5
1DEB
  8
241
  6
CONTINUOUS
 10
56.93249999999999
 20
-13.3569
 30
0.0
 70
    32
  0
VERTEX
  5
1DEC
  8
241
  6
CONTINUOUS
 10
56.852400000000003
 20
-13.422599999999999
 30
0.0
 70
    32
  0
VERTEX
  5
1DED
  8
241
  6
CONTINUOUS
 10
56.767800000000001
 20
-13.4854
 30
0.0
 70
    32
  0
VERTEX
  5
1DEE
  8
241
  6
CONTINUOUS
 10
56.678899999999992
 20
-13.545199999999999
 30
0.0
 70
    32
  0
VERTEX
  5
1DEF
  8
241
  6
CONTINUOUS
 10
56.585999999999991
 20
-13.601900000000001
 30
0.0
 70
    32
  0
VERTEX
  5
1DF0
  8
241
  6
CONTINUOUS
 10
56.489199999999997
 20
-13.6553
 30
0.0
 70
    32
  0
VERTEX
  5
1DF1
  8
241
  6
CONTINUOUS
 10
56.388899999999992
 20
-13.705299999999999
 30
0.0
 70
    32
  0
VERTEX
  5
1DF2
  8
241
  6
CONTINUOUS
 10
56.285299999999999
 20
-13.7517
 30
0.0
 70
    32
  0
VERTEX
  5
1DF3
  8
241
  6
CONTINUOUS
 10
56.1785
 20
-13.7944
 30
0.0
 70
    32
  0
VERTEX
  5
1DF4
  8
241
  6
CONTINUOUS
 10
56.068899999999992
 20
-13.833500000000001
 30
0.0
 70
    32
  0
VERTEX
  5
1DF5
  8
241
  6
CONTINUOUS
 10
55.956699999999998
 20
-13.868600000000001
 30
0.0
 70
    32
  0
VERTEX
  5
1DF6
  8
241
  6
CONTINUOUS
 10
55.842199999999998
 20
-13.899800000000001
 30
0.0
 70
    32
  0
VERTEX
  5
1DF7
  8
241
  6
CONTINUOUS
 10
55.725700000000003
 20
-13.927099999999999
 30
0.0
 70
    32
  0
VERTEX
  5
1DF8
  8
241
  6
CONTINUOUS
 10
55.607500000000002
 20
-13.950200000000001
 30
0.0
 70
    32
  0
VERTEX
  5
1DF9
  8
241
  6
CONTINUOUS
 10
55.487699999999997
 20
-13.969200000000001
 30
0.0
 70
    32
  0
VERTEX
  5
1DFA
  8
241
  6
CONTINUOUS
 10
55.366799999999998
 20
-13.984
 30
0.0
 70
    32
  0
VERTEX
  5
1DFB
  8
241
  6
CONTINUOUS
 10
55.24499999999999
 20
-13.9947
 30
0.0
 70
    32
  0
VERTEX
  5
1DFC
  8
241
  6
CONTINUOUS
 10
55.122700000000002
 20
-14.000999999999999
 30
0.0
 70
    32
  0
VERTEX
  5
1DFD
  8
241
  6
CONTINUOUS
 10
55.0
 20
-14.0032
 30
0.0
 70
    32
  0
VERTEX
  5
1DFE
  8
241
  6
CONTINUOUS
 10
54.877299999999991
 20
-14.000999999999999
 30
0.0
 70
    32
  0
VERTEX
  5
1DFF
  8
241
  6
CONTINUOUS
 10
54.755000000000003
 20
-13.9947
 30
0.0
 70
    32
  0
VERTEX
  5
1E00
  8
241
  6
CONTINUOUS
 10
54.633200000000002
 20
-13.984
 30
0.0
 70
    32
  0
VERTEX
  5
1E01
  8
241
  6
CONTINUOUS
 10
54.512300000000003
 20
-13.969200000000001
 30
0.0
 70
    32
  0
VERTEX
  5
1E02
  8
241
  6
CONTINUOUS
 10
54.392499999999998
 20
-13.950200000000001
 30
0.0
 70
    32
  0
VERTEX
  5
1E03
  8
241
  6
CONTINUOUS
 10
54.274299999999997
 20
-13.927099999999999
 30
0.0
 70
    32
  0
VERTEX
  5
1E04
  8
241
  6
CONTINUOUS
 10
54.157800000000002
 20
-13.899800000000001
 30
0.0
 70
    32
  0
VERTEX
  5
1E05
  8
241
  6
CONTINUOUS
 10
54.043300000000002
 20
-13.868600000000001
 30
0.0
 70
    32
  0
VERTEX
  5
1E06
  8
241
  6
CONTINUOUS
 10
53.931100000000001
 20
-13.833500000000001
 30
0.0
 70
    32
  0
VERTEX
  5
1E07
  8
241
  6
CONTINUOUS
 10
53.8215
 20
-13.7944
 30
0.0
 70
    32
  0
VERTEX
  5
1E08
  8
241
  6
CONTINUOUS
 10
53.714700000000001
 20
-13.7517
 30
0.0
 70
    32
  0
VERTEX
  5
1E09
  8
241
  6
CONTINUOUS
 10
53.6111
 20
-13.705299999999999
 30
0.0
 70
    32
  0
VERTEX
  5
1E0A
  8
241
  6
CONTINUOUS
 10
53.510800000000003
 20
-13.6553
 30
0.0
 70
    32
  0
VERTEX
  5
1E0B
  8
241
  6
CONTINUOUS
 10
53.414000000000001
 20
-13.601900000000001
 30
0.0
 70
    32
  0
VERTEX
  5
1E0C
  8
241
  6
CONTINUOUS
 10
53.321100000000001
 20
-13.545199999999999
 30
0.0
 70
    32
  0
VERTEX
  5
1E0D
  8
241
  6
CONTINUOUS
 10
53.232199999999999
 20
-13.4854
 30
0.0
 70
    32
  0
VERTEX
  5
1E0E
  8
241
  6
CONTINUOUS
 10
53.14759999999999
 20
-13.422599999999999
 30
0.0
 70
    32
  0
VERTEX
  5
1E0F
  8
241
  6
CONTINUOUS
 10
53.067500000000003
 20
-13.3569
 30
0.0
 70
    32
  0
VERTEX
  5
1E10
  8
241
  6
CONTINUOUS
 10
52.99199999999999
 20
-13.288500000000001
 30
0.0
 70
    32
  0
VERTEX
  5
1E11
  8
241
  6
CONTINUOUS
 10
52.921300000000002
 20
-13.217499999999999
 30
0.0
 70
    32
  0
VERTEX
  5
1E12
  8
241
  6
CONTINUOUS
 10
52.855699999999992
 20
-13.1442
 30
0.0
 70
    32
  0
VERTEX
  5
1E13
  8
241
  6
CONTINUOUS
 10
52.795200000000001
 20
-13.0687
 30
0.0
 70
    32
  0
VERTEX
  5
1E14
  8
241
  6
CONTINUOUS
 10
52.740000000000002
 20
-12.991199999999999
 30
0.0
 70
    32
  0
VERTEX
  5
1E15
  8
241
  6
CONTINUOUS
 10
52.690300000000001
 20
-12.911899999999999
 30
0.0
 70
    32
  0
VERTEX
  5
1E16
  8
241
  6
CONTINUOUS
 10
52.646099999999997
 20
-12.831
 30
0.0
 70
    32
  0
VERTEX
  5
1E17
  8
241
  6
CONTINUOUS
 10
52.607599999999998
 20
-12.7486
 30
0.0
 70
    32
  0
VERTEX
  5
1E18
  8
241
  6
CONTINUOUS
 10
52.5749
 20
-12.664899999999999
 30
0.0
 70
    32
  0
VERTEX
  5
1E19
  8
241
  6
CONTINUOUS
 10
52.548000000000002
 20
-12.580299999999999
 30
0.0
 70
    32
  0
VERTEX
  5
1E1A
  8
241
  6
CONTINUOUS
 10
52.527099999999997
 20
-12.4948
 30
0.0
 70
    32
  0
VERTEX
  5
1E1B
  8
241
  6
CONTINUOUS
 10
52.512
 20
-12.4087
 30
0.0
 70
    32
  0
VERTEX
  5
1E1C
  8
241
  6
CONTINUOUS
 10
52.503
 20
-12.322100000000001
 30
0.0
 70
    32
  0
VERTEX
  5
1E1D
  8
241
  6
CONTINUOUS
 10
52.5
 20
-12.2354
 30
0.0
 70
    32
  0
SEQEND
  5
1E1E
  8
241
  6
CONTINUOUS
  0
POLYLINE
  5
1E1F
  8
242
  6
CONTINUOUS
 66
     1
 10
0.0
 20
0.0
 30
0.0
 70
     8
  0
VERTEX
  5
1E20
  8
242
  6
CONTINUOUS
 10
52.0
 20
-12.1737
 30
0.0
 70
    32
  0
VERTEX
  5
1E21
  8
242
  6
CONTINUOUS
 10
52.003599999999992
 20
-12.069599999999999
 30
0.0
 70
    32
  0
VERTEX
  5
1E22
  8
242
  6
CONTINUOUS
 10
52.014400000000002
 20
-11.9658
 30
0.0
 70
    32
  0
VERTEX
  5
1E23
  8
242
  6
CONTINUOUS
 10
52.032499999999999
 20
-11.862500000000001
 30
0.0
 70
    32
  0
VERTEX
  5
1E24
  8
242
  6
CONTINUOUS
 10
52.057600000000001
 20
-11.7599
 30
0.0
 70
    32
  0
VERTEX
  5
1E25
  8
242
  6
CONTINUOUS
 10
52.0899
 20
-11.658300000000001
 30
0.0
 70
    32
  0
VERTEX
  5
1E26
  8
242
  6
CONTINUOUS
 10
52.129199999999997
 20
-11.5579
 30
0.0
 70
    32
  0
VERTEX
  5
1E27
  8
242
  6
CONTINUOUS
 10
52.175400000000003
 20
-11.459099999999999
 30
0.0
 70
    32
  0
VERTEX
  5
1E28
  8
242
  6
CONTINUOUS
 10
52.228400000000001
 20
-11.3619
 30
0.0
 70
    32
  0
VERTEX
  5
1E29
  8
242
  6
CONTINUOUS
 10
52.28799999999999
 20
-11.2667
 30
0.0
 70
    32
  0
VERTEX
  5
1E2A
  8
242
  6
CONTINUOUS
 10
52.354199999999999
 20
-11.1737
 30
0.0
 70
    32
  0
VERTEX
  5
1E2B
  8
242
  6
CONTINUOUS
 10
52.4268
 20
-11.0831
 30
0.0
 70
    32
  0
VERTEX
  5
1E2C
  8
242
  6
CONTINUOUS
 10
52.505600000000001
 20
-10.995200000000001
 30
0.0
 70
    32
  0
VERTEX
  5
1E2D
  8
242
  6
CONTINUOUS
 10
52.590400000000002
 20
-10.91
 30
0.0
 70
    32
  0
VERTEX
  5
1E2E
  8
242
  6
CONTINUOUS
 10
52.680999999999997
 20
-10.827999999999999
 30
0.0
 70
    32
  0
VERTEX
  5
1E2F
  8
242
  6
CONTINUOUS
 10
52.77709999999999
 20
-10.7491
 30
0.0
 70
    32
  0
VERTEX
  5
1E30
  8
242
  6
CONTINUOUS
 10
52.878700000000002
 20
-10.6737
 30
0.0
 70
    32
  0
VERTEX
  5
1E31
  8
242
  6
CONTINUOUS
 10
52.985300000000002
 20
-10.601900000000001
 30
0.0
 70
    32
  0
VERTEX
  5
1E32
  8
242
  6
CONTINUOUS
 10
53.096800000000002
 20
-10.533899999999999
 30
0.0
 70
    32
  0
VERTEX
  5
1E33
  8
242
  6
CONTINUOUS
 10
53.212899999999998
 20
-10.469900000000001
 30
0.0
 70
    32
  0
VERTEX
  5
1E34
  8
242
  6
CONTINUOUS
 10
53.333300000000001
 20
-10.4099
 30
0.0
 70
    32
  0
VERTEX
  5
1E35
  8
242
  6
CONTINUOUS
 10
53.457700000000003
 20
-10.354200000000001
 30
0.0
 70
    32
  0
VERTEX
  5
1E36
  8
242
  6
CONTINUOUS
 10
53.585799999999992
 20
-10.302899999999999
 30
0.0
 70
    32
  0
VERTEX
  5
1E37
  8
242
  6
CONTINUOUS
 10
53.717300000000002
 20
-10.2561
 30
0.0
 70
    32
  0
VERTEX
  5
1E38
  8
242
  6
CONTINUOUS
 10
53.851900000000001
 20
-10.213900000000001
 30
0.0
 70
    32
  0
VERTEX
  5
1E39
  8
242
  6
CONTINUOUS
 10
53.9893
 20
-10.176399999999999
 30
0.0
 70
    32
  0
VERTEX
  5
1E3A
  8
242
  6
CONTINUOUS
 10
54.129100000000001
 20
-10.143700000000001
 30
0.0
 70
    32
  0
VERTEX
  5
1E3B
  8
242
  6
CONTINUOUS
 10
54.271099999999983
 20
-10.116
 30
0.0
 70
    32
  0
VERTEX
  5
1E3C
  8
242
  6
CONTINUOUS
 10
54.414700000000003
 20
-10.0932
 30
0.0
 70
    32
  0
VERTEX
  5
1E3D
  8
242
  6
CONTINUOUS
 10
54.559800000000003
 20
-10.0754
 30
0.0
 70
    32
  0
VERTEX
  5
1E3E
  8
242
  6
CONTINUOUS
 10
54.7059
 20
-10.0626
 30
0.0
 70
    32
  0
VERTEX
  5
1E3F
  8
242
  6
CONTINUOUS
 10
54.852800000000002
 20
-10.055
 30
0.0
 70
    32
  0
VERTEX
  5
1E40
  8
242
  6
CONTINUOUS
 10
55.0
 20
-10.0524
 30
0.0
 70
    32
  0
VERTEX
  5
1E41
  8
242
  6
CONTINUOUS
 10
55.147199999999998
 20
-10.055
 30
0.0
 70
    32
  0
VERTEX
  5
1E42
  8
242
  6
CONTINUOUS
 10
55.2941
 20
-10.0626
 30
0.0
 70
    32
  0
VERTEX
  5
1E43
  8
242
  6
CONTINUOUS
 10
55.44019999999999
 20
-10.0754
 30
0.0
 70
    32
  0
VERTEX
  5
1E44
  8
242
  6
CONTINUOUS
 10
55.585299999999997
 20
-10.0932
 30
0.0
 70
    32
  0
VERTEX
  5
1E45
  8
242
  6
CONTINUOUS
 10
55.72890000000001
 20
-10.116
 30
0.0
 70
    32
  0
VERTEX
  5
1E46
  8
242
  6
CONTINUOUS
 10
55.870899999999992
 20
-10.143700000000001
 30
0.0
 70
    32
  0
VERTEX
  5
1E47
  8
242
  6
CONTINUOUS
 10
56.010699999999993
 20
-10.176399999999999
 30
0.0
 70
    32
  0
VERTEX
  5
1E48
  8
242
  6
CONTINUOUS
 10
56.148099999999999
 20
-10.213900000000001
 30
0.0
 70
    32
  0
VERTEX
  5
1E49
  8
242
  6
CONTINUOUS
 10
56.282699999999998
 20
-10.2561
 30
0.0
 70
    32
  0
VERTEX
  5
1E4A
  8
242
  6
CONTINUOUS
 10
56.414200000000001
 20
-10.302899999999999
 30
0.0
 70
    32
  0
VERTEX
  5
1E4B
  8
242
  6
CONTINUOUS
 10
56.542299999999997
 20
-10.354200000000001
 30
0.0
 70
    32
  0
VERTEX
  5
1E4C
  8
242
  6
CONTINUOUS
 10
56.666699999999992
 20
-10.4099
 30
0.0
 70
    32
  0
VERTEX
  5
1E4D
  8
242
  6
CONTINUOUS
 10
56.787100000000002
 20
-10.469900000000001
 30
0.0
 70
    32
  0
VERTEX
  5
1E4E
  8
242
  6
CONTINUOUS
 10
56.903199999999991
 20
-10.533899999999999
 30
0.0
 70
    32
  0
VERTEX
  5
1E4F
  8
242
  6
CONTINUOUS
 10
57.014699999999998
 20
-10.601900000000001
 30
0.0
 70
    32
  0
VERTEX
  5
1E50
  8
242
  6
CONTINUOUS
 10
57.121299999999998
 20
-10.6737
 30
0.0
 70
    32
  0
VERTEX
  5
1E51
  8
242
  6
CONTINUOUS
 10
57.222900000000003
 20
-10.7491
 30
0.0
 70
    32
  0
VERTEX
  5
1E52
  8
242
  6
CONTINUOUS
 10
57.319000000000003
 20
-10.827999999999999
 30
0.0
 70
    32
  0
VERTEX
  5
1E53
  8
242
  6
CONTINUOUS
 10
57.409599999999998
 20
-10.91
 30
0.0
 70
    32
  0
VERTEX
  5
1E54
  8
242
  6
CONTINUOUS
 10
57.494399999999992
 20
-10.995200000000001
 30
0.0
 70
    32
  0
VERTEX
  5
1E55
  8
242
  6
CONTINUOUS
 10
57.573199999999993
 20
-11.0831
 30
0.0
 70
    32
  0
VERTEX
  5
1E56
  8
242
  6
CONTINUOUS
 10
57.645800000000001
 20
-11.1737
 30
0.0
 70
    32
  0
VERTEX
  5
1E57
  8
242
  6
CONTINUOUS
 10
57.712000000000003
 20
-11.2667
 30
0.0
 70
    32
  0
VERTEX
  5
1E58
  8
242
  6
CONTINUOUS
 10
57.771599999999999
 20
-11.3619
 30
0.0
 70
    32
  0
VERTEX
  5
1E59
  8
242
  6
CONTINUOUS
 10
57.824599999999997
 20
-11.459099999999999
 30
0.0
 70
    32
  0
VERTEX
  5
1E5A
  8
242
  6
CONTINUOUS
 10
57.870800000000003
 20
-11.5579
 30
0.0
 70
    32
  0
VERTEX
  5
1E5B
  8
242
  6
CONTINUOUS
 10
57.910099999999993
 20
-11.658300000000001
 30
0.0
 70
    32
  0
VERTEX
  5
1E5C
  8
242
  6
CONTINUOUS
 10
57.942399999999999
 20
-11.7599
 30
0.0
 70
    32
  0
VERTEX
  5
1E5D
  8
242
  6
CONTINUOUS
 10
57.967500000000001
 20
-11.862500000000001
 30
0.0
 70
    32
  0
VERTEX
  5
1E5E
  8
242
  6
CONTINUOUS
 10
57.985599999999998
 20
-11.9658
 30
0.0
 70
    32
  0
VERTEX
  5
1E5F
  8
242
  6
CONTINUOUS
 10
57.996400000000001
 20
-12.069599999999999
 30
0.0
 70
    32
  0
VERTEX
  5
1E60
  8
242
  6
CONTINUOUS
 10
58.0
 20
-12.1737
 30
0.0
 70
    32
  0
VERTEX
  5
1E61
  8
242
  6
CONTINUOUS
 10
57.996400000000001
 20
-12.277799999999999
 30
0.0
 70
    32
  0
VERTEX
  5
1E62
  8
242
  6
CONTINUOUS
 10
57.985599999999998
 20
-12.381600000000001
 30
0.0
 70
    32
  0
VERTEX
  5
1E63
  8
242
  6
CONTINUOUS
 10
57.967500000000001
 20
-12.484999999999999
 30
0.0
 70
    32
  0
VERTEX
  5
1E64
  8
242
  6
CONTINUOUS
 10
57.942399999999999
 20
-12.5876
 30
0.0
 70
    32
  0
VERTEX
  5
1E65
  8
242
  6
CONTINUOUS
 10
57.910099999999993
 20
-12.6892
 30
0.0
 70
    32
  0
VERTEX
  5
1E66
  8
242
  6
CONTINUOUS
 10
57.870800000000003
 20
-12.7895
 30
0.0
 70
    32
  0
VERTEX
  5
1E67
  8
242
  6
CONTINUOUS
 10
57.824599999999997
 20
-12.888400000000001
 30
0.0
 70
    32
  0
VERTEX
  5
1E68
  8
242
  6
CONTINUOUS
 10
57.771599999999999
 20
-12.9855
 30
0.0
 70
    32
  0
VERTEX
  5
1E69
  8
242
  6
CONTINUOUS
 10
57.712000000000003
 20
-13.0807
 30
0.0
 70
    32
  0
VERTEX
  5
1E6A
  8
242
  6
CONTINUOUS
 10
57.645800000000001
 20
-13.1737
 30
0.0
 70
    32
  0
VERTEX
  5
1E6B
  8
242
  6
CONTINUOUS
 10
57.573199999999993
 20
-13.2643
 30
0.0
 70
    32
  0
VERTEX
  5
1E6C
  8
242
  6
CONTINUOUS
 10
57.494399999999992
 20
-13.3523
 30
0.0
 70
    32
  0
VERTEX
  5
1E6D
  8
242
  6
CONTINUOUS
 10
57.409599999999998
 20
-13.4374
 30
0.0
 70
    32
  0
VERTEX
  5
1E6E
  8
242
  6
CONTINUOUS
 10
57.319000000000003
 20
-13.519500000000001
 30
0.0
 70
    32
  0
VERTEX
  5
1E6F
  8
242
  6
CONTINUOUS
 10
57.222900000000003
 20
-13.5983
 30
0.0
 70
    32
  0
VERTEX
  5
1E70
  8
242
  6
CONTINUOUS
 10
57.121299999999998
 20
-13.6737
 30
0.0
 70
    32
  0
VERTEX
  5
1E71
  8
242
  6
CONTINUOUS
 10
57.014699999999998
 20
-13.7455
 30
0.0
 70
    32
  0
VERTEX
  5
1E72
  8
242
  6
CONTINUOUS
 10
56.903199999999991
 20
-13.813499999999999
 30
0.0
 70
    32
  0
VERTEX
  5
1E73
  8
242
  6
CONTINUOUS
 10
56.787100000000002
 20
-13.877599999999999
 30
0.0
 70
    32
  0
VERTEX
  5
1E74
  8
242
  6
CONTINUOUS
 10
56.666699999999992
 20
-13.9375
 30
0.0
 70
    32
  0
VERTEX
  5
1E75
  8
242
  6
CONTINUOUS
 10
56.542299999999997
 20
-13.9932
 30
0.0
 70
    32
  0
VERTEX
  5
1E76
  8
242
  6
CONTINUOUS
 10
56.414200000000001
 20
-14.044600000000001
 30
0.0
 70
    32
  0
VERTEX
  5
1E77
  8
242
  6
CONTINUOUS
 10
56.282699999999998
 20
-14.0914
 30
0.0
 70
    32
  0
VERTEX
  5
1E78
  8
242
  6
CONTINUOUS
 10
56.148099999999999
 20
-14.133599999999999
 30
0.0
 70
    32
  0
VERTEX
  5
1E79
  8
242
  6
CONTINUOUS
 10
56.010699999999993
 20
-14.170999999999999
 30
0.0
 70
    32
  0
VERTEX
  5
1E7A
  8
242
  6
CONTINUOUS
 10
55.870899999999992
 20
-14.2037
 30
0.0
 70
    32
  0
VERTEX
  5
1E7B
  8
242
  6
CONTINUOUS
 10
55.72890000000001
 20
-14.2315
 30
0.0
 70
    32
  0
VERTEX
  5
1E7C
  8
242
  6
CONTINUOUS
 10
55.585299999999997
 20
-14.254300000000001
 30
0.0
 70
    32
  0
VERTEX
  5
1E7D
  8
242
  6
CONTINUOUS
 10
55.44019999999999
 20
-14.2721
 30
0.0
 70
    32
  0
VERTEX
  5
1E7E
  8
242
  6
CONTINUOUS
 10
55.2941
 20
-14.284800000000001
 30
0.0
 70
    32
  0
VERTEX
  5
1E7F
  8
242
  6
CONTINUOUS
 10
55.147199999999998
 20
-14.2925
 30
0.0
 70
    32
  0
VERTEX
  5
1E80
  8
242
  6
CONTINUOUS
 10
55.0
 20
-14.295
 30
0.0
 70
    32
  0
VERTEX
  5
1E81
  8
242
  6
CONTINUOUS
 10
54.852800000000002
 20
-14.2925
 30
0.0
 70
    32
  0
VERTEX
  5
1E82
  8
242
  6
CONTINUOUS
 10
54.7059
 20
-14.284800000000001
 30
0.0
 70
    32
  0
VERTEX
  5
1E83
  8
242
  6
CONTINUOUS
 10
54.559800000000003
 20
-14.2721
 30
0.0
 70
    32
  0
VERTEX
  5
1E84
  8
242
  6
CONTINUOUS
 10
54.414700000000003
 20
-14.254300000000001
 30
0.0
 70
    32
  0
VERTEX
  5
1E85
  8
242
  6
CONTINUOUS
 10
54.271099999999983
 20
-14.2315
 30
0.0
 70
    32
  0
VERTEX
  5
1E86
  8
242
  6
CONTINUOUS
 10
54.129100000000001
 20
-14.2037
 30
0.0
 70
    32
  0
VERTEX
  5
1E87
  8
242
  6
CONTINUOUS
 10
53.9893
 20
-14.170999999999999
 30
0.0
 70
    32
  0
VERTEX
  5
1E88
  8
242
  6
CONTINUOUS
 10
53.851900000000001
 20
-14.133599999999999
 30
0.0
 70
    32
  0
VERTEX
  5
1E89
  8
242
  6
CONTINUOUS
 10
53.717300000000002
 20
-14.0914
 30
0.0
 70
    32
  0
VERTEX
  5
1E8A
  8
242
  6
CONTINUOUS
 10
53.585799999999992
 20
-14.044600000000001
 30
0.0
 70
    32
  0
VERTEX
  5
1E8B
  8
242
  6
CONTINUOUS
 10
53.457700000000003
 20
-13.9932
 30
0.0
 70
    32
  0
VERTEX
  5
1E8C
  8
242
  6
CONTINUOUS
 10
53.333300000000001
 20
-13.9375
 30
0.0
 70
    32
  0
VERTEX
  5
1E8D
  8
242
  6
CONTINUOUS
 10
53.212899999999998
 20
-13.877599999999999
 30
0.0
 70
    32
  0
VERTEX
  5
1E8E
  8
242
  6
CONTINUOUS
 10
53.096800000000002
 20
-13.813499999999999
 30
0.0
 70
    32
  0
VERTEX
  5
1E8F
  8
242
  6
CONTINUOUS
 10
52.985300000000002
 20
-13.7455
 30
0.0
 70
    32
  0
VERTEX
  5
1E90
  8
242
  6
CONTINUOUS
 10
52.878700000000002
 20
-13.6737
 30
0.0
 70
    32
  0
VERTEX
  5
1E91
  8
242
  6
CONTINUOUS
 10
52.77709999999999
 20
-13.5983
 30
0.0
 70
    32
  0
VERTEX
  5
1E92
  8
242
  6
CONTINUOUS
 10
52.680999999999997
 20
-13.519500000000001
 30
0.0
 70
    32
  0
VERTEX
  5
1E93
  8
242
  6
CONTINUOUS
 10
52.590400000000002
 20
-13.4374
 30
0.0
 70
    32
  0
VERTEX
  5
1E94
  8
242
  6
CONTINUOUS
 10
52.505600000000001
 20
-13.3523
 30
0.0
 70
    32
  0
VERTEX
  5
1E95
  8
242
  6
CONTINUOUS
 10
52.4268
 20
-13.2643
 30
0.0
 70
    32
  0
VERTEX
  5
1E96
  8
242
  6
CONTINUOUS
 10
52.354199999999999
 20
-13.1737
 30
0.0
 70
    32
  0
VERTEX
  5
1E97
  8
242
  6
CONTINUOUS
 10
52.28799999999999
 20
-13.0807
 30
0.0
 70
    32
  0
VERTEX
  5
1E98
  8
242
  6
CONTINUOUS
 10
52.228400000000001
 20
-12.9855
 30
0.0
 70
    32
  0
VERTEX
  5
1E99
  8
242
  6
CONTINUOUS
 10
52.175400000000003
 20
-12.888400000000001
 30
0.0
 70
    32
  0
VERTEX
  5
1E9A
  8
242
  6
CONTINUOUS
 10
52.129199999999997
 20
-12.7895
 30
0.0
 70
    32
  0
VERTEX
  5
1E9B
  8
242
  6
CONTINUOUS
 10
52.0899
 20
-12.6892
 30
0.0
 70
    32
  0
VERTEX
  5
1E9C
  8
242
  6
CONTINUOUS
 10
52.057600000000001
 20
-12.5876
 30
0.0
 70
    32
  0
VERTEX
  5
1E9D
  8
242
  6
CONTINUOUS
 10
52.032499999999999
 20
-12.484999999999999
 30
0.0
 70
    32
  0
VERTEX
  5
1E9E
  8
242
  6
CONTINUOUS
 10
52.014400000000002
 20
-12.381600000000001
 30
0.0
 70
    32
  0
VERTEX
  5
1E9F
  8
242
  6
CONTINUOUS
 10
52.003599999999992
 20
-12.277799999999999
 30
0.0
 70
    32
  0
VERTEX
  5
1EA0
  8
242
  6
CONTINUOUS
 10
52.0
 20
-12.1737
 30
0.0
 70
    32
  0
SEQEND
  5
1EA1
  8
242
  6
CONTINUOUS
  0
LINE
  5
1EA2
  8
241
  6
CONTINUOUS
 10
47.399999999990541
 20
-17.499999999998181
 30
0.0
 11
47.399999999990541
 21
17.499999999998181
 31
0.0
  0
LINE
  5
1EA3
  8
241
  6
CONTINUOUS
 10
45.999999999996341
 20
-17.499999999998181
 30
0.0
 11
46.000000000003617
 21
17.499999999998181
 31
0.0
  0
LINE
  5
1EA4
  8
241
  6
CONTINUOUS
 10
44.399999999990548
 20
-17.499999999997719
 30
0.0
 11
44.399999999990548
 21
17.499999999998181
 31
0.0
  0
LINE
  5
1EA6
  8
241
  6
CONTINUOUS
 10
62.0
 20
17.499999999991431
 30
0.0
 11
62.0
 21
-17.499999999991431
 31
0.0
  0
LINE
  5
1EA7
  8
240
  6
CONTINUOUS
 10
-90.000000000002686
 20
19.999999999995001
 30
0.0
 11
-90.000000000004576
 21
-20.000000000009091
 31
0.0
  0
LINE
  5
1EAE
  8
240
  6
CONTINUOUS
 10
-90.000000000002686
 20
19.999999999995001
 30
0.0
 11
-80.499999999997243
 21
19.999999999995001
 31
0.0
  0
LINE
  5
1EB5
  8
240
  6
CONTINUOUS
 10
-90.000000000004576
 20
-20.000000000009091
 30
0.0
 11
-80.499999999997243
 21
-20.000000000009091
 31
0.0
  0
LINE
  5
1EC4
  8
241
  6
CONTINUOUS
 10
-45.000000000007283
 20
-20.000000000016751
 30
0.0
 11
-45.00000000000361
 21
19.999999999983999
 31
0.0
  0
LINE
  5
1EC7
  8
241
  6
CONTINUOUS
 10
-29.00000000000729
 20
-20.000000000017671
 30
0.0
 11
-29.00000000000729
 21
19.999999999984919
 31
0.0
  0
LINE
  5
1ECA
  8
241
  6
CONTINUOUS
 10
-42.500000000007269
 20
19.999999999984151
 30
0.0
 11
-42.500000000007269
 21
-20.00000000001689
 31
0.0
  0
LINE
  5
1ECD
  8
241
  6
CONTINUOUS
 10
-31.500000000003642
 20
19.999999999984791
 30
0.0
 11
-31.500000000003642
 21
-20.000000000017529
 31
0.0
  0
POINT
  5
1ED4
  8
0
 10
-10651.24759825888
 20
10372.01693491357
 30
0.0
1001
GENIUS_GENOLIS_13
1002
{
1000
ENT
1005
0
1005
0
1005
1D5E
1005
0
1002
}
1001
GENIUS_GENOENT_13
1002
{
1000
MYREF
1005
1ED4
1002
}
1002
{
1000
GRP
1005
0
1002
}
1001
GENIUS_GENOBJ-N-CRS_13
1002
{
1000
OWNER
1000
GEN
1002
}
1001
GENIUS_GENODEF_13
1002
{
1000
HIER
1070
    10
1002
}
1002
{
1000
MANEDIT
1070
     1
1002
}
1002
{
1000
NOSEL
1070
     0
1002
}
1002
{
1000
BEHIND
1070
     0
1002
}
1002
{
1000
OTHER
1070
     0
1002
}
1002
{
1000
REACTOR
1002
}
  0
ARC
  5
1ED7
  8
240
  6
CONTINUOUS
 10
3.312844316069643
 20
18.50000000000389
 30
0.0
 40
1.0
 50
195.0000000000386
 51
269.9999999999921
1001
GENIUS_GENODEF_13
1002
{
1000
HIER
1070
     0
1002
}
1002
{
1000
MANEDIT
1070
     0
1002
}
1002
{
1000
NOSEL
1070
     0
1002
}
1002
{
1000
BEHIND
1070
     0
1002
}
1002
{
1000
OTHER
1070
     0
1002
}
1002
{
1000
REACTOR
1002
}
1001
GENIUS_GENOBJ-N-FIL_13
1002
{
1000
OWNER
1000
GEN
1002
}
  0
ARC
  5
1ED8
  8
240
  6
CONTINUOUS
 10
3.3128443160699881
 20
-18.500000000003912
 30
0.0
 40
1.0
 50
90.000000000008654
 51
165.00000000001759
1001
GENIUS_GENODEF_13
1002
{
1000
HIER
1070
     0
1002
}
1002
{
1000
MANEDIT
1070
     0
1002
}
1002
{
1000
NOSEL
1070
     0
1002
}
1002
{
1000
BEHIND
1070
     0
1002
}
1002
{
1000
OTHER
1070
     0
1002
}
1002
{
1000
REACTOR
1002
}
1001
GENIUS_GENOBJ-N-FIL_13
1002
{
1000
OWNER
1000
GEN
1002
}
  0
LINE
  5
1EE0
  8
240
  6
CONTINUOUS
 10
-9.0000000000036326
 20
-20.000000000018829
 30
0.0
 11
-9.0000000000036344
 21
-26.500000000012921
 31
0.0
  0
LINE
  5
1EE1
  8
240
  6
CONTINUOUS
 10
-9.0000000000036326
 20
19.999999999986091
 30
0.0
 11
-9.0000000000036344
 21
26.499999999980169
 31
0.0
  0
LINE
  5
1EE2
  8
244
  6
HIDDEN2
 10
22.999999999996358
 20
7.0
 30
0.0
 11
39.999999999996362
 21
-7.0
 31
0.0
  0
LINE
  5
1EE3
  8
244
  6
HIDDEN2
 10
22.999999999996358
 20
-7.0
 30
0.0
 11
39.999999999996362
 21
7.0
 31
0.0
  0
TEXT
  5
1EE4
  8
250
  6
CONTINUOUS
 10
19.217333743937381
 20
-41.501057435246601
 30
0.0
 40
6.0
  1
üá
 50
90.0
  0
TEXT
  5
1EE5
  8
250
  6
CONTINUOUS
 10
19.217333743937381
 20
-34.358200292389462
 30
0.0
 40
6.0
  1
14
 50
90.0
  0
LINE
  5
1F1E
  8
241
  6
CONTINUOUS
 10
2.706286843553241
 20
17.70496035788879
 30
0.0
 11
2.706286843553241
 21
-17.704960357889071
 31
0.0
  0
LINE
  5
1F4C
  8
247
  6
CONTINUOUS
 10
8.7062868435531868
 20
-11.750000000003791
 30
0.0
 11
8.7062868435532437
 21
-7.1153846156738112
 31
0.0
  0
LINE
  5
1F4D
  8
247
  6
CONTINUOUS
 10
6.2062868435532419
 20
-10.954893499991719
 30
0.0
 11
8.3062868434692518
 21
-11.55705881006114
 31
0.0
  0
LINE
  5
1F4E
  8
247
  6
CONTINUOUS
 10
7.2024406896672399
 20
-10.32515140352281
 30
0.0
 11
7.2024406896672399
 21
-11.24053601887082
 31
0.0
  0
ARC
  5
1F4F
  8
247
  6
CONTINUOUS
 10
6.5910059108473433
 20
-10.08726340195059
 30
0.0
 40
0.3876715809326743
 50
72.997889675291987
 51
172.92416621851271
  0
ARC
  5
1F50
  8
247
  6
CONTINUOUS
 10
6.5115099745812568
 20
-10.38247755680789
 30
0.0
 40
0.693304796535877
 50
4.7429368522013968
 51
73.849226273266481
1001
GENIUS_GENOBJ-N-FIL_13
1002
{
1000
OWNER
1000
GEN
1002
}
1001
GENIUS_GENODEF_13
1002
{
1000
HIER
1070
     0
1002
}
1002
{
1000
MANEDIT
1070
     0
1002
}
1002
{
1000
NOSEL
1070
     0
1002
}
1002
{
1000
BEHIND
1070
     0
1002
}
1002
{
1000
OTHER
1070
     0
1002
}
1002
{
1000
REACTOR
1002
}
  0
LINE
  5
1F51
  8
247
  6
CONTINUOUS
 10
8.3062868434692518
 20
-10.64167419471314
 30
0.0
 11
8.3062868434692518
 21
-11.55705881006114
 31
0.0
  0
LINE
  5
1F52
  8
247
  6
CONTINUOUS
 10
6.2062868435532419
 20
-10.95489349999173
 30
0.0
 11
6.2062868435532419
 21
-10.03950888464373
 31
0.0
  0
ARC
  5
1F53
  8
247
  6
CONTINUOUS
 10
7.5937038063211171
 20
-10.378306476270611
 30
0.0
 40
0.394857301075386
 50
65.990941652528775
 51
172.2634434590698
  0
ARC
  5
1F54
  8
247
  6
CONTINUOUS
 10
7.5974871708858132
 20
-10.712446610430691
 30
0.0
 40
0.7123241612361686
 50
5.7019851642581454
 51
77.27733843682222
1001
GENIUS_GENOBJ-N-FIL_13
1002
{
1000
OWNER
1000
GEN
1002
}
1001
GENIUS_GENODEF_13
1002
{
1000
HIER
1070
     0
1002
}
1002
{
1000
MANEDIT
1070
     0
1002
}
1002
{
1000
NOSEL
1070
     0
1002
}
1002
{
1000
BEHIND
1070
     0
1002
}
1002
{
1000
OTHER
1070
     0
1002
}
1002
{
1000
REACTOR
1002
}
  0
LINE
  5
1F55
  8
247
  6
CONTINUOUS
 10
8.3062868434692518
 20
-9.683981887067155
 30
0.0
 11
6.2062868435532419
 21
-9.0818165769977437
 31
0.0
  0
LINE
  5
1F56
  8
247
  6
CONTINUOUS
 10
6.2062868435532419
 20
-7.5856627309117419
 30
0.0
 11
6.2062868435532419
 21
-7.9816783643073634
 31
0.0
  0
LINE
  5
1F57
  8
247
  6
CONTINUOUS
 10
8.3062868434692518
 20
-8.6087396539477439
 30
0.0
 11
8.3062868434692518
 21
-8.1779704231957524
 31
0.0
  0
ARC
  5
1F58
  8
247
  6
CONTINUOUS
 10
7.6645864386366052
 20
-7.3818165770737423
 30
0.0
 40
1.576855057639547
 50
202.35948814152749
 51
254.99324854284589
  0
ARC
  5
1F59
  8
247
  6
CONTINUOUS
 10
6.7721057020913804
 20
-7.8475113661370051
 30
0.0
 40
0.6234706797009447
 50
94.994589319075374
 51
155.16632895730319
1001
GENIUS_GENOBJ-N-FIL_13
1002
{
1000
OWNER
1000
GEN
1002
}
1001
GENIUS_GENODEF_13
1002
{
1000
HIER
1070
     0
1002
}
1002
{
1000
MANEDIT
1070
     0
1002
}
1002
{
1000
NOSEL
1070
     0
1002
}
1002
{
1000
BEHIND
1070
     0
1002
}
1002
{
1000
OTHER
1070
     0
1002
}
1002
{
1000
REACTOR
1002
}
  0
ARC
  5
1F5A
  8
247
  6
CONTINUOUS
 10
7.3683889655226809
 20
-8.4441839510365568
 30
0.0
 40
0.9749472149106983
 50
15.846096555779839
 51
82.325137004169122
  0
ARC
  5
1F5B
  8
247
  6
CONTINUOUS
 10
7.5777572455243103
 20
-8.0352116387759942
 30
0.0
 40
0.9271945638692009
 50
249.71360167049701
 51
321.7887456564099
1001
GENIUS_GENOBJ-N-FIL_13
1002
{
1000
OWNER
1000
GEN
1002
}
1001
GENIUS_GENODEF_13
1002
{
1000
HIER
1070
     0
1002
}
1002
{
1000
MANEDIT
1070
     0
1002
}
1002
{
1000
NOSEL
1070
     0
1002
}
1002
{
1000
BEHIND
1070
     0
1002
}
1002
{
1000
OTHER
1070
     0
1002
}
1002
{
1000
REACTOR
1002
}
  0
LINE
  5
1F5C
  8
247
  6
CONTINUOUS
 10
7.4985945358092172
 20
-7.9625858078197398
 30
0.0
 11
7.4985945358092172
 21
-7.4779704232237441
 31
0.0
  0
ARC
  5
1F5D
  8
247
  6
CONTINUOUS
 10
7.456286843553241
 20
-11.750000000003791
 30
0.0
 40
1.25
 50
180.0
 51
0.0
  0
LINE
  5
1F5E
  8
247
  6
CONTINUOUS
 10
6.2062868435532419
 20
-11.750000000003791
 30
0.0
 11
6.2062868435532419
 21
-11.30384615391778
 31
0.0
  0
ARC
  5
1F5F
  8
247
  6
CONTINUOUS
 10
7.456286843553241
 20
-7.1153846156737961
 30
0.0
 40
1.25
 50
0.0
 51
180.0
  0
VIEWPORT
  5
22
 67
     1
  8
0
 10
261.51769911504419
 20
148.5
 30
0.0
 40
523.0353982300885
 41
297.0
 68
     1
 69
     1
1001
ACAD
1000
MVIEW
1002
{
1070
    16
1010
0.0
1020
0.0
1030
0.0
1010
0.0
1020
0.0
1030
1.0
1040
0.0
1040
297.0
1040
261.51769911504419
1040
148.5
1040
50.0
1040
0.0
1040
0.0
1070
     0
1070
   100
1070
     1
1070
     1
1070
     0
1070
     0
1070
     0
1070
     0
1040
0.0
1040
0.0
1040
0.0
1040
1.0
1040
1.0
1040
10.0
1040
10.0
1070
     0
1002
{
1002
}
1002
}
1001
GENIUS_GENODEF_13
1002
{
1000
HIER
1070
     0
1002
}
1002
{
1000
MANEDIT
1070
     0
1002
}
1002
{
1000
NOSEL
1070
     0
1002
}
1002
{
1000
BEHIND
1070
     0
1002
}
1002
{
1000
OTHER
1070
     0
1002
}
1002
{
1000
REACTOR
1002
}
1001
GENIUS_GENOBJ-N-SDF_13
1002
{
1000
OWNER
1000
GEN
1002
}
1001
GENIUS_GENSCREG_15
1000
PF
1040
1.0
1000
DF
1040
1.0
1000
MIN
1011
0.0
1021
0.0
1031
0.0
1021
0.0
1031
0.0
1000
MAX
1011
523.0353982300885
1021
0.0
1031
0.0
1021
297.0
1031
0.0
1000
FLAGS
1070
     4
  0
ENDSEC
  0
EOF
