  0
SECTION
  2
HEADER
  9
$ACADVER
  1
AC1009
  9
$INSBASE
 10
0.0
 20
0.0
 30
0.0
  9
$EXTMIN
 10
-93.243582850877132
 20
-45.038114459272933
 30
0.0
  9
$EXTMAX
 10
92.0
 20
71.779293050699891
 30
0.0
  9
$LIMMIN
 10
0.0
 20
0.0
  9
$LIMMAX
 10
297.0
 20
210.0
  9
$ORTHOMODE
 70
     1
  9
$REGENMODE
 70
     1
  9
$FILLMODE
 70
     1
  9
$QTEXTMODE
 70
     0
  9
$MIRRTEXT
 70
     1
  9
$DRAGMODE
 70
     2
  9
$LTSCALE
 40
10.0
  9
$OSMODE
 70
    39
  9
$ATTMODE
 70
     1
  9
$TEXTSIZE
 40
3.0
  9
$TRACEWID
 40
1.0
  9
$TEXTSTYLE
  7
YOKO
  9
$CLAYER
  8
240
  9
$CELTYPE
  6
BYLAYER
  9
$CECOLOR
 62
   256
  9
$DIMSCALE
 40
1.0
  9
$DIMASZ
 40
2.2299999999999991
  9
$DIMEXO
 40
0.5
  9
$DIMDLI
 40
7.0
  9
$DIMRND
 40
0.0
  9
$DIMDLE
 40
0.0
  9
$DIMEXE
 40
1.0
  9
$DIMTP
 40
0.0
  9
$DIMTM
 40
0.01
  9
$DIMTXT
 40
2.799999999999998
  9
$DIMCEN
 40
0.0
  9
$DIMTSZ
 40
0.0
  9
$DIMTOL
 70
     0
  9
$DIMLIM
 70
     0
  9
$DIMTIH
 70
     0
  9
$DIMTOH
 70
     0
  9
$DIMSE1
 70
     0
  9
$DIMSE2
 70
     0
  9
$DIMTAD
 70
     3
  9
$DIMZIN
 70
     9
  9
$DIMBLK
  1
OPEN
  9
$DIMASO
 70
     1
  9
$DIMSHO
 70
     1
  9
$DIMPOST
  1

  9
$DIMAPOST
  1

  9
$DIMALT
 70
     0
  9
$DIMALTD
 70
     2
  9
$DIMALTF
 40
25.399999999999999
  9
$DIMLFAC
 40
1.0
  9
$DIMTOFL
 70
     1
  9
$DIMTVP
 40
0.0
  9
$DIMTIX
 70
     1
  9
$DIMSOXD
 70
     0
  9
$DIMSAH
 70
     0
  9
$DIMBLK1
  1

  9
$DIMBLK2
  1

  9
$DIMSTYLE
  2
BIGT
  9
$DIMCLRD
 70
   256
  9
$DIMCLRE
 70
   256
  9
$DIMCLRT
 70
    40
  9
$DIMTFAC
 40
1.0
  9
$DIMGAP
 40
1.0
  9
$LUNITS
 70
     2
  9
$LUPREC
 70
     3
  9
$SKETCHINC
 40
1.0
  9
$FILLETRAD
 40
1.0
  9
$AUNITS
 70
     0
  9
$AUPREC
 70
     3
  9
$MENU
  1
.
  9
$ELEVATION
 40
0.0
  9
$PELEVATION
 40
0.0
  9
$THICKNESS
 40
0.0
  9
$LIMCHECK
 70
     0
  9
$BLIPMODE
 70
     0
  9
$CHAMFERA
 40
0.25
  9
$CHAMFERB
 40
0.25
  9
$SKPOLY
 70
     0
  9
$TDCREATE
 40
2455799.6800869331
  9
$TDUPDATE
 40
2457835.6934373039
  9
$TDINDWG
 40
0.0207298148
  9
$TDUSRTIMER
 40
0.0207297685
  9
$USRTIMER
 70
     1
  9
$ANGBASE
 50
0.0
  9
$ANGDIR
 70
     0
  9
$PDMODE
 70
     1
  9
$PDSIZE
 40
0.0
  9
$PLINEWID
 40
0.0
  9
$COORDS
 70
     1
  9
$SPLFRAME
 70
     0
  9
$SPLINETYPE
 70
     6
  9
$SPLINESEGS
 70
     4
  9
$ATTDIA
 70
     1
  9
$ATTREQ
 70
     1
  9
$HANDLING
 70
     1
  9
$HANDSEED
  5
22C8
  9
$SURFTAB1
 70
     6
  9
$SURFTAB2
 70
     6
  9
$SURFTYPE
 70
     6
  9
$SURFU
 70
     6
  9
$SURFV
 70
     6
  9
$UCSNAME
  2

  9
$UCSORG
 10
0.0
 20
0.0
 30
0.0
  9
$UCSXDIR
 10
1.0
 20
0.0
 30
0.0
  9
$UCSYDIR
 10
0.0
 20
1.0
 30
0.0
  9
$PUCSNAME
  2

  9
$PUCSORG
 10
0.0
 20
0.0
 30
0.0
  9
$PUCSXDIR
 10
1.0
 20
0.0
 30
0.0
  9
$PUCSYDIR
 10
0.0
 20
1.0
 30
0.0
  9
$USERI1
 70
     1
  9
$USERI2
 70
     0
  9
$USERI3
 70
     0
  9
$USERI4
 70
     0
  9
$USERI5
 70
     0
  9
$USERR1
 40
0.0
  9
$USERR2
 40
0.0
  9
$USERR3
 40
0.0
  9
$USERR4
 40
0.0
  9
$USERR5
 40
0.0
  9
$WORLDVIEW
 70
     1
  9
$SHADEDGE
 70
     3
  9
$SHADEDIF
 70
    70
  9
$TILEMODE
 70
     1
  9
$MAXACTVP
 70
    16
  9
$PLIMCHECK
 70
     0
  9
$PEXTMIN
 10
1.0000000000000000E+020
 20
1.0000000000000000E+020
 30
1.0000000000000000E+020
  9
$PEXTMAX
 10
-1.0000000000000000E+020
 20
-1.0000000000000000E+020
 30
-1.0000000000000000E+020
  9
$PLIMMIN
 10
0.0
 20
0.0
  9
$PLIMMAX
 10
420.0
 20
297.0
  9
$UNITMODE
 70
     0
  9
$VISRETAIN
 70
     1
  9
$PLINEGEN
 70
     0
  9
$PSLTSCALE
 70
     1
  0
ENDSEC
  0
SECTION
  2
TABLES
  0
TABLE
  2
VPORT
 70
     1
  0
VPORT
  2
*ACTIVE
 70
     0
 10
0.0
 20
0.0
 11
1.0
 21
1.0
 12
-1.9430020964126691
 22
20.71557631635611
 13
0.0
 23
0.0
 14
7.0
 24
7.0
 15
7.0
 25
7.0
 16
0.0
 26
0.0
 36
1.0
 17
0.0
 27
0.0
 37
0.0
 40
188.74048540941311
 41
1.6795646916565889
 42
50.0
 43
0.0
 44
0.0
 50
0.0
 51
0.0
 71
     0
 72
  2000
 73
     1
 74
     0
 75
     0
 76
     0
 77
     0
 78
     0
  0
ENDTAB
  0
TABLE
  2
LTYPE
 70
    16
  0
LTYPE
  2
CONTINUOUS
 70
     0
  3
Solid line
 72
    65
 73
     0
 40
0.0
  0
LTYPE
  2
CENTER2
 70
     0
  3
___ _ ___ _ ___ _ ___ _ ___ _ ___ _ ___ _ ___ _
 72
    65
 73
     4
 40
1.125
 49
0.75
 49
-0.125
 49
0.125
 49
-0.125
  0
LTYPE
  2
HIDDEN2
 70
     0
  3
_ _ _ _ _ _ _ _ _ _ _ _ _ _ _ _ _ _ _ _ _ _ _ _
 72
    65
 73
     2
 40
0.1875
 49
0.125
 49
-0.0625
  0
LTYPE
  2
PHANTOM2
 70
     0
  3
___ _ _ ___ _ _ ___ _ _ ___ _ _ ___ _ _ ___ _ _
 72
    65
 73
     6
 40
1.25
 49
0.625
 49
-0.125
 49
0.125
 49
-0.125
 49
0.125
 49
-0.125
  0
LTYPE
  2
CENTER
 70
     0
  3
____ _ ____ _ ____ _ ____ _ ____ _ ____ _ ____ 
 72
    65
 73
     4
 40
2.0
 49
1.25
 49
-0.25
 49
0.25
 49
-0.25
  0
LTYPE
  2
AMCONSTR
 70
     0
  3
_______________________
 72
    65
 73
     2
 40
9999.0
 49
9999.0
 49
0.0
  0
LTYPE
  2
HIDDEN
 70
     0
  3
Hidden __ __ __ __ __ __ __ __ __ __ __ __ __ _
 72
    65
 73
     2
 40
9.5249999999999986
 49
6.349999999999997
 49
-3.174999999999998
  0
LTYPE
  2
AMZIGZAG2
 70
     0
  3
/\/-/\/-/\/-/\/-/\/-/\/
 72
    65
 73
     2
 40
0.4401
 49
0.0001
 49
-0.4400000000000002
  0
LTYPE
  2
ACANSTGB
 70
     0
  3
__ . . __ . .
 72
    65
 73
     6
 40
0.35433070866
 49
0.15748031496
 49
-0.03937007874
 49
0.03937007874
 49
-0.03937007874
 49
0.03937007874
 49
-0.03937007874
  0
LTYPE
  2
ACANSTGL
 70
     0
  3
_ _ _ _ _
 72
    65
 73
     2
 40
0.11811023622
 49
0.07874015748
 49
-0.03937007874
  0
LTYPE
  2
AM_ISO02W050
 70
     0
  3
__ __ __ __ __ __ __ __ __ __ __ __ __ __ __
 72
    65
 73
     2
 40
7.5
 49
6.0
 49
-1.5
  0
LTYPE
  2
AM_ISO08W050
 70
     0
  3
____ . ____ . ____ . ____ . ____ . ____ . ____
 72
    65
 73
     4
 40
18.0
 49
12.0
 49
-1.5
 49
3.0
 49
-1.5
  0
LTYPE
  2
AM_ISO09W050
 70
     0
  3
_____ . . _____ . . _____ . . ____ .. ____
 72
    65
 73
     6
 40
22.5
 49
12.0
 49
-1.5
 49
3.0
 49
-1.5
 49
3.0
 49
-1.5
  0
LTYPE
  2
AM_ISO08W050X2
 70
     0
  3
__ . __ . __ . __ . __ . __
 72
    65
 73
     4
 40
9.0
 49
6.0
 49
-0.75
 49
1.5
 49
-0.75
  0
LTYPE
  2
AM_ISO02W050X2
 70
     0
  3
 _ _ _ _ _ _ _ _ _ _ _ _
 72
    65
 73
     2
 40
3.75
 49
3.0
 49
-0.75
  0
LTYPE
  2
AMZIGZAG
 70
     0
  3
/\/-/\/-/\/-/\/-/\/-/\/
 72
    65
 73
     2
 40
11.0001
 49
0.0001
 49
-11.0
  0
ENDTAB
  0
TABLE
  2
LAYER
 70
    11
  0
LAYER
  2
0
 70
     0
 62
     7
  6
CONTINUOUS
  0
LAYER
  2
240
 70
     0
 62
     4
  6
CONTINUOUS
  0
LAYER
  2
DEFPOINTS
 70
     0
 62
     7
  6
CONTINUOUS
  0
LAYER
  2
245
 70
     0
 62
     2
  6
CENTER2
  0
LAYER
  2
241
 70
     0
 62
   211
  6
CONTINUOUS
  0
LAYER
  2
242
 70
     0
 62
     3
  6
CONTINUOUS
  0
LAYER
  2
243
 70
     0
 62
   211
  6
HIDDEN2
  0
LAYER
  2
247
 70
     0
 62
    60
  6
CONTINUOUS
  0
LAYER
  2
250
 70
     0
 62
     3
  6
CONTINUOUS
  0
LAYER
  2
244
 70
     0
 62
     3
  6
HIDDEN2
  0
LAYER
  2
AM_5
 70
     0
 62
     3
  6
CONTINUOUS
  0
ENDTAB
  0
TABLE
  2
STYLE
 70
     6
  0
STYLE
  2
STANDARD
 70
     0
 40
0.0
 41
1.0
 50
0.0
 71
     0
 42
3.0
  3
romans.shx
  4
extfont.shx
  0
STYLE
  2
ANNOTATIVE
 70
     0
 40
0.0
 41
1.0
 50
0.0
 71
     0
 42
0.2
  3
txt
  4

  0
STYLE
  2
YOKO
 70
     0
 40
0.0
 41
1.0
 50
0.0
 71
     0
 42
3.0
  3
romans.shx
  4
extfont.shx
  0
STYLE
  2

 70
     1
 40
0.0
 41
1.0
 50
0.0
 71
     0
 42
3.0
  3
genltshp.shx
  4

  0
STYLE
  2
ACANSGDT
 70
     0
 40
0.0
 41
1.0
 50
0.0
 71
     0
 42
3.0
  3
amgdt.shx
  4

  0
STYLE
  2
ACANSTS
 70
     0
 40
0.0
 41
1.0
 50
0.0
 71
     0
 42
3.0
  3
romans.shx
  4
extfont.shx
  0
ENDTAB
  0
TABLE
  2
VIEW
 70
     0
  0
ENDTAB
  0
TABLE
  2
UCS
 70
     0
  0
ENDTAB
  0
TABLE
  2
APPID
 70
    46
  0
APPID
  2
ACAD
 70
     0
  0
APPID
  2
ACADANNOTATIVE
 70
     0
  0
APPID
  2
GLOBAL
 70
     0
  0
APPID
  2
DETAIL
 70
     0
  0
APPID
  2
GRPNAME
 70
     0
  0
APPID
  2
GPARA
 70
     0
  0
APPID
  2
MCAD_NO_VIS
 70
     0
  0
APPID
  2
ACAD_TEMP_GRAPHIC
 70
     0
  0
APPID
  2
ACATTRIBSERVICES
 70
     0
  0
APPID
  2
GENIUS_GENSCREG_15
 70
     0
  0
APPID
  2
GENIUS_GENODEF_13
 70
     0
  0
APPID
  2
GENIUS_GENOBJ-N-SDF_13
 70
     0
  0
APPID
  2
GENIUS_GENREC_14
 70
     0
  0
APPID
  2
GENIUS_GENOBJ-N-REC_13
 70
     0
  0
APPID
  2
GENIUS_GENDIMSH_14
 70
     0
  0
APPID
  2
GENIUS_GENOBJ-N-DIM_13
 70
     0
  0
APPID
  2
GENIUS_GENDIM_13
 70
     0
  0
APPID
  2
GENIUS_GENDTOL_13
 70
     0
  0
APPID
  2
GENIUS_GENOLIS_13
 70
     0
  0
APPID
  2
GENIUS_GENOENT_13
 70
     0
  0
APPID
  2
GENIUS_GENOBJ-F-FEM_13
 70
     0
  0
APPID
  2
GENIUS_GENOREF_13
 70
     0
  0
APPID
  2
GENIUS_GEFFEM_13
 70
     0
  0
APPID
  2
GENIUS_GEFFEMP_13
 70
     0
  0
APPID
  2
AD_DRAW
 70
     0
  0
APPID
  2
DESIGNERASSEMBLIES
 70
     0
  0
APPID
  2
ACADM_DIM_EDIT
 70
     0
  0
APPID
  2
AMDT_DM_ADJ
 70
     0
  0
APPID
  2
GENIUS_GENOBJ-N-FIL_13
 70
     0
  0
APPID
  2
GENIUS_GENFIL_13
 70
     0
  0
APPID
  2
GENIUS_GENOBJ-N-CHA_13
 70
     0
  0
APPID
  2
GENIUS_GENOBJ-N-CRS_13
 70
     0
  0
APPID
  2
HATCH_TYPE
 70
     0
  0
APPID
  2
HATCH_DISPLAY
 70
     0
  0
APPID
  2
HATCH_DISTANCE
 70
     0
  0
APPID
  2
ACAD_DSTYLE_DIMJAG
 70
     0
  0
APPID
  2
ACAD_DSTYLE_DIMBREAK
 70
     0
  0
APPID
  2
ACAD_NAV_VCDISPLAY
 70
     0
  0
APPID
  2
ACAD_EXEMPT_FROM_CAD_STANDARDS
 70
     0
  0
APPID
  2
ACAD_DSTYLE_DIMINSPECT
 70
     0
  0
APPID
  2
ACAD_MLEADERVER
 70
     0
  0
APPID
  2
ACAD_DSTYLE_DIMARC_LENGTH_
 70
     0
  0
APPID
  2
ACAD_DSTYLE_DIM_LINETYPE
 70
     0
  0
APPID
  2
ACAD_DSTYLE_DIM_EXT1_LINETYPE
 70
     0
  0
APPID
  2
ACAD_DSTYLE_DIM_EXT2_LINETYPE
 70
     0
  0
APPID
  2
ACAECLAYERSTANDARD
 70
     0
  0
ENDTAB
  0
TABLE
  2
DIMSTYLE
 70
    10
  0
DIMSTYLE
  2
STANDARD
 70
     0
  3

  4

  5

  6

  7

 40
1.0
 41
0.18
 42
0.0625
 43
0.38
 44
0.18
 45
0.0
 46
0.0
 47
0.0
 48
0.0
140
0.18
141
0.09
142
0.0
143
25.399999999999999
144
1.0
145
0.0
146
1.0
147
0.09
 71
     0
 72
     0
 73
     1
 74
     1
 75
     0
 76
     0
 77
     0
 78
     0
170
     0
171
     2
172
     0
173
     0
174
     0
175
     0
176
     0
177
     0
178
     0
  0
DIMSTYLE
  2
ANNOTATIVE
 70
     0
  3

  4

  5

  6

  7

 40
1.0
 41
0.18
 42
0.0625
 43
0.38
 44
0.18
 45
0.0
 46
0.0
 47
0.0
 48
0.0
140
0.18
141
0.09
142
0.0
143
25.399999999999999
144
1.0
145
0.0
146
1.0
147
0.09
 71
     0
 72
     0
 73
     1
 74
     1
 75
     0
 76
     0
 77
     0
 78
     0
170
     0
171
     2
172
     0
173
     0
174
     0
175
     0
176
     0
177
     0
178
     0
  0
DIMSTYLE
  2
BIGT
 70
     0
  3

  4

  5

  6

  7

 40
1.0
 41
2.2299999999999991
 42
0.5
 43
7.0
 44
1.0
 45
0.0
 46
0.0
 47
0.0
 48
0.01
140
2.799999999999998
141
0.0
142
0.0
143
25.399999999999999
144
1.0
145
0.0
146
1.0
147
1.0
 71
     0
 72
     0
 73
     0
 74
     0
 75
     0
 76
     0
 77
     3
 78
     9
170
     0
171
     2
172
     1
173
     0
174
     1
175
     0
176
   256
177
   256
178
    40
  0
DIMSTYLE
  2
AM_ANSI
 70
     0
  3

  4
mm
  5

  6

  7

 40
1.0
 41
0.12
 42
0.05
 43
0.5
 44
0.1
 45
0.0
 46
0.0
 47
0.1
 48
0.1
140
0.12
141
0.0
142
0.0
143
25.399999999999999
144
1.0
145
0.0
146
0.71
147
0.06
 71
     0
 72
     0
 73
     1
 74
     1
 75
     0
 76
     0
 77
     0
 78
     7
170
     0
171
     2
172
     0
173
     0
174
     0
175
     0
176
   256
177
   256
178
     2
  0
DIMSTYLE
  2
AM_ANSI$3
 70
     0
  3

  4
mm
  5

  6

  7

 40
1.0
 41
0.12
 42
0.05
 43
0.5
 44
0.1
 45
0.0
 46
0.0
 47
0.1
 48
0.1
140
0.12
141
0.0
142
0.0
143
25.399999999999999
144
1.0
145
0.0
146
0.71
147
0.06
 71
     0
 72
     0
 73
     1
 74
     1
 75
     0
 76
     0
 77
     0
 78
     7
170
     0
171
     2
172
     0
173
     0
174
     0
175
     0
176
   256
177
   256
178
     2
  0
DIMSTYLE
  2
AM_ANSI$4
 70
     0
  3

  4
mm
  5

  6

  7

 40
1.0
 41
0.12
 42
0.05
 43
0.5
 44
0.1
 45
0.0
 46
0.0
 47
0.1
 48
0.1
140
0.12
141
0.0
142
0.0
143
25.399999999999999
144
1.0
145
0.0
146
0.71
147
0.06
 71
     0
 72
     0
 73
     1
 74
     1
 75
     0
 76
     0
 77
     0
 78
     7
170
     0
171
     2
172
     0
173
     0
174
     0
175
     0
176
   256
177
   256
178
     2
  0
DIMSTYLE
  2
AM_ANSI$7
 70
     0
  3

  4
mm
  5

  6

  7

 40
1.0
 41
0.12
 42
0.05
 43
0.5
 44
0.1
 45
0.0
 46
0.0
 47
0.1
 48
0.1
140
0.12
141
0.0
142
0.0
143
25.399999999999999
144
1.0
145
0.0
146
0.71
147
0.06
 71
     0
 72
     0
 73
     1
 74
     1
 75
     0
 76
     0
 77
     0
 78
     7
170
     0
171
     2
172
     0
173
     0
174
     0
175
     0
176
   256
177
   256
178
     2
  0
DIMSTYLE
  2
AM_ANSI$SF
 70
     0
  3

  4
mm
  5

  6

  7

 40
1.0
 41
0.12
 42
0.05
 43
0.5
 44
0.1
 45
0.0
 46
0.0
 47
0.1
 48
0.1
140
0.12
141
0.0
142
0.0
143
25.399999999999999
144
1.0
145
0.0
146
0.71
147
0.06
 71
     0
 72
     0
 73
     1
 74
     1
 75
     1
 76
     1
 77
     0
 78
     7
170
     0
171
     2
172
     0
173
     0
174
     0
175
     0
176
   256
177
   256
178
     2
  0
DIMSTYLE
  2
AM_ANSI$SH
 70
     0
  3

  4
mm
  5

  6

  7

 40
1.0
 41
0.12
 42
0.05
 43
0.5
 44
0.1
 45
0.0
 46
0.0
 47
0.1
 48
0.1
140
0.12
141
0.0
142
0.0
143
25.399999999999999
144
1.0
145
0.0
146
0.71
147
0.06
 71
     0
 72
     0
 73
     1
 74
     1
 75
     1
 76
     1
 77
     0
 78
     7
170
     0
171
     2
172
     0
173
     1
174
     0
175
     0
176
   256
177
   256
178
     2
  0
DIMSTYLE
  2
BIGT$0
 70
     0
  3

  4

  5

  6

  7

 40
1.0
 41
2.2299999999999991
 42
0.5
 43
7.0
 44
1.0
 45
0.0
 46
0.0
 47
0.0
 48
0.01
140
2.799999999999998
141
0.0
142
0.0
143
25.399999999999999
144
1.0
145
0.0
146
1.0
147
1.0
 71
     0
 72
     0
 73
     0
 74
     0
 75
     0
 76
     0
 77
     3
 78
     9
170
     0
171
     2
172
     1
173
     0
174
     1
175
     0
176
   256
177
   256
178
    40
  0
ENDTAB
  0
ENDSEC
  0
SECTION
  2
BLOCKS
  0
BLOCK
  8
0
  2
$MODEL_SPACE
 70
     0
 10
0.0
 20
0.0
 30
0.0
  3
$MODEL_SPACE
  1

  0
ENDBLK
  5
2142
  8
0
  0
BLOCK
 67
     1
  8
0
  2
$PAPER_SPACE
 70
     0
 10
0.0
 20
0.0
 30
0.0
  3
$PAPER_SPACE
  1

  0
ENDBLK
  5
213E
 67
     1
  8
0
  0
BLOCK
  8
0
  2
_OPEN
 70
     0
 10
0.0
 20
0.0
 30
0.0
  3
_OPEN
  1

  0
LINE
  5
18B3
  8
0
  6
BYBLOCK
 62
     0
 10
-1.0
 20
0.1666666666666666
 30
0.0
 11
0.0
 21
0.0
 31
0.0
  0
LINE
  5
18B4
  8
0
  6
BYBLOCK
 62
     0
 10
-1.0
 20
-0.1666666666666666
 30
0.0
 11
0.0
 21
0.0
 31
0.0
  0
LINE
  5
18B5
  8
0
  6
BYBLOCK
 62
     0
 10
0.0
 20
0.0
 30
0.0
 11
-1.0
 21
0.0
 31
0.0
  0
ENDBLK
  5
18B6
  8
0
  0
BLOCK
  8
0
  2
GENAXEH
 70
     0
 10
0.0
 20
0.0
 30
0.0
  3
GENAXEH
  1

  0
LINE
  5
18DE
  8
0
 10
-1.0
 20
0.0
 30
0.0
 11
1.0
 21
0.0
 31
0.0
  0
ENDBLK
  5
18DF
  8
0
  0
BLOCK
  8
0
  2
_ACMFILLEDHALF
 70
     0
 10
0.0
 20
0.0
 30
0.0
  3
_ACMFILLEDHALF
  1

  0
TRACE
  5
1C62
  8
240
 62
     0
 10
-0.8
 20
0.0
 30
0.0
 11
-1.0
 21
0.166666666
 31
0.0
 12
0.0
 22
0.0
 32
0.0
 13
0.0
 23
0.0
 33
0.0
  0
LINE
  5
1C63
  8
240
 62
     0
 10
-1.0
 20
0.0
 30
0.0
 11
-0.8
 21
0.0
 31
0.0
  0
ENDBLK
  5
1C61
  8
0
  0
BLOCK
  8
0
  2
*D6
 70
     1
 10
0.0
 20
0.0
 30
0.0
  3
*D6
  1

  0
LINE
  5
222B
  8
AM_5
 10
64.999999999992582
 20
26.49999999999579
 30
0.0
 11
64.999999999992582
 21
39.028704703122003
 31
0.0
  0
LINE
  5
222C
  8
AM_5
 10
3.9999999999963598
 20
10.99999999999954
 30
0.0
 11
3.999999999996362
 21
39.028704703122003
 31
0.0
  0
LINE
  5
222D
  8
AM_5
 10
62.769999999992578
 20
38.028704703122003
 30
0.0
 11
6.2299999999963607
 21
38.028704703122003
 31
0.0
  0
INSERT
  5
222E
  8
AM_5
  2
_OPEN
 10
64.999999999992582
 20
38.028704703122003
 30
0.0
 41
2.2299999999999991
 42
2.2299999999999991
 43
2.2299999999999991
  0
INSERT
  5
222F
  8
AM_5
  2
_OPEN
 10
3.999999999996362
 20
38.028704703122003
 30
0.0
 41
2.2299999999999991
 42
2.2299999999999991
 43
2.2299999999999991
 50
180.0
  0
INSERT
  5
2230
  8
240
  2
*U8
 10
0.0
 20
0.0
 30
0.0
  0
POINT
  5
2231
  8
DEFPOINTS
 62
     0
 10
64.999999999992582
 20
25.99999999999579
 30
0.0
  0
POINT
  5
2232
  8
DEFPOINTS
 62
     0
 10
3.9999999999963598
 20
10.49999999999954
 30
0.0
  0
POINT
  5
2233
  8
DEFPOINTS
 62
     0
 10
3.999999999996362
 20
38.028704703122003
 30
0.0
  0
ENDBLK
  5
220F
  8
0
  0
BLOCK
  8
0
  2
*D7
 70
     1
 10
0.0
 20
0.0
 30
0.0
  3
*D7
  1

  0
LINE
  5
2253
  8
AM_5
 10
64.999999999992582
 20
26.49999999999579
 30
0.0
 11
64.999999999992582
 21
31.638301181288401
 31
0.0
  0
LINE
  5
2254
  8
AM_5
 10
27.999999999996369
 20
10.99999999999954
 30
0.0
 11
27.999999999996369
 21
31.638301181288401
 31
0.0
  0
LINE
  5
2255
  8
AM_5
 10
62.769999999992578
 20
30.638301181288401
 30
0.0
 11
30.22999999999637
 21
30.638301181288401
 31
0.0
  0
INSERT
  5
2256
  8
AM_5
  2
_OPEN
 10
64.999999999992582
 20
30.638301181288401
 30
0.0
 41
2.2299999999999991
 42
2.2299999999999991
 43
2.2299999999999991
  0
INSERT
  5
2257
  8
AM_5
  2
_OPEN
 10
27.999999999996369
 20
30.638301181288401
 30
0.0
 41
2.2299999999999991
 42
2.2299999999999991
 43
2.2299999999999991
 50
180.0
  0
INSERT
  5
2258
  8
240
  2
*U9
 10
0.0
 20
0.0
 30
0.0
  0
POINT
  5
2259
  8
DEFPOINTS
 62
     0
 10
64.999999999992582
 20
25.99999999999579
 30
0.0
  0
POINT
  5
225A
  8
DEFPOINTS
 62
     0
 10
27.999999999996369
 20
10.49999999999954
 30
0.0
  0
POINT
  5
225B
  8
DEFPOINTS
 62
     0
 10
27.999999999996369
 20
30.638301181288401
 30
0.0
  0
ENDBLK
  5
2237
  8
0
  0
BLOCK
  8
0
  2
*U8
 70
     1
 10
0.0
 20
0.0
 30
0.0
  3
*U8
  1

  0
TEXT
  5
22C1
  8
AM_5
 62
    40
 10
32.166666666661143
 20
39.028704703122003
 30
0.0
 40
2.799999999999998
  1
61
  0
ENDBLK
  5
22C3
  8
0
  0
BLOCK
  8
0
  2
*U9
 70
     1
 10
0.0
 20
0.0
 30
0.0
  3
*U9
  1

  0
TEXT
  5
22C5
  8
AM_5
 62
    40
 10
43.833333333327808
 20
31.638301181288401
 30
0.0
 40
2.799999999999998
  1
37
  0
ENDBLK
  5
22C7
  8
0
  0
ENDSEC
  0
SECTION
  2
ENTITIES
  0
TEXT
  5
1531
  8
241
  6
CONTINUOUS
 10
-90.706710985126833
 20
64.279293050699891
 30
0.0
 40
7.5
  1
MGT36-M36-65
  7
YOKO
  0
LINE
  5
1749
  8
250
 10
0.0
 20
27.49999999999563
 30
0.0
 11
0.0000000000000014
 21
50.0
 31
0.0
  0
LINE
  5
174A
  8
250
 10
65.0
 20
26.49999999999579
 30
0.0
 11
65.0
 21
50.0
 31
0.0
  0
LINE
  5
174B
  8
250
 10
2.2299999999999991
 20
49.0
 30
0.0
 11
62.77000000000001
 21
49.0
 31
0.0
  0
LINE
  5
1750
  8
250
 10
65.499999999992582
 20
25.999999999995911
 30
0.0
 11
92.0
 21
25.9999999999959
 31
0.0
  0
LINE
  5
1751
  8
250
 10
65.500000000000128
 20
-25.999999999996358
 30
0.0
 11
92.0
 21
-25.999999999996369
 31
0.0
  0
LINE
  5
1752
  8
250
 10
91.0
 20
23.7699999999959
 30
0.0
 11
91.0
 21
-23.769999999996369
 31
0.0
  0
LINE
  5
1756
  8
250
 10
65.499999999998394
 20
13.99999999999803
 30
0.0
 11
78.0
 21
13.99999999999803
 31
0.0
  0
LINE
  5
1757
  8
250
 10
65.499999999998394
 20
-14.00000000000167
 30
0.0
 11
78.0
 21
-14.00000000000168
 31
0.0
  0
LINE
  5
1758
  8
250
 10
77.0
 20
11.76999999999803
 30
0.0
 11
77.0
 21
-11.770000000001669
 31
0.0
  0
LINE
  5
175E
  8
250
 10
25.974409909777251
 20
8.2699999999981788
 30
0.0
 11
25.974409909777251
 21
-8.2700000000018168
 31
0.0
  0
LINE
  5
175F
  8
250
 10
25.97440990977724
 20
-45.038114459272933
 30
0.0
 11
25.974409909777251
 21
-10.500000000001821
 31
0.0
  0
TEXT
  5
1763
  8
250
 10
26.642857142857149
 20
50.0
 30
0.0
 40
6.0
  1
65
  0
LINE
  5
1764
  8
250
 10
62.77000000000001
 20
49.37166666666667
 30
0.0
 11
65.0
 21
49.0
 31
0.0
  0
LINE
  5
1765
  8
250
 10
62.77000000000001
 20
48.62833333333333
 30
0.0
 11
65.0
 21
49.0
 31
0.0
  0
LINE
  5
1766
  8
250
 10
65.0
 20
49.0
 30
0.0
 11
62.77000000000001
 21
49.0
 31
0.0
  0
LINE
  5
1767
  8
250
 10
2.2299999999999991
 20
48.62833333333333
 30
0.0
 11
0.0000000000000014
 21
49.0
 31
0.0
  0
LINE
  5
1768
  8
250
 10
2.2299999999999991
 20
49.37166666666667
 30
0.0
 11
0.0000000000000014
 21
49.0
 31
0.0
  0
LINE
  5
1769
  8
250
 10
0.0000000000000014
 20
49.0
 30
0.0
 11
2.2299999999999991
 21
49.0
 31
0.0
  0
TEXT
  5
176A
  8
250
 10
90.0
 20
-8.1428571428573573
 30
0.0
 40
6.0
  1
\U+220552
 50
90.0
  0
LINE
  5
176B
  8
250
 10
91.371666666666684
 20
-23.769999999996369
 30
0.0
 11
91.0
 21
-25.999999999996369
 31
0.0
  0
LINE
  5
176C
  8
250
 10
90.628333333333316
 20
-23.769999999996369
 30
0.0
 11
91.0
 21
-25.999999999996369
 31
0.0
  0
LINE
  5
176D
  8
250
 10
91.0
 20
-25.999999999996369
 30
0.0
 11
91.0
 21
-23.769999999996369
 31
0.0
  0
LINE
  5
176E
  8
250
 10
90.628333333333316
 20
23.7699999999959
 30
0.0
 11
91.0
 21
25.9999999999959
 31
0.0
  0
LINE
  5
176F
  8
250
 10
91.371666666666684
 20
23.7699999999959
 30
0.0
 11
91.0
 21
25.9999999999959
 31
0.0
  0
LINE
  5
1770
  8
250
 10
91.0
 20
25.9999999999959
 30
0.0
 11
91.0
 21
23.7699999999959
 31
0.0
  0
TEXT
  5
1771
  8
250
 10
76.0
 20
-8.1428571428575953
 30
0.0
 40
6.0
  1
\U+220528
 50
90.0
  0
LINE
  5
1772
  8
250
 10
77.371666666666655
 20
-11.770000000001669
 30
0.0
 11
77.0
 21
-14.00000000000168
 31
0.0
  0
LINE
  5
1773
  8
250
 10
76.62833333333333
 20
-11.770000000001669
 30
0.0
 11
77.0
 21
-14.00000000000168
 31
0.0
  0
LINE
  5
1774
  8
250
 10
77.0
 20
-14.00000000000168
 30
0.0
 11
77.0
 21
-11.770000000001669
 31
0.0
  0
LINE
  5
1775
  8
250
 10
76.62833333333333
 20
11.76999999999803
 30
0.0
 11
77.0
 21
13.99999999999803
 31
0.0
  0
LINE
  5
1776
  8
250
 10
77.371666666666655
 20
11.76999999999803
 30
0.0
 11
77.0
 21
13.99999999999803
 31
0.0
  0
LINE
  5
1777
  8
250
 10
77.0
 20
13.99999999999803
 30
0.0
 11
77.0
 21
11.76999999999803
 31
0.0
  0
LINE
  5
1778
  8
250
 10
26.34607657644391
 20
-8.2700000000018168
 30
0.0
 11
25.974409909777251
 21
-10.500000000001821
 31
0.0
  0
LINE
  5
1779
  8
250
 10
25.602743243110581
 20
-8.2700000000018168
 30
0.0
 11
25.974409909777251
 21
-10.500000000001821
 31
0.0
  0
LINE
  5
177A
  8
250
 10
25.974409909777251
 20
-10.500000000001821
 30
0.0
 11
25.974409909777251
 21
-8.2700000000018168
 31
0.0
  0
LINE
  5
177B
  8
250
 10
25.602743243110591
 20
8.2699999999981788
 30
0.0
 11
25.974409909777251
 21
10.499999999998179
 31
0.0
  0
LINE
  5
177C
  8
250
 10
26.34607657644392
 20
8.2699999999981788
 30
0.0
 11
25.974409909777251
 21
10.499999999998179
 31
0.0
  0
LINE
  5
177D
  8
250
 10
25.974409909777251
 20
10.499999999998179
 30
0.0
 11
25.974409909777251
 21
8.2699999999981788
 31
0.0
  0
LINE
  5
1C81
  8
245
  6
CENTER2
 10
-93.243582850877132
 20
-0.0000000000004547
 30
0.0
 11
67.933006104536616
 21
-0.0000000000004547
 31
0.0
  0
LINE
  5
1C84
  8
241
  6
CONTINUOUS
 10
41.999999999959982
 20
25.999999999997272
 30
0.0
 11
41.99999999996362
 21
-25.99999999999773
 31
0.0
  0
LINE
  5
1C86
  8
245
  6
CENTER2
 10
-66.00000000000361
 20
19.999999999979519
 30
0.0
 11
-66.00000000000361
 21
-20.000000000013191
 31
0.0
1001
GENIUS_GENOREF_13
1005
1F21
  0
LINE
  5
1C8C
  8
240
  6
CONTINUOUS
 10
-9.0000000000036344
 20
26.4999999999784
 30
0.0
 11
-7.6262612902774629
 21
26.999999999977291
 31
0.0
  0
LINE
  5
1C8E
  8
240
  6
CONTINUOUS
 10
-0.0000000000051222
 20
26.99999999999562
 30
0.0
 11
-7.6262612902774629
 21
26.999999999977291
 31
0.0
  0
LINE
  5
1C97
  8
240
  6
CONTINUOUS
 10
-51.50000000001819
 20
19.999999999983171
 30
0.0
 11
-9.0000000000036344
 21
19.999999999985612
 31
0.0
  0
LINE
  5
1C98
  8
240
  6
CONTINUOUS
 10
-55.000000000021828
 20
16.499999999983171
 30
0.0
 11
-51.50000000001819
 21
19.999999999983171
 31
0.0
  0
LINE
  5
1C99
  8
240
  6
CONTINUOUS
 10
-55.000000000021828
 20
16.499999999983171
 30
0.0
 11
-66.00000000000361
 21
16.499999999983171
 31
0.0
  0
LINE
  5
1C9A
  8
240
  6
CONTINUOUS
 10
-76.999999999989086
 20
16.499999999981348
 30
0.0
 11
-66.00000000000361
 21
16.49999999995589
 31
0.0
  0
LINE
  5
1C9B
  8
240
  6
CONTINUOUS
 10
-76.999999999989086
 20
16.499999999981348
 30
0.0
 11
-80.499999999989086
 21
19.999999999981348
 31
0.0
  0
LINE
  5
1CA4
  8
241
  6
CONTINUOUS
 10
-9.0000000000036344
 20
19.999999999985612
 30
0.0
 11
-9.0000000000036344
 21
-20.000000000019291
 31
0.0
  0
LINE
  5
1CA6
  8
240
  6
CONTINUOUS
 10
-8.9668613674803055
 20
-26.512061475854811
 30
0.0
 11
-7.6262612902750622
 21
-27.000000000011809
 31
0.0
  0
LINE
  5
1CA8
  8
240
  6
CONTINUOUS
 10
-0.0000000000043004
 20
-26.999999999992969
 30
0.0
 11
-7.6262612902750622
 21
-27.000000000011809
 31
0.0
  0
LINE
  5
1CAE
  8
240
  6
CONTINUOUS
 10
-51.50000000001819
 20
-20.000000000016829
 30
0.0
 11
-9.0000000000036344
 21
-20.000000000019291
 31
0.0
  0
LINE
  5
1CB1
  8
240
  6
CONTINUOUS
 10
-55.000000000021828
 20
-16.500000000016819
 30
0.0
 11
-51.50000000001819
 21
-20.000000000016829
 31
0.0
  0
LINE
  5
1CB2
  8
240
  6
CONTINUOUS
 10
-55.000000000021828
 20
-16.500000000016819
 30
0.0
 11
-66.00000000000361
 21
-16.500000000016819
 31
0.0
  0
LINE
  5
1CB3
  8
240
  6
CONTINUOUS
 10
-76.999999999989086
 20
-16.500000000015
 30
0.0
 11
-66.00000000000361
 21
-16.499999999989541
 31
0.0
  0
LINE
  5
1CB4
  8
240
  6
CONTINUOUS
 10
-76.999999999989086
 20
-16.500000000015
 30
0.0
 11
-80.499999999989086
 21
-20.00000000001501
 31
0.0
  0
LINE
  5
1CB7
  8
241
  6
CONTINUOUS
 10
-7.6262612902773981
 20
-27.000000000010921
 30
0.0
 11
-7.6262612902773981
 21
26.999999999977248
 31
0.0
  0
LINE
  5
1CB9
  8
241
  6
CONTINUOUS
 10
0.2679491924298745
 20
26.000000000003698
 30
0.0
 11
0.2679491924298745
 21
-26.00000000000416
 31
0.0
  0
LINE
  5
1CBB
  8
243
  6
HIDDEN2
 10
3.9999999999963598
 20
10.49999999999954
 30
0.0
 11
27.999999999996369
 21
10.49999999999954
 31
0.0
  0
LINE
  5
1CBC
  8
243
  6
HIDDEN2
 10
27.999999999996369
 20
13.99999999999954
 30
0.0
 11
64.999999999998394
 21
13.99999999999954
 31
0.0
  0
LINE
  5
1CBF
  8
243
  6
HIDDEN2
 10
27.999999999996369
 20
-14.000000000000441
 30
0.0
 11
64.999999999998408
 21
-14.000000000000441
 31
0.0
  0
LINE
  5
1CC0
  8
243
  6
HIDDEN2
 10
3.9999999999963598
 20
-10.500000000000449
 30
0.0
 11
27.999999999996369
 21
-10.500000000000449
 31
0.0
  0
LINE
  5
1CC1
  8
243
  6
HIDDEN2
 10
3.9999999999963598
 20
10.49999999999954
 30
0.0
 11
3.9999999999963598
 21
-10.500000000000449
 31
0.0
  0
LINE
  5
1CC3
  8
243
  6
HIDDEN2
 10
27.999999999996369
 20
-14.000000000000441
 30
0.0
 11
27.999999999996369
 21
13.99999999999954
 31
0.0
  0
LINE
  5
1CC5
  8
240
  6
CONTINUOUS
 10
-0.0000000000051222
 20
26.99999999999562
 30
0.0
 11
0.2679491924298731
 21
26.000000000003698
 31
0.0
  0
CIRCLE
  5
1CCA
  8
241
  6
CONTINUOUS
 10
16.0
 20
-0.0000000000004547
 30
0.0
 40
4.2500000000018172
  0
CIRCLE
  5
1CCB
  8
242
  6
CONTINUOUS
 10
16.0
 20
-0.0000000000004547
 30
0.0
 40
4.9999999999990878
  0
LINE
  5
1CCC
  8
245
  6
CENTER2
 10
16.0
 20
4.9999999999986331
 30
0.0
 11
16.0
 21
-4.9999999999995444
 31
0.0
  0
LINE
  5
1CCD
  8
240
  6
CONTINUOUS
 10
0.2679491924298731
 20
26.000000000003698
 30
0.0
 11
64.999999999992582
 21
25.99999999999579
 31
0.0
  0
LINE
  5
1CCF
  8
241
  6
CONTINUOUS
 10
40.399999999954147
 20
-25.999999999998181
 30
0.0
 11
40.399999999954147
 21
25.99999999999773
 31
0.0
  0
LINE
  5
1CD0
  8
241
  6
CONTINUOUS
 10
38.999999999959982
 20
-25.99999999999773
 30
0.0
 11
38.99999999996362
 21
25.999999999997272
 31
0.0
  0
LINE
  5
1CD1
  8
241
  6
CONTINUOUS
 10
37.399999999954147
 20
-25.999999999998639
 30
0.0
 11
37.399999999954147
 21
25.999999999998181
 31
0.0
  0
LINE
  5
1CD5
  8
241
  6
CONTINUOUS
 10
0.0
 20
-26.999999999992969
 30
0.0
 11
0.0
 21
26.99999999999562
 31
0.0
  0
LINE
  5
1CD8
  8
240
  6
CONTINUOUS
 10
64.999999999992582
 20
25.99999999999579
 30
0.0
 11
65.000000000000142
 21
-25.999999999996309
 31
0.0
  0
LINE
  5
1CD9
  8
240
  6
CONTINUOUS
 10
-0.0000000000043004
 20
-26.999999999992969
 30
0.0
 11
0.2679491924298745
 21
-26.00000000000416
 31
0.0
  0
LINE
  5
1CDE
  8
240
  6
CONTINUOUS
 10
0.2679491924298745
 20
-26.00000000000416
 30
0.0
 11
65.000000000000142
 21
-25.999999999996309
 31
0.0
  0
LINE
  5
1CE0
  8
245
  6
CENTER2
 10
50.0
 20
21.555704683856678
 30
0.0
 11
50.0
 21
14.48463687199137
 31
0.0
  0
POLYLINE
  5
1CE1
  8
241
  6
CONTINUOUS
 66
     1
 10
0.0
 20
0.0
 30
0.0
 70
     8
  0
VERTEX
  5
1CE2
  8
241
  6
CONTINUOUS
 10
45.75
 20
18.1221
 30
0.0
 70
    32
  0
VERTEX
  5
1CE3
  8
241
  6
CONTINUOUS
 10
45.755099999999999
 20
17.974699999999999
 30
0.0
 70
    32
  0
VERTEX
  5
1CE4
  8
241
  6
CONTINUOUS
 10
45.770499999999977
 20
17.8276
 30
0.0
 70
    32
  0
VERTEX
  5
1CE5
  8
241
  6
CONTINUOUS
 10
45.795999999999999
 20
17.6812
 30
0.0
 70
    32
  0
VERTEX
  5
1CE6
  8
241
  6
CONTINUOUS
 10
45.831699999999991
 20
17.535799999999998
 30
0.0
 70
    32
  0
VERTEX
  5
1CE7
  8
241
  6
CONTINUOUS
 10
45.877400000000002
 20
17.3919
 30
0.0
 70
    32
  0
VERTEX
  5
1CE8
  8
241
  6
CONTINUOUS
 10
45.933
 20
17.2498
 30
0.0
 70
    32
  0
VERTEX
  5
1CE9
  8
241
  6
CONTINUOUS
 10
45.99839999999999
 20
17.1097
 30
0.0
 70
    32
  0
VERTEX
  5
1CEA
  8
241
  6
CONTINUOUS
 10
46.073500000000003
 20
16.972100000000001
 30
0.0
 70
    32
  0
VERTEX
  5
1CEB
  8
241
  6
CONTINUOUS
 10
46.158000000000001
 20
16.837199999999999
 30
0.0
 70
    32
  0
VERTEX
  5
1CEC
  8
241
  6
CONTINUOUS
 10
46.251800000000003
 20
16.705500000000001
 30
0.0
 70
    32
  0
VERTEX
  5
1CED
  8
241
  6
CONTINUOUS
 10
46.354700000000001
 20
16.577100000000002
 30
0.0
 70
    32
  0
VERTEX
  5
1CEE
  8
241
  6
CONTINUOUS
 10
46.466299999999997
 20
16.452500000000001
 30
0.0
 70
    32
  0
VERTEX
  5
1CEF
  8
241
  6
CONTINUOUS
 10
46.586399999999998
 20
16.331900000000001
 30
0.0
 70
    32
  0
VERTEX
  5
1CF0
  8
241
  6
CONTINUOUS
 10
46.714700000000001
 20
16.215599999999998
 30
0.0
 70
    32
  0
VERTEX
  5
1CF1
  8
241
  6
CONTINUOUS
 10
46.850999999999999
 20
16.103999999999999
 30
0.0
 70
    32
  0
VERTEX
  5
1CF2
  8
241
  6
CONTINUOUS
 10
46.994799999999998
 20
15.9971
 30
0.0
 70
    32
  0
VERTEX
  5
1CF3
  8
241
  6
CONTINUOUS
 10
47.145899999999997
 20
15.8954
 30
0.0
 70
    32
  0
VERTEX
  5
1CF4
  8
241
  6
CONTINUOUS
 10
47.303800000000003
 20
15.799099999999999
 30
0.0
 70
    32
  0
VERTEX
  5
1CF5
  8
241
  6
CONTINUOUS
 10
47.468299999999999
 20
15.708299999999999
 30
0.0
 70
    32
  0
VERTEX
  5
1CF6
  8
241
  6
CONTINUOUS
 10
47.638800000000003
 20
15.6234
 30
0.0
 70
    32
  0
VERTEX
  5
1CF7
  8
241
  6
CONTINUOUS
 10
47.815099999999987
 20
15.544499999999999
 30
0.0
 70
    32
  0
VERTEX
  5
1CF8
  8
241
  6
CONTINUOUS
 10
47.996600000000001
 20
15.4718
 30
0.0
 70
    32
  0
VERTEX
  5
1CF9
  8
241
  6
CONTINUOUS
 10
48.182899999999997
 20
15.4055
 30
0.0
 70
    32
  0
VERTEX
  5
1CFA
  8
241
  6
CONTINUOUS
 10
48.373600000000003
 20
15.345700000000001
 30
0.0
 70
    32
  0
VERTEX
  5
1CFB
  8
241
  6
CONTINUOUS
 10
48.56819999999999
 20
15.2926
 30
0.0
 70
    32
  0
VERTEX
  5
1CFC
  8
241
  6
CONTINUOUS
 10
48.766300000000001
 20
15.2463
 30
0.0
 70
    32
  0
VERTEX
  5
1CFD
  8
241
  6
CONTINUOUS
 10
48.967300000000002
 20
15.207000000000001
 30
0.0
 70
    32
  0
VERTEX
  5
1CFE
  8
241
  6
CONTINUOUS
 10
49.170900000000003
 20
15.1747
 30
0.0
 70
    32
  0
VERTEX
  5
1CFF
  8
241
  6
CONTINUOUS
 10
49.376399999999997
 20
15.1495
 30
0.0
 70
    32
  0
VERTEX
  5
1D00
  8
241
  6
CONTINUOUS
 10
49.58339999999999
 20
15.131399999999999
 30
0.0
 70
    32
  0
VERTEX
  5
1D01
  8
241
  6
CONTINUOUS
 10
49.791499999999999
 20
15.1205
 30
0.0
 70
    32
  0
VERTEX
  5
1D02
  8
241
  6
CONTINUOUS
 10
50.0
 20
15.116899999999999
 30
0.0
 70
    32
  0
VERTEX
  5
1D03
  8
241
  6
CONTINUOUS
 10
50.208500000000001
 20
15.1205
 30
0.0
 70
    32
  0
VERTEX
  5
1D04
  8
241
  6
CONTINUOUS
 10
50.416600000000003
 20
15.131399999999999
 30
0.0
 70
    32
  0
VERTEX
  5
1D05
  8
241
  6
CONTINUOUS
 10
50.623600000000003
 20
15.1495
 30
0.0
 70
    32
  0
VERTEX
  5
1D06
  8
241
  6
CONTINUOUS
 10
50.829099999999997
 20
15.1747
 30
0.0
 70
    32
  0
VERTEX
  5
1D07
  8
241
  6
CONTINUOUS
 10
51.032699999999998
 20
15.207000000000001
 30
0.0
 70
    32
  0
VERTEX
  5
1D08
  8
241
  6
CONTINUOUS
 10
51.233699999999999
 20
15.2463
 30
0.0
 70
    32
  0
VERTEX
  5
1D09
  8
241
  6
CONTINUOUS
 10
51.431800000000003
 20
15.2926
 30
0.0
 70
    32
  0
VERTEX
  5
1D0A
  8
241
  6
CONTINUOUS
 10
51.62639999999999
 20
15.345700000000001
 30
0.0
 70
    32
  0
VERTEX
  5
1D0B
  8
241
  6
CONTINUOUS
 10
51.817100000000003
 20
15.4055
 30
0.0
 70
    32
  0
VERTEX
  5
1D0C
  8
241
  6
CONTINUOUS
 10
52.003399999999999
 20
15.4718
 30
0.0
 70
    32
  0
VERTEX
  5
1D0D
  8
241
  6
CONTINUOUS
 10
52.184899999999999
 20
15.544499999999999
 30
0.0
 70
    32
  0
VERTEX
  5
1D0E
  8
241
  6
CONTINUOUS
 10
52.36119999999999
 20
15.6234
 30
0.0
 70
    32
  0
VERTEX
  5
1D0F
  8
241
  6
CONTINUOUS
 10
52.531700000000001
 20
15.708299999999999
 30
0.0
 70
    32
  0
VERTEX
  5
1D10
  8
241
  6
CONTINUOUS
 10
52.69619999999999
 20
15.799099999999999
 30
0.0
 70
    32
  0
VERTEX
  5
1D11
  8
241
  6
CONTINUOUS
 10
52.854100000000003
 20
15.8954
 30
0.0
 70
    32
  0
VERTEX
  5
1D12
  8
241
  6
CONTINUOUS
 10
53.005200000000002
 20
15.9971
 30
0.0
 70
    32
  0
VERTEX
  5
1D13
  8
241
  6
CONTINUOUS
 10
53.149000000000001
 20
16.103999999999999
 30
0.0
 70
    32
  0
VERTEX
  5
1D14
  8
241
  6
CONTINUOUS
 10
53.285299999999999
 20
16.215599999999998
 30
0.0
 70
    32
  0
VERTEX
  5
1D15
  8
241
  6
CONTINUOUS
 10
53.413600000000002
 20
16.331900000000001
 30
0.0
 70
    32
  0
VERTEX
  5
1D16
  8
241
  6
CONTINUOUS
 10
53.533700000000003
 20
16.452500000000001
 30
0.0
 70
    32
  0
VERTEX
  5
1D17
  8
241
  6
CONTINUOUS
 10
53.645299999999999
 20
16.577100000000002
 30
0.0
 70
    32
  0
VERTEX
  5
1D18
  8
241
  6
CONTINUOUS
 10
53.74819999999999
 20
16.705500000000001
 30
0.0
 70
    32
  0
VERTEX
  5
1D19
  8
241
  6
CONTINUOUS
 10
53.841999999999992
 20
16.837199999999999
 30
0.0
 70
    32
  0
VERTEX
  5
1D1A
  8
241
  6
CONTINUOUS
 10
53.92649999999999
 20
16.972100000000001
 30
0.0
 70
    32
  0
VERTEX
  5
1D1B
  8
241
  6
CONTINUOUS
 10
54.001600000000003
 20
17.1097
 30
0.0
 70
    32
  0
VERTEX
  5
1D1C
  8
241
  6
CONTINUOUS
 10
54.067
 20
17.2498
 30
0.0
 70
    32
  0
VERTEX
  5
1D1D
  8
241
  6
CONTINUOUS
 10
54.122599999999991
 20
17.3919
 30
0.0
 70
    32
  0
VERTEX
  5
1D1E
  8
241
  6
CONTINUOUS
 10
54.168300000000002
 20
17.535799999999998
 30
0.0
 70
    32
  0
VERTEX
  5
1D1F
  8
241
  6
CONTINUOUS
 10
54.204000000000001
 20
17.6812
 30
0.0
 70
    32
  0
VERTEX
  5
1D20
  8
241
  6
CONTINUOUS
 10
54.229500000000002
 20
17.8276
 30
0.0
 70
    32
  0
VERTEX
  5
1D21
  8
241
  6
CONTINUOUS
 10
54.244900000000001
 20
17.974699999999999
 30
0.0
 70
    32
  0
VERTEX
  5
1D22
  8
241
  6
CONTINUOUS
 10
54.25
 20
18.1221
 30
0.0
 70
    32
  0
VERTEX
  5
1D23
  8
241
  6
CONTINUOUS
 10
54.244900000000001
 20
18.269600000000001
 30
0.0
 70
    32
  0
VERTEX
  5
1D24
  8
241
  6
CONTINUOUS
 10
54.229500000000002
 20
18.416699999999999
 30
0.0
 70
    32
  0
VERTEX
  5
1D25
  8
241
  6
CONTINUOUS
 10
54.204000000000001
 20
18.563099999999999
 30
0.0
 70
    32
  0
VERTEX
  5
1D26
  8
241
  6
CONTINUOUS
 10
54.168300000000002
 20
18.708400000000001
 30
0.0
 70
    32
  0
VERTEX
  5
1D27
  8
241
  6
CONTINUOUS
 10
54.122599999999991
 20
18.8523
 30
0.0
 70
    32
  0
VERTEX
  5
1D28
  8
241
  6
CONTINUOUS
 10
54.067
 20
18.994499999999999
 30
0.0
 70
    32
  0
VERTEX
  5
1D29
  8
241
  6
CONTINUOUS
 10
54.001600000000003
 20
19.134599999999999
 30
0.0
 70
    32
  0
VERTEX
  5
1D2A
  8
241
  6
CONTINUOUS
 10
53.92649999999999
 20
19.272200000000002
 30
0.0
 70
    32
  0
VERTEX
  5
1D2B
  8
241
  6
CONTINUOUS
 10
53.841999999999992
 20
19.407
 30
0.0
 70
    32
  0
VERTEX
  5
1D2C
  8
241
  6
CONTINUOUS
 10
53.74819999999999
 20
19.538799999999998
 30
0.0
 70
    32
  0
VERTEX
  5
1D2D
  8
241
  6
CONTINUOUS
 10
53.645299999999999
 20
19.667100000000001
 30
0.0
 70
    32
  0
VERTEX
  5
1D2E
  8
241
  6
CONTINUOUS
 10
53.533700000000003
 20
19.791699999999999
 30
0.0
 70
    32
  0
VERTEX
  5
1D2F
  8
241
  6
CONTINUOUS
 10
53.413600000000002
 20
19.912299999999998
 30
0.0
 70
    32
  0
VERTEX
  5
1D30
  8
241
  6
CONTINUOUS
 10
53.285299999999999
 20
20.028600000000001
 30
0.0
 70
    32
  0
VERTEX
  5
1D31
  8
241
  6
CONTINUOUS
 10
53.149000000000001
 20
20.1403
 30
0.0
 70
    32
  0
VERTEX
  5
1D32
  8
241
  6
CONTINUOUS
 10
53.005200000000002
 20
20.2471
 30
0.0
 70
    32
  0
VERTEX
  5
1D33
  8
241
  6
CONTINUOUS
 10
52.854100000000003
 20
20.348800000000001
 30
0.0
 70
    32
  0
VERTEX
  5
1D34
  8
241
  6
CONTINUOUS
 10
52.69619999999999
 20
20.4452
 30
0.0
 70
    32
  0
VERTEX
  5
1D35
  8
241
  6
CONTINUOUS
 10
52.531700000000001
 20
20.535900000000002
 30
0.0
 70
    32
  0
VERTEX
  5
1D36
  8
241
  6
CONTINUOUS
 10
52.36119999999999
 20
20.620899999999999
 30
0.0
 70
    32
  0
VERTEX
  5
1D37
  8
241
  6
CONTINUOUS
 10
52.184899999999999
 20
20.6998
 30
0.0
 70
    32
  0
VERTEX
  5
1D38
  8
241
  6
CONTINUOUS
 10
52.003399999999999
 20
20.772500000000001
 30
0.0
 70
    32
  0
VERTEX
  5
1D39
  8
241
  6
CONTINUOUS
 10
51.817100000000003
 20
20.838799999999999
 30
0.0
 70
    32
  0
VERTEX
  5
1D3A
  8
241
  6
CONTINUOUS
 10
51.62639999999999
 20
20.898599999999998
 30
0.0
 70
    32
  0
VERTEX
  5
1D3B
  8
241
  6
CONTINUOUS
 10
51.431800000000003
 20
20.951699999999999
 30
0.0
 70
    32
  0
VERTEX
  5
1D3C
  8
241
  6
CONTINUOUS
 10
51.233699999999999
 20
20.997900000000001
 30
0.0
 70
    32
  0
VERTEX
  5
1D3D
  8
241
  6
CONTINUOUS
 10
51.032699999999998
 20
21.037299999999998
 30
0.0
 70
    32
  0
VERTEX
  5
1D3E
  8
241
  6
CONTINUOUS
 10
50.829099999999997
 20
21.069600000000001
 30
0.0
 70
    32
  0
VERTEX
  5
1D3F
  8
241
  6
CONTINUOUS
 10
50.623600000000003
 20
21.094799999999999
 30
0.0
 70
    32
  0
VERTEX
  5
1D40
  8
241
  6
CONTINUOUS
 10
50.416600000000003
 20
21.1129
 30
0.0
 70
    32
  0
VERTEX
  5
1D41
  8
241
  6
CONTINUOUS
 10
50.208500000000001
 20
21.123699999999999
 30
0.0
 70
    32
  0
VERTEX
  5
1D42
  8
241
  6
CONTINUOUS
 10
50.0
 20
21.127300000000002
 30
0.0
 70
    32
  0
VERTEX
  5
1D43
  8
241
  6
CONTINUOUS
 10
49.791499999999999
 20
21.123699999999999
 30
0.0
 70
    32
  0
VERTEX
  5
1D44
  8
241
  6
CONTINUOUS
 10
49.58339999999999
 20
21.1129
 30
0.0
 70
    32
  0
VERTEX
  5
1D45
  8
241
  6
CONTINUOUS
 10
49.376399999999997
 20
21.094799999999999
 30
0.0
 70
    32
  0
VERTEX
  5
1D46
  8
241
  6
CONTINUOUS
 10
49.170900000000003
 20
21.069600000000001
 30
0.0
 70
    32
  0
VERTEX
  5
1D47
  8
241
  6
CONTINUOUS
 10
48.967300000000002
 20
21.037299999999998
 30
0.0
 70
    32
  0
VERTEX
  5
1D48
  8
241
  6
CONTINUOUS
 10
48.766300000000001
 20
20.997900000000001
 30
0.0
 70
    32
  0
VERTEX
  5
1D49
  8
241
  6
CONTINUOUS
 10
48.56819999999999
 20
20.951699999999999
 30
0.0
 70
    32
  0
VERTEX
  5
1D4A
  8
241
  6
CONTINUOUS
 10
48.373600000000003
 20
20.898599999999998
 30
0.0
 70
    32
  0
VERTEX
  5
1D4B
  8
241
  6
CONTINUOUS
 10
48.182899999999997
 20
20.838799999999999
 30
0.0
 70
    32
  0
VERTEX
  5
1D4C
  8
241
  6
CONTINUOUS
 10
47.996600000000001
 20
20.772500000000001
 30
0.0
 70
    32
  0
VERTEX
  5
1D4D
  8
241
  6
CONTINUOUS
 10
47.815099999999987
 20
20.6998
 30
0.0
 70
    32
  0
VERTEX
  5
1D4E
  8
241
  6
CONTINUOUS
 10
47.638800000000003
 20
20.620899999999999
 30
0.0
 70
    32
  0
VERTEX
  5
1D4F
  8
241
  6
CONTINUOUS
 10
47.468299999999999
 20
20.535900000000002
 30
0.0
 70
    32
  0
VERTEX
  5
1D50
  8
241
  6
CONTINUOUS
 10
47.303800000000003
 20
20.4452
 30
0.0
 70
    32
  0
VERTEX
  5
1D51
  8
241
  6
CONTINUOUS
 10
47.145899999999997
 20
20.348800000000001
 30
0.0
 70
    32
  0
VERTEX
  5
1D52
  8
241
  6
CONTINUOUS
 10
46.994799999999998
 20
20.2471
 30
0.0
 70
    32
  0
VERTEX
  5
1D53
  8
241
  6
CONTINUOUS
 10
46.850999999999999
 20
20.1403
 30
0.0
 70
    32
  0
VERTEX
  5
1D54
  8
241
  6
CONTINUOUS
 10
46.714700000000001
 20
20.028600000000001
 30
0.0
 70
    32
  0
VERTEX
  5
1D55
  8
241
  6
CONTINUOUS
 10
46.586399999999998
 20
19.912299999999998
 30
0.0
 70
    32
  0
VERTEX
  5
1D56
  8
241
  6
CONTINUOUS
 10
46.466299999999997
 20
19.791699999999999
 30
0.0
 70
    32
  0
VERTEX
  5
1D57
  8
241
  6
CONTINUOUS
 10
46.354700000000001
 20
19.667100000000001
 30
0.0
 70
    32
  0
VERTEX
  5
1D58
  8
241
  6
CONTINUOUS
 10
46.251800000000003
 20
19.538799999999998
 30
0.0
 70
    32
  0
VERTEX
  5
1D59
  8
241
  6
CONTINUOUS
 10
46.158000000000001
 20
19.407
 30
0.0
 70
    32
  0
VERTEX
  5
1D5A
  8
241
  6
CONTINUOUS
 10
46.073500000000003
 20
19.272200000000002
 30
0.0
 70
    32
  0
VERTEX
  5
1D5B
  8
241
  6
CONTINUOUS
 10
45.99839999999999
 20
19.134599999999999
 30
0.0
 70
    32
  0
VERTEX
  5
1D5C
  8
241
  6
CONTINUOUS
 10
45.933
 20
18.994499999999999
 30
0.0
 70
    32
  0
VERTEX
  5
1D5D
  8
241
  6
CONTINUOUS
 10
45.877400000000002
 20
18.8523
 30
0.0
 70
    32
  0
VERTEX
  5
1D5E
  8
241
  6
CONTINUOUS
 10
45.831699999999991
 20
18.708400000000001
 30
0.0
 70
    32
  0
VERTEX
  5
1D5F
  8
241
  6
CONTINUOUS
 10
45.795999999999999
 20
18.563099999999999
 30
0.0
 70
    32
  0
VERTEX
  5
1D60
  8
241
  6
CONTINUOUS
 10
45.770499999999977
 20
18.416699999999999
 30
0.0
 70
    32
  0
VERTEX
  5
1D61
  8
241
  6
CONTINUOUS
 10
45.755099999999999
 20
18.269600000000001
 30
0.0
 70
    32
  0
VERTEX
  5
1D62
  8
241
  6
CONTINUOUS
 10
45.75
 20
18.1221
 30
0.0
 70
    32
  0
SEQEND
  5
1D63
  8
241
  6
CONTINUOUS
  0
POLYLINE
  5
1D64
  8
242
  6
CONTINUOUS
 66
     1
 10
0.0
 20
0.0
 30
0.0
 70
     8
  0
VERTEX
  5
1D65
  8
242
  6
CONTINUOUS
 10
45.0
 20
18.020199999999999
 30
0.0
 70
    32
  0
VERTEX
  5
1D66
  8
242
  6
CONTINUOUS
 10
45.006
 20
17.846699999999991
 30
0.0
 70
    32
  0
VERTEX
  5
1D67
  8
242
  6
CONTINUOUS
 10
45.024099999999997
 20
17.6736
 30
0.0
 70
    32
  0
VERTEX
  5
1D68
  8
242
  6
CONTINUOUS
 10
45.054099999999998
 20
17.5014
 30
0.0
 70
    32
  0
VERTEX
  5
1D69
  8
242
  6
CONTINUOUS
 10
45.0961
 20
17.330400000000001
 30
0.0
 70
    32
  0
VERTEX
  5
1D6A
  8
242
  6
CONTINUOUS
 10
45.149799999999999
 20
17.161100000000001
 30
0.0
 70
    32
  0
VERTEX
  5
1D6B
  8
242
  6
CONTINUOUS
 10
45.215299999999999
 20
16.9939
 30
0.0
 70
    32
  0
VERTEX
  5
1D6C
  8
242
  6
CONTINUOUS
 10
45.292299999999997
 20
16.8291
 30
0.0
 70
    32
  0
VERTEX
  5
1D6D
  8
242
  6
CONTINUOUS
 10
45.380600000000001
 20
16.667200000000001
 30
0.0
 70
    32
  0
VERTEX
  5
1D6E
  8
242
  6
CONTINUOUS
 10
45.4801
 20
16.508500000000002
 30
0.0
 70
    32
  0
VERTEX
  5
1D6F
  8
242
  6
CONTINUOUS
 10
45.590400000000002
 20
16.3535
 30
0.0
 70
    32
  0
VERTEX
  5
1D70
  8
242
  6
CONTINUOUS
 10
45.711399999999983
 20
16.202500000000001
 30
0.0
 70
    32
  0
VERTEX
  5
1D71
  8
242
  6
CONTINUOUS
 10
45.842700000000001
 20
16.055900000000001
 30
0.0
 70
    32
  0
VERTEX
  5
1D72
  8
242
  6
CONTINUOUS
 10
45.984000000000002
 20
15.914099999999999
 30
0.0
 70
    32
  0
VERTEX
  5
1D73
  8
242
  6
CONTINUOUS
 10
46.134900000000002
 20
15.7773
 30
0.0
 70
    32
  0
VERTEX
  5
1D74
  8
242
  6
CONTINUOUS
 10
46.295200000000001
 20
15.645899999999999
 30
0.0
 70
    32
  0
VERTEX
  5
1D75
  8
242
  6
CONTINUOUS
 10
46.464500000000001
 20
15.520200000000001
 30
0.0
 70
    32
  0
VERTEX
  5
1D76
  8
242
  6
CONTINUOUS
 10
46.642200000000003
 20
15.400499999999999
 30
0.0
 70
    32
  0
VERTEX
  5
1D77
  8
242
  6
CONTINUOUS
 10
46.828000000000003
 20
15.2872
 30
0.0
 70
    32
  0
VERTEX
  5
1D78
  8
242
  6
CONTINUOUS
 10
47.021500000000003
 20
15.180400000000001
 30
0.0
 70
    32
  0
VERTEX
  5
1D79
  8
242
  6
CONTINUOUS
 10
47.22209999999999
 20
15.080500000000001
 30
0.0
 70
    32
  0
VERTEX
  5
1D7A
  8
242
  6
CONTINUOUS
 10
47.42949999999999
 20
14.9876
 30
0.0
 70
    32
  0
VERTEX
  5
1D7B
  8
242
  6
CONTINUOUS
 10
47.643000000000001
 20
14.902100000000001
 30
0.0
 70
    32
  0
VERTEX
  5
1D7C
  8
242
  6
CONTINUOUS
 10
47.862200000000001
 20
14.8241
 30
0.0
 70
    32
  0
VERTEX
  5
1D7D
  8
242
  6
CONTINUOUS
 10
48.08659999999999
 20
14.7538
 30
0.0
 70
    32
  0
VERTEX
  5
1D7E
  8
242
  6
CONTINUOUS
 10
48.315600000000003
 20
14.6913
 30
0.0
 70
    32
  0
VERTEX
  5
1D7F
  8
242
  6
CONTINUOUS
 10
48.5486
 20
14.636900000000001
 30
0.0
 70
    32
  0
VERTEX
  5
1D80
  8
242
  6
CONTINUOUS
 10
48.7851
 20
14.5906
 30
0.0
 70
    32
  0
VERTEX
  5
1D81
  8
242
  6
CONTINUOUS
 10
49.024500000000003
 20
14.5526
 30
0.0
 70
    32
  0
VERTEX
  5
1D82
  8
242
  6
CONTINUOUS
 10
49.266300000000001
 20
14.5229
 30
0.0
 70
    32
  0
VERTEX
  5
1D83
  8
242
  6
CONTINUOUS
 10
49.509900000000002
 20
14.5017
 30
0.0
 70
    32
  0
VERTEX
  5
1D84
  8
242
  6
CONTINUOUS
 10
49.7547
 20
14.488899999999999
 30
0.0
 70
    32
  0
VERTEX
  5
1D85
  8
242
  6
CONTINUOUS
 10
50.0
 20
14.4846
 30
0.0
 70
    32
  0
VERTEX
  5
1D86
  8
242
  6
CONTINUOUS
 10
50.2453
 20
14.488899999999999
 30
0.0
 70
    32
  0
VERTEX
  5
1D87
  8
242
  6
CONTINUOUS
 10
50.490099999999991
 20
14.5017
 30
0.0
 70
    32
  0
VERTEX
  5
1D88
  8
242
  6
CONTINUOUS
 10
50.733699999999999
 20
14.5229
 30
0.0
 70
    32
  0
VERTEX
  5
1D89
  8
242
  6
CONTINUOUS
 10
50.975499999999997
 20
14.5526
 30
0.0
 70
    32
  0
VERTEX
  5
1D8A
  8
242
  6
CONTINUOUS
 10
51.2149
 20
14.5906
 30
0.0
 70
    32
  0
VERTEX
  5
1D8B
  8
242
  6
CONTINUOUS
 10
51.4514
 20
14.636900000000001
 30
0.0
 70
    32
  0
VERTEX
  5
1D8C
  8
242
  6
CONTINUOUS
 10
51.684399999999997
 20
14.6913
 30
0.0
 70
    32
  0
VERTEX
  5
1D8D
  8
242
  6
CONTINUOUS
 10
51.913400000000003
 20
14.7538
 30
0.0
 70
    32
  0
VERTEX
  5
1D8E
  8
242
  6
CONTINUOUS
 10
52.137799999999991
 20
14.8241
 30
0.0
 70
    32
  0
VERTEX
  5
1D8F
  8
242
  6
CONTINUOUS
 10
52.356999999999999
 20
14.902100000000001
 30
0.0
 70
    32
  0
VERTEX
  5
1D90
  8
242
  6
CONTINUOUS
 10
52.570500000000003
 20
14.9876
 30
0.0
 70
    32
  0
VERTEX
  5
1D91
  8
242
  6
CONTINUOUS
 10
52.777900000000002
 20
15.080500000000001
 30
0.0
 70
    32
  0
VERTEX
  5
1D92
  8
242
  6
CONTINUOUS
 10
52.978499999999997
 20
15.180400000000001
 30
0.0
 70
    32
  0
VERTEX
  5
1D93
  8
242
  6
CONTINUOUS
 10
53.17199999999999
 20
15.2872
 30
0.0
 70
    32
  0
VERTEX
  5
1D94
  8
242
  6
CONTINUOUS
 10
53.35779999999999
 20
15.400499999999999
 30
0.0
 70
    32
  0
VERTEX
  5
1D95
  8
242
  6
CONTINUOUS
 10
53.535499999999999
 20
15.520200000000001
 30
0.0
 70
    32
  0
VERTEX
  5
1D96
  8
242
  6
CONTINUOUS
 10
53.704799999999999
 20
15.645899999999999
 30
0.0
 70
    32
  0
VERTEX
  5
1D97
  8
242
  6
CONTINUOUS
 10
53.865099999999998
 20
15.7773
 30
0.0
 70
    32
  0
VERTEX
  5
1D98
  8
242
  6
CONTINUOUS
 10
54.015999999999998
 20
15.914099999999999
 30
0.0
 70
    32
  0
VERTEX
  5
1D99
  8
242
  6
CONTINUOUS
 10
54.157299999999992
 20
16.055900000000001
 30
0.0
 70
    32
  0
VERTEX
  5
1D9A
  8
242
  6
CONTINUOUS
 10
54.288600000000002
 20
16.202500000000001
 30
0.0
 70
    32
  0
VERTEX
  5
1D9B
  8
242
  6
CONTINUOUS
 10
54.409599999999998
 20
16.3535
 30
0.0
 70
    32
  0
VERTEX
  5
1D9C
  8
242
  6
CONTINUOUS
 10
54.5199
 20
16.508500000000002
 30
0.0
 70
    32
  0
VERTEX
  5
1D9D
  8
242
  6
CONTINUOUS
 10
54.619399999999999
 20
16.667200000000001
 30
0.0
 70
    32
  0
VERTEX
  5
1D9E
  8
242
  6
CONTINUOUS
 10
54.707700000000003
 20
16.8291
 30
0.0
 70
    32
  0
VERTEX
  5
1D9F
  8
242
  6
CONTINUOUS
 10
54.784700000000001
 20
16.9939
 30
0.0
 70
    32
  0
VERTEX
  5
1DA0
  8
242
  6
CONTINUOUS
 10
54.850200000000001
 20
17.161100000000001
 30
0.0
 70
    32
  0
VERTEX
  5
1DA1
  8
242
  6
CONTINUOUS
 10
54.9039
 20
17.330400000000001
 30
0.0
 70
    32
  0
VERTEX
  5
1DA2
  8
242
  6
CONTINUOUS
 10
54.945900000000002
 20
17.5014
 30
0.0
 70
    32
  0
VERTEX
  5
1DA3
  8
242
  6
CONTINUOUS
 10
54.975900000000003
 20
17.6736
 30
0.0
 70
    32
  0
VERTEX
  5
1DA4
  8
242
  6
CONTINUOUS
 10
54.994
 20
17.846699999999991
 30
0.0
 70
    32
  0
VERTEX
  5
1DA5
  8
242
  6
CONTINUOUS
 10
55.0
 20
18.020199999999999
 30
0.0
 70
    32
  0
VERTEX
  5
1DA6
  8
242
  6
CONTINUOUS
 10
54.994
 20
18.1937
 30
0.0
 70
    32
  0
VERTEX
  5
1DA7
  8
242
  6
CONTINUOUS
 10
54.975900000000003
 20
18.366700000000002
 30
0.0
 70
    32
  0
VERTEX
  5
1DA8
  8
242
  6
CONTINUOUS
 10
54.945900000000002
 20
18.538900000000002
 30
0.0
 70
    32
  0
VERTEX
  5
1DA9
  8
242
  6
CONTINUOUS
 10
54.9039
 20
18.709900000000001
 30
0.0
 70
    32
  0
VERTEX
  5
1DAA
  8
242
  6
CONTINUOUS
 10
54.850200000000001
 20
18.879200000000001
 30
0.0
 70
    32
  0
VERTEX
  5
1DAB
  8
242
  6
CONTINUOUS
 10
54.784700000000001
 20
19.046500000000002
 30
0.0
 70
    32
  0
VERTEX
  5
1DAC
  8
242
  6
CONTINUOUS
 10
54.707700000000003
 20
19.211300000000001
 30
0.0
 70
    32
  0
VERTEX
  5
1DAD
  8
242
  6
CONTINUOUS
 10
54.619399999999999
 20
19.373200000000001
 30
0.0
 70
    32
  0
VERTEX
  5
1DAE
  8
242
  6
CONTINUOUS
 10
54.5199
 20
19.5318
 30
0.0
 70
    32
  0
VERTEX
  5
1DAF
  8
242
  6
CONTINUOUS
 10
54.409599999999998
 20
19.686800000000002
 30
0.0
 70
    32
  0
VERTEX
  5
1DB0
  8
242
  6
CONTINUOUS
 10
54.288600000000002
 20
19.837800000000001
 30
0.0
 70
    32
  0
VERTEX
  5
1DB1
  8
242
  6
CONTINUOUS
 10
54.157299999999992
 20
19.984400000000001
 30
0.0
 70
    32
  0
VERTEX
  5
1DB2
  8
242
  6
CONTINUOUS
 10
54.015999999999998
 20
20.126300000000001
 30
0.0
 70
    32
  0
VERTEX
  5
1DB3
  8
242
  6
CONTINUOUS
 10
53.865099999999998
 20
20.263100000000001
 30
0.0
 70
    32
  0
VERTEX
  5
1DB4
  8
242
  6
CONTINUOUS
 10
53.704799999999999
 20
20.394500000000001
 30
0.0
 70
    32
  0
VERTEX
  5
1DB5
  8
242
  6
CONTINUOUS
 10
53.535499999999999
 20
20.520199999999999
 30
0.0
 70
    32
  0
VERTEX
  5
1DB6
  8
242
  6
CONTINUOUS
 10
53.35779999999999
 20
20.639800000000001
 30
0.0
 70
    32
  0
VERTEX
  5
1DB7
  8
242
  6
CONTINUOUS
 10
53.17199999999999
 20
20.7532
 30
0.0
 70
    32
  0
VERTEX
  5
1DB8
  8
242
  6
CONTINUOUS
 10
52.978499999999997
 20
20.8599
 30
0.0
 70
    32
  0
VERTEX
  5
1DB9
  8
242
  6
CONTINUOUS
 10
52.777900000000002
 20
20.959900000000001
 30
0.0
 70
    32
  0
VERTEX
  5
1DBA
  8
242
  6
CONTINUOUS
 10
52.570500000000003
 20
21.052700000000002
 30
0.0
 70
    32
  0
VERTEX
  5
1DBB
  8
242
  6
CONTINUOUS
 10
52.356999999999999
 20
21.138200000000001
 30
0.0
 70
    32
  0
VERTEX
  5
1DBC
  8
242
  6
CONTINUOUS
 10
52.137799999999991
 20
21.2163
 30
0.0
 70
    32
  0
VERTEX
  5
1DBD
  8
242
  6
CONTINUOUS
 10
51.913400000000003
 20
21.2866
 30
0.0
 70
    32
  0
VERTEX
  5
1DBE
  8
242
  6
CONTINUOUS
 10
51.684399999999997
 20
21.349
 30
0.0
 70
    32
  0
VERTEX
  5
1DBF
  8
242
  6
CONTINUOUS
 10
51.4514
 20
21.403500000000001
 30
0.0
 70
    32
  0
VERTEX
  5
1DC0
  8
242
  6
CONTINUOUS
 10
51.2149
 20
21.4497
 30
0.0
 70
    32
  0
VERTEX
  5
1DC1
  8
242
  6
CONTINUOUS
 10
50.975499999999997
 20
21.4878
 30
0.0
 70
    32
  0
VERTEX
  5
1DC2
  8
242
  6
CONTINUOUS
 10
50.733699999999999
 20
21.517399999999999
 30
0.0
 70
    32
  0
VERTEX
  5
1DC3
  8
242
  6
CONTINUOUS
 10
50.490099999999991
 20
21.538699999999999
 30
0.0
 70
    32
  0
VERTEX
  5
1DC4
  8
242
  6
CONTINUOUS
 10
50.2453
 20
21.551400000000001
 30
0.0
 70
    32
  0
VERTEX
  5
1DC5
  8
242
  6
CONTINUOUS
 10
50.0
 20
21.555700000000002
 30
0.0
 70
    32
  0
VERTEX
  5
1DC6
  8
242
  6
CONTINUOUS
 10
49.7547
 20
21.551400000000001
 30
0.0
 70
    32
  0
VERTEX
  5
1DC7
  8
242
  6
CONTINUOUS
 10
49.509900000000002
 20
21.538699999999999
 30
0.0
 70
    32
  0
VERTEX
  5
1DC8
  8
242
  6
CONTINUOUS
 10
49.266300000000001
 20
21.517399999999999
 30
0.0
 70
    32
  0
VERTEX
  5
1DC9
  8
242
  6
CONTINUOUS
 10
49.024500000000003
 20
21.4878
 30
0.0
 70
    32
  0
VERTEX
  5
1DCA
  8
242
  6
CONTINUOUS
 10
48.7851
 20
21.4497
 30
0.0
 70
    32
  0
VERTEX
  5
1DCB
  8
242
  6
CONTINUOUS
 10
48.5486
 20
21.403500000000001
 30
0.0
 70
    32
  0
VERTEX
  5
1DCC
  8
242
  6
CONTINUOUS
 10
48.315600000000003
 20
21.349
 30
0.0
 70
    32
  0
VERTEX
  5
1DCD
  8
242
  6
CONTINUOUS
 10
48.08659999999999
 20
21.2866
 30
0.0
 70
    32
  0
VERTEX
  5
1DCE
  8
242
  6
CONTINUOUS
 10
47.862200000000001
 20
21.2163
 30
0.0
 70
    32
  0
VERTEX
  5
1DCF
  8
242
  6
CONTINUOUS
 10
47.643000000000001
 20
21.138200000000001
 30
0.0
 70
    32
  0
VERTEX
  5
1DD0
  8
242
  6
CONTINUOUS
 10
47.42949999999999
 20
21.052700000000002
 30
0.0
 70
    32
  0
VERTEX
  5
1DD1
  8
242
  6
CONTINUOUS
 10
47.22209999999999
 20
20.959900000000001
 30
0.0
 70
    32
  0
VERTEX
  5
1DD2
  8
242
  6
CONTINUOUS
 10
47.021500000000003
 20
20.8599
 30
0.0
 70
    32
  0
VERTEX
  5
1DD3
  8
242
  6
CONTINUOUS
 10
46.828000000000003
 20
20.7532
 30
0.0
 70
    32
  0
VERTEX
  5
1DD4
  8
242
  6
CONTINUOUS
 10
46.642200000000003
 20
20.639800000000001
 30
0.0
 70
    32
  0
VERTEX
  5
1DD5
  8
242
  6
CONTINUOUS
 10
46.464500000000001
 20
20.520199999999999
 30
0.0
 70
    32
  0
VERTEX
  5
1DD6
  8
242
  6
CONTINUOUS
 10
46.295200000000001
 20
20.394500000000001
 30
0.0
 70
    32
  0
VERTEX
  5
1DD7
  8
242
  6
CONTINUOUS
 10
46.134900000000002
 20
20.263100000000001
 30
0.0
 70
    32
  0
VERTEX
  5
1DD8
  8
242
  6
CONTINUOUS
 10
45.984000000000002
 20
20.126300000000001
 30
0.0
 70
    32
  0
VERTEX
  5
1DD9
  8
242
  6
CONTINUOUS
 10
45.842700000000001
 20
19.984400000000001
 30
0.0
 70
    32
  0
VERTEX
  5
1DDA
  8
242
  6
CONTINUOUS
 10
45.711399999999983
 20
19.837800000000001
 30
0.0
 70
    32
  0
VERTEX
  5
1DDB
  8
242
  6
CONTINUOUS
 10
45.590400000000002
 20
19.686800000000002
 30
0.0
 70
    32
  0
VERTEX
  5
1DDC
  8
242
  6
CONTINUOUS
 10
45.4801
 20
19.5318
 30
0.0
 70
    32
  0
VERTEX
  5
1DDD
  8
242
  6
CONTINUOUS
 10
45.380600000000001
 20
19.373200000000001
 30
0.0
 70
    32
  0
VERTEX
  5
1DDE
  8
242
  6
CONTINUOUS
 10
45.292299999999997
 20
19.211300000000001
 30
0.0
 70
    32
  0
VERTEX
  5
1DDF
  8
242
  6
CONTINUOUS
 10
45.215299999999999
 20
19.046500000000002
 30
0.0
 70
    32
  0
VERTEX
  5
1DE0
  8
242
  6
CONTINUOUS
 10
45.149799999999999
 20
18.879200000000001
 30
0.0
 70
    32
  0
VERTEX
  5
1DE1
  8
242
  6
CONTINUOUS
 10
45.0961
 20
18.709900000000001
 30
0.0
 70
    32
  0
VERTEX
  5
1DE2
  8
242
  6
CONTINUOUS
 10
45.054099999999998
 20
18.538900000000002
 30
0.0
 70
    32
  0
VERTEX
  5
1DE3
  8
242
  6
CONTINUOUS
 10
45.024099999999997
 20
18.366700000000002
 30
0.0
 70
    32
  0
VERTEX
  5
1DE4
  8
242
  6
CONTINUOUS
 10
45.006
 20
18.1937
 30
0.0
 70
    32
  0
VERTEX
  5
1DE5
  8
242
  6
CONTINUOUS
 10
45.0
 20
18.020199999999999
 30
0.0
 70
    32
  0
SEQEND
  5
1DE6
  8
242
  6
CONTINUOUS
  0
LINE
  5
1DE7
  8
245
  6
CENTER2
 10
45.0
 20
18.384776310847879
 30
0.0
 11
55.0
 21
18.384776310847879
 31
0.0
  0
LINE
  5
1DE8
  8
245
  6
CENTER2
 10
50.0
 20
-21.555704683857591
 30
0.0
 11
50.0
 21
-14.484636871992279
 31
0.0
  0
POLYLINE
  5
1DE9
  8
241
  6
CONTINUOUS
 66
     1
 10
0.0
 20
0.0
 30
0.0
 70
     8
  0
VERTEX
  5
1DEA
  8
241
  6
CONTINUOUS
 10
45.75
 20
-18.1221
 30
0.0
 70
    32
  0
VERTEX
  5
1DEB
  8
241
  6
CONTINUOUS
 10
45.755099999999999
 20
-17.974699999999999
 30
0.0
 70
    32
  0
VERTEX
  5
1DEC
  8
241
  6
CONTINUOUS
 10
45.770499999999977
 20
-17.8276
 30
0.0
 70
    32
  0
VERTEX
  5
1DED
  8
241
  6
CONTINUOUS
 10
45.795999999999999
 20
-17.6812
 30
0.0
 70
    32
  0
VERTEX
  5
1DEE
  8
241
  6
CONTINUOUS
 10
45.831699999999991
 20
-17.535799999999998
 30
0.0
 70
    32
  0
VERTEX
  5
1DEF
  8
241
  6
CONTINUOUS
 10
45.877400000000002
 20
-17.3919
 30
0.0
 70
    32
  0
VERTEX
  5
1DF0
  8
241
  6
CONTINUOUS
 10
45.933
 20
-17.2498
 30
0.0
 70
    32
  0
VERTEX
  5
1DF1
  8
241
  6
CONTINUOUS
 10
45.99839999999999
 20
-17.1097
 30
0.0
 70
    32
  0
VERTEX
  5
1DF2
  8
241
  6
CONTINUOUS
 10
46.073500000000003
 20
-16.972100000000001
 30
0.0
 70
    32
  0
VERTEX
  5
1DF3
  8
241
  6
CONTINUOUS
 10
46.158000000000001
 20
-16.837199999999999
 30
0.0
 70
    32
  0
VERTEX
  5
1DF4
  8
241
  6
CONTINUOUS
 10
46.251800000000003
 20
-16.705500000000001
 30
0.0
 70
    32
  0
VERTEX
  5
1DF5
  8
241
  6
CONTINUOUS
 10
46.354700000000001
 20
-16.577100000000002
 30
0.0
 70
    32
  0
VERTEX
  5
1DF6
  8
241
  6
CONTINUOUS
 10
46.466299999999997
 20
-16.452500000000001
 30
0.0
 70
    32
  0
VERTEX
  5
1DF7
  8
241
  6
CONTINUOUS
 10
46.586399999999998
 20
-16.331900000000001
 30
0.0
 70
    32
  0
VERTEX
  5
1DF8
  8
241
  6
CONTINUOUS
 10
46.714700000000001
 20
-16.215599999999998
 30
0.0
 70
    32
  0
VERTEX
  5
1DF9
  8
241
  6
CONTINUOUS
 10
46.850999999999999
 20
-16.103999999999999
 30
0.0
 70
    32
  0
VERTEX
  5
1DFA
  8
241
  6
CONTINUOUS
 10
46.994799999999998
 20
-15.9971
 30
0.0
 70
    32
  0
VERTEX
  5
1DFB
  8
241
  6
CONTINUOUS
 10
47.145899999999997
 20
-15.8954
 30
0.0
 70
    32
  0
VERTEX
  5
1DFC
  8
241
  6
CONTINUOUS
 10
47.303800000000003
 20
-15.799099999999999
 30
0.0
 70
    32
  0
VERTEX
  5
1DFD
  8
241
  6
CONTINUOUS
 10
47.468299999999999
 20
-15.708299999999999
 30
0.0
 70
    32
  0
VERTEX
  5
1DFE
  8
241
  6
CONTINUOUS
 10
47.638800000000003
 20
-15.6234
 30
0.0
 70
    32
  0
VERTEX
  5
1DFF
  8
241
  6
CONTINUOUS
 10
47.815099999999987
 20
-15.544499999999999
 30
0.0
 70
    32
  0
VERTEX
  5
1E00
  8
241
  6
CONTINUOUS
 10
47.996600000000001
 20
-15.4718
 30
0.0
 70
    32
  0
VERTEX
  5
1E01
  8
241
  6
CONTINUOUS
 10
48.182899999999997
 20
-15.4055
 30
0.0
 70
    32
  0
VERTEX
  5
1E02
  8
241
  6
CONTINUOUS
 10
48.373600000000003
 20
-15.345700000000001
 30
0.0
 70
    32
  0
VERTEX
  5
1E03
  8
241
  6
CONTINUOUS
 10
48.56819999999999
 20
-15.2926
 30
0.0
 70
    32
  0
VERTEX
  5
1E04
  8
241
  6
CONTINUOUS
 10
48.766300000000001
 20
-15.2463
 30
0.0
 70
    32
  0
VERTEX
  5
1E05
  8
241
  6
CONTINUOUS
 10
48.967300000000002
 20
-15.207000000000001
 30
0.0
 70
    32
  0
VERTEX
  5
1E06
  8
241
  6
CONTINUOUS
 10
49.170900000000003
 20
-15.1747
 30
0.0
 70
    32
  0
VERTEX
  5
1E07
  8
241
  6
CONTINUOUS
 10
49.376399999999997
 20
-15.1495
 30
0.0
 70
    32
  0
VERTEX
  5
1E08
  8
241
  6
CONTINUOUS
 10
49.58339999999999
 20
-15.131399999999999
 30
0.0
 70
    32
  0
VERTEX
  5
1E09
  8
241
  6
CONTINUOUS
 10
49.791499999999999
 20
-15.1205
 30
0.0
 70
    32
  0
VERTEX
  5
1E0A
  8
241
  6
CONTINUOUS
 10
50.0
 20
-15.116899999999999
 30
0.0
 70
    32
  0
VERTEX
  5
1E0B
  8
241
  6
CONTINUOUS
 10
50.208500000000001
 20
-15.1205
 30
0.0
 70
    32
  0
VERTEX
  5
1E0C
  8
241
  6
CONTINUOUS
 10
50.416600000000003
 20
-15.131399999999999
 30
0.0
 70
    32
  0
VERTEX
  5
1E0D
  8
241
  6
CONTINUOUS
 10
50.623600000000003
 20
-15.1495
 30
0.0
 70
    32
  0
VERTEX
  5
1E0E
  8
241
  6
CONTINUOUS
 10
50.829099999999997
 20
-15.1747
 30
0.0
 70
    32
  0
VERTEX
  5
1E0F
  8
241
  6
CONTINUOUS
 10
51.032699999999998
 20
-15.207000000000001
 30
0.0
 70
    32
  0
VERTEX
  5
1E10
  8
241
  6
CONTINUOUS
 10
51.233699999999999
 20
-15.2463
 30
0.0
 70
    32
  0
VERTEX
  5
1E11
  8
241
  6
CONTINUOUS
 10
51.431800000000003
 20
-15.2926
 30
0.0
 70
    32
  0
VERTEX
  5
1E12
  8
241
  6
CONTINUOUS
 10
51.62639999999999
 20
-15.345700000000001
 30
0.0
 70
    32
  0
VERTEX
  5
1E13
  8
241
  6
CONTINUOUS
 10
51.817100000000003
 20
-15.4055
 30
0.0
 70
    32
  0
VERTEX
  5
1E14
  8
241
  6
CONTINUOUS
 10
52.003399999999999
 20
-15.4718
 30
0.0
 70
    32
  0
VERTEX
  5
1E15
  8
241
  6
CONTINUOUS
 10
52.184899999999999
 20
-15.544499999999999
 30
0.0
 70
    32
  0
VERTEX
  5
1E16
  8
241
  6
CONTINUOUS
 10
52.36119999999999
 20
-15.6234
 30
0.0
 70
    32
  0
VERTEX
  5
1E17
  8
241
  6
CONTINUOUS
 10
52.531700000000001
 20
-15.708299999999999
 30
0.0
 70
    32
  0
VERTEX
  5
1E18
  8
241
  6
CONTINUOUS
 10
52.69619999999999
 20
-15.799099999999999
 30
0.0
 70
    32
  0
VERTEX
  5
1E19
  8
241
  6
CONTINUOUS
 10
52.854100000000003
 20
-15.8954
 30
0.0
 70
    32
  0
VERTEX
  5
1E1A
  8
241
  6
CONTINUOUS
 10
53.005200000000002
 20
-15.9971
 30
0.0
 70
    32
  0
VERTEX
  5
1E1B
  8
241
  6
CONTINUOUS
 10
53.149000000000001
 20
-16.103999999999999
 30
0.0
 70
    32
  0
VERTEX
  5
1E1C
  8
241
  6
CONTINUOUS
 10
53.285299999999999
 20
-16.215599999999998
 30
0.0
 70
    32
  0
VERTEX
  5
1E1D
  8
241
  6
CONTINUOUS
 10
53.413600000000002
 20
-16.331900000000001
 30
0.0
 70
    32
  0
VERTEX
  5
1E1E
  8
241
  6
CONTINUOUS
 10
53.533700000000003
 20
-16.452500000000001
 30
0.0
 70
    32
  0
VERTEX
  5
1E1F
  8
241
  6
CONTINUOUS
 10
53.645299999999999
 20
-16.577100000000002
 30
0.0
 70
    32
  0
VERTEX
  5
1E20
  8
241
  6
CONTINUOUS
 10
53.74819999999999
 20
-16.705500000000001
 30
0.0
 70
    32
  0
VERTEX
  5
1E21
  8
241
  6
CONTINUOUS
 10
53.841999999999992
 20
-16.837199999999999
 30
0.0
 70
    32
  0
VERTEX
  5
1E22
  8
241
  6
CONTINUOUS
 10
53.92649999999999
 20
-16.972100000000001
 30
0.0
 70
    32
  0
VERTEX
  5
1E23
  8
241
  6
CONTINUOUS
 10
54.001600000000003
 20
-17.1097
 30
0.0
 70
    32
  0
VERTEX
  5
1E24
  8
241
  6
CONTINUOUS
 10
54.067
 20
-17.2498
 30
0.0
 70
    32
  0
VERTEX
  5
1E25
  8
241
  6
CONTINUOUS
 10
54.122599999999991
 20
-17.3919
 30
0.0
 70
    32
  0
VERTEX
  5
1E26
  8
241
  6
CONTINUOUS
 10
54.168300000000002
 20
-17.535799999999998
 30
0.0
 70
    32
  0
VERTEX
  5
1E27
  8
241
  6
CONTINUOUS
 10
54.204000000000001
 20
-17.6812
 30
0.0
 70
    32
  0
VERTEX
  5
1E28
  8
241
  6
CONTINUOUS
 10
54.229500000000002
 20
-17.8276
 30
0.0
 70
    32
  0
VERTEX
  5
1E29
  8
241
  6
CONTINUOUS
 10
54.244900000000001
 20
-17.974699999999999
 30
0.0
 70
    32
  0
VERTEX
  5
1E2A
  8
241
  6
CONTINUOUS
 10
54.25
 20
-18.1221
 30
0.0
 70
    32
  0
VERTEX
  5
1E2B
  8
241
  6
CONTINUOUS
 10
54.244900000000001
 20
-18.269600000000001
 30
0.0
 70
    32
  0
VERTEX
  5
1E2C
  8
241
  6
CONTINUOUS
 10
54.229500000000002
 20
-18.416699999999999
 30
0.0
 70
    32
  0
VERTEX
  5
1E2D
  8
241
  6
CONTINUOUS
 10
54.204000000000001
 20
-18.563099999999999
 30
0.0
 70
    32
  0
VERTEX
  5
1E2E
  8
241
  6
CONTINUOUS
 10
54.168300000000002
 20
-18.708400000000001
 30
0.0
 70
    32
  0
VERTEX
  5
1E2F
  8
241
  6
CONTINUOUS
 10
54.122599999999991
 20
-18.8523
 30
0.0
 70
    32
  0
VERTEX
  5
1E30
  8
241
  6
CONTINUOUS
 10
54.067
 20
-18.994499999999999
 30
0.0
 70
    32
  0
VERTEX
  5
1E31
  8
241
  6
CONTINUOUS
 10
54.001600000000003
 20
-19.134599999999999
 30
0.0
 70
    32
  0
VERTEX
  5
1E32
  8
241
  6
CONTINUOUS
 10
53.92649999999999
 20
-19.272200000000002
 30
0.0
 70
    32
  0
VERTEX
  5
1E33
  8
241
  6
CONTINUOUS
 10
53.841999999999992
 20
-19.407
 30
0.0
 70
    32
  0
VERTEX
  5
1E34
  8
241
  6
CONTINUOUS
 10
53.74819999999999
 20
-19.538799999999998
 30
0.0
 70
    32
  0
VERTEX
  5
1E35
  8
241
  6
CONTINUOUS
 10
53.645299999999999
 20
-19.667100000000001
 30
0.0
 70
    32
  0
VERTEX
  5
1E36
  8
241
  6
CONTINUOUS
 10
53.533700000000003
 20
-19.791699999999999
 30
0.0
 70
    32
  0
VERTEX
  5
1E37
  8
241
  6
CONTINUOUS
 10
53.413600000000002
 20
-19.912299999999998
 30
0.0
 70
    32
  0
VERTEX
  5
1E38
  8
241
  6
CONTINUOUS
 10
53.285299999999999
 20
-20.028600000000001
 30
0.0
 70
    32
  0
VERTEX
  5
1E39
  8
241
  6
CONTINUOUS
 10
53.149000000000001
 20
-20.1403
 30
0.0
 70
    32
  0
VERTEX
  5
1E3A
  8
241
  6
CONTINUOUS
 10
53.005200000000002
 20
-20.2471
 30
0.0
 70
    32
  0
VERTEX
  5
1E3B
  8
241
  6
CONTINUOUS
 10
52.854100000000003
 20
-20.348800000000001
 30
0.0
 70
    32
  0
VERTEX
  5
1E3C
  8
241
  6
CONTINUOUS
 10
52.69619999999999
 20
-20.4452
 30
0.0
 70
    32
  0
VERTEX
  5
1E3D
  8
241
  6
CONTINUOUS
 10
52.531700000000001
 20
-20.535900000000002
 30
0.0
 70
    32
  0
VERTEX
  5
1E3E
  8
241
  6
CONTINUOUS
 10
52.36119999999999
 20
-20.620899999999999
 30
0.0
 70
    32
  0
VERTEX
  5
1E3F
  8
241
  6
CONTINUOUS
 10
52.184899999999999
 20
-20.6998
 30
0.0
 70
    32
  0
VERTEX
  5
1E40
  8
241
  6
CONTINUOUS
 10
52.003399999999999
 20
-20.772500000000001
 30
0.0
 70
    32
  0
VERTEX
  5
1E41
  8
241
  6
CONTINUOUS
 10
51.817100000000003
 20
-20.838799999999999
 30
0.0
 70
    32
  0
VERTEX
  5
1E42
  8
241
  6
CONTINUOUS
 10
51.62639999999999
 20
-20.898599999999998
 30
0.0
 70
    32
  0
VERTEX
  5
1E43
  8
241
  6
CONTINUOUS
 10
51.431800000000003
 20
-20.951699999999999
 30
0.0
 70
    32
  0
VERTEX
  5
1E44
  8
241
  6
CONTINUOUS
 10
51.233699999999999
 20
-20.997900000000001
 30
0.0
 70
    32
  0
VERTEX
  5
1E45
  8
241
  6
CONTINUOUS
 10
51.032699999999998
 20
-21.037299999999998
 30
0.0
 70
    32
  0
VERTEX
  5
1E46
  8
241
  6
CONTINUOUS
 10
50.829099999999997
 20
-21.069600000000001
 30
0.0
 70
    32
  0
VERTEX
  5
1E47
  8
241
  6
CONTINUOUS
 10
50.623600000000003
 20
-21.094799999999999
 30
0.0
 70
    32
  0
VERTEX
  5
1E48
  8
241
  6
CONTINUOUS
 10
50.416600000000003
 20
-21.1129
 30
0.0
 70
    32
  0
VERTEX
  5
1E49
  8
241
  6
CONTINUOUS
 10
50.208500000000001
 20
-21.123699999999999
 30
0.0
 70
    32
  0
VERTEX
  5
1E4A
  8
241
  6
CONTINUOUS
 10
50.0
 20
-21.127300000000002
 30
0.0
 70
    32
  0
VERTEX
  5
1E4B
  8
241
  6
CONTINUOUS
 10
49.791499999999999
 20
-21.123699999999999
 30
0.0
 70
    32
  0
VERTEX
  5
1E4C
  8
241
  6
CONTINUOUS
 10
49.58339999999999
 20
-21.1129
 30
0.0
 70
    32
  0
VERTEX
  5
1E4D
  8
241
  6
CONTINUOUS
 10
49.376399999999997
 20
-21.094799999999999
 30
0.0
 70
    32
  0
VERTEX
  5
1E4E
  8
241
  6
CONTINUOUS
 10
49.170900000000003
 20
-21.069600000000001
 30
0.0
 70
    32
  0
VERTEX
  5
1E4F
  8
241
  6
CONTINUOUS
 10
48.967300000000002
 20
-21.037299999999998
 30
0.0
 70
    32
  0
VERTEX
  5
1E50
  8
241
  6
CONTINUOUS
 10
48.766300000000001
 20
-20.997900000000001
 30
0.0
 70
    32
  0
VERTEX
  5
1E51
  8
241
  6
CONTINUOUS
 10
48.56819999999999
 20
-20.951699999999999
 30
0.0
 70
    32
  0
VERTEX
  5
1E52
  8
241
  6
CONTINUOUS
 10
48.373600000000003
 20
-20.898599999999998
 30
0.0
 70
    32
  0
VERTEX
  5
1E53
  8
241
  6
CONTINUOUS
 10
48.182899999999997
 20
-20.838799999999999
 30
0.0
 70
    32
  0
VERTEX
  5
1E54
  8
241
  6
CONTINUOUS
 10
47.996600000000001
 20
-20.772500000000001
 30
0.0
 70
    32
  0
VERTEX
  5
1E55
  8
241
  6
CONTINUOUS
 10
47.815099999999987
 20
-20.6998
 30
0.0
 70
    32
  0
VERTEX
  5
1E56
  8
241
  6
CONTINUOUS
 10
47.638800000000003
 20
-20.620899999999999
 30
0.0
 70
    32
  0
VERTEX
  5
1E57
  8
241
  6
CONTINUOUS
 10
47.468299999999999
 20
-20.535900000000002
 30
0.0
 70
    32
  0
VERTEX
  5
1E58
  8
241
  6
CONTINUOUS
 10
47.303800000000003
 20
-20.4452
 30
0.0
 70
    32
  0
VERTEX
  5
1E59
  8
241
  6
CONTINUOUS
 10
47.145899999999997
 20
-20.348800000000001
 30
0.0
 70
    32
  0
VERTEX
  5
1E5A
  8
241
  6
CONTINUOUS
 10
46.994799999999998
 20
-20.2471
 30
0.0
 70
    32
  0
VERTEX
  5
1E5B
  8
241
  6
CONTINUOUS
 10
46.850999999999999
 20
-20.1403
 30
0.0
 70
    32
  0
VERTEX
  5
1E5C
  8
241
  6
CONTINUOUS
 10
46.714700000000001
 20
-20.028600000000001
 30
0.0
 70
    32
  0
VERTEX
  5
1E5D
  8
241
  6
CONTINUOUS
 10
46.586399999999998
 20
-19.912299999999998
 30
0.0
 70
    32
  0
VERTEX
  5
1E5E
  8
241
  6
CONTINUOUS
 10
46.466299999999997
 20
-19.791699999999999
 30
0.0
 70
    32
  0
VERTEX
  5
1E5F
  8
241
  6
CONTINUOUS
 10
46.354700000000001
 20
-19.667100000000001
 30
0.0
 70
    32
  0
VERTEX
  5
1E60
  8
241
  6
CONTINUOUS
 10
46.251800000000003
 20
-19.538799999999998
 30
0.0
 70
    32
  0
VERTEX
  5
1E61
  8
241
  6
CONTINUOUS
 10
46.158000000000001
 20
-19.407
 30
0.0
 70
    32
  0
VERTEX
  5
1E62
  8
241
  6
CONTINUOUS
 10
46.073500000000003
 20
-19.272200000000002
 30
0.0
 70
    32
  0
VERTEX
  5
1E63
  8
241
  6
CONTINUOUS
 10
45.99839999999999
 20
-19.134599999999999
 30
0.0
 70
    32
  0
VERTEX
  5
1E64
  8
241
  6
CONTINUOUS
 10
45.933
 20
-18.994499999999999
 30
0.0
 70
    32
  0
VERTEX
  5
1E65
  8
241
  6
CONTINUOUS
 10
45.877400000000002
 20
-18.8523
 30
0.0
 70
    32
  0
VERTEX
  5
1E66
  8
241
  6
CONTINUOUS
 10
45.831699999999991
 20
-18.708400000000001
 30
0.0
 70
    32
  0
VERTEX
  5
1E67
  8
241
  6
CONTINUOUS
 10
45.795999999999999
 20
-18.563099999999999
 30
0.0
 70
    32
  0
VERTEX
  5
1E68
  8
241
  6
CONTINUOUS
 10
45.770499999999977
 20
-18.416699999999999
 30
0.0
 70
    32
  0
VERTEX
  5
1E69
  8
241
  6
CONTINUOUS
 10
45.755099999999999
 20
-18.269600000000001
 30
0.0
 70
    32
  0
VERTEX
  5
1E6A
  8
241
  6
CONTINUOUS
 10
45.75
 20
-18.1221
 30
0.0
 70
    32
  0
SEQEND
  5
1E6B
  8
241
  6
CONTINUOUS
  0
POLYLINE
  5
1E6C
  8
242
  6
CONTINUOUS
 66
     1
 10
0.0
 20
0.0
 30
0.0
 70
     8
  0
VERTEX
  5
1E6D
  8
242
  6
CONTINUOUS
 10
45.0
 20
-18.020199999999999
 30
0.0
 70
    32
  0
VERTEX
  5
1E6E
  8
242
  6
CONTINUOUS
 10
45.006
 20
-17.846699999999991
 30
0.0
 70
    32
  0
VERTEX
  5
1E6F
  8
242
  6
CONTINUOUS
 10
45.024099999999997
 20
-17.6736
 30
0.0
 70
    32
  0
VERTEX
  5
1E70
  8
242
  6
CONTINUOUS
 10
45.054099999999998
 20
-17.5014
 30
0.0
 70
    32
  0
VERTEX
  5
1E71
  8
242
  6
CONTINUOUS
 10
45.0961
 20
-17.330400000000001
 30
0.0
 70
    32
  0
VERTEX
  5
1E72
  8
242
  6
CONTINUOUS
 10
45.149799999999999
 20
-17.161100000000001
 30
0.0
 70
    32
  0
VERTEX
  5
1E73
  8
242
  6
CONTINUOUS
 10
45.215299999999999
 20
-16.9939
 30
0.0
 70
    32
  0
VERTEX
  5
1E74
  8
242
  6
CONTINUOUS
 10
45.292299999999997
 20
-16.8291
 30
0.0
 70
    32
  0
VERTEX
  5
1E75
  8
242
  6
CONTINUOUS
 10
45.380600000000001
 20
-16.667200000000001
 30
0.0
 70
    32
  0
VERTEX
  5
1E76
  8
242
  6
CONTINUOUS
 10
45.4801
 20
-16.508500000000002
 30
0.0
 70
    32
  0
VERTEX
  5
1E77
  8
242
  6
CONTINUOUS
 10
45.590400000000002
 20
-16.3535
 30
0.0
 70
    32
  0
VERTEX
  5
1E78
  8
242
  6
CONTINUOUS
 10
45.711399999999983
 20
-16.202500000000001
 30
0.0
 70
    32
  0
VERTEX
  5
1E79
  8
242
  6
CONTINUOUS
 10
45.842700000000001
 20
-16.055900000000001
 30
0.0
 70
    32
  0
VERTEX
  5
1E7A
  8
242
  6
CONTINUOUS
 10
45.984000000000002
 20
-15.914099999999999
 30
0.0
 70
    32
  0
VERTEX
  5
1E7B
  8
242
  6
CONTINUOUS
 10
46.134900000000002
 20
-15.7773
 30
0.0
 70
    32
  0
VERTEX
  5
1E7C
  8
242
  6
CONTINUOUS
 10
46.295200000000001
 20
-15.645899999999999
 30
0.0
 70
    32
  0
VERTEX
  5
1E7D
  8
242
  6
CONTINUOUS
 10
46.464500000000001
 20
-15.520200000000001
 30
0.0
 70
    32
  0
VERTEX
  5
1E7E
  8
242
  6
CONTINUOUS
 10
46.642200000000003
 20
-15.400499999999999
 30
0.0
 70
    32
  0
VERTEX
  5
1E7F
  8
242
  6
CONTINUOUS
 10
46.828000000000003
 20
-15.2872
 30
0.0
 70
    32
  0
VERTEX
  5
1E80
  8
242
  6
CONTINUOUS
 10
47.021500000000003
 20
-15.180400000000001
 30
0.0
 70
    32
  0
VERTEX
  5
1E81
  8
242
  6
CONTINUOUS
 10
47.22209999999999
 20
-15.080500000000001
 30
0.0
 70
    32
  0
VERTEX
  5
1E82
  8
242
  6
CONTINUOUS
 10
47.42949999999999
 20
-14.9876
 30
0.0
 70
    32
  0
VERTEX
  5
1E83
  8
242
  6
CONTINUOUS
 10
47.643000000000001
 20
-14.902100000000001
 30
0.0
 70
    32
  0
VERTEX
  5
1E84
  8
242
  6
CONTINUOUS
 10
47.862200000000001
 20
-14.8241
 30
0.0
 70
    32
  0
VERTEX
  5
1E85
  8
242
  6
CONTINUOUS
 10
48.08659999999999
 20
-14.7538
 30
0.0
 70
    32
  0
VERTEX
  5
1E86
  8
242
  6
CONTINUOUS
 10
48.315600000000003
 20
-14.6913
 30
0.0
 70
    32
  0
VERTEX
  5
1E87
  8
242
  6
CONTINUOUS
 10
48.5486
 20
-14.636900000000001
 30
0.0
 70
    32
  0
VERTEX
  5
1E88
  8
242
  6
CONTINUOUS
 10
48.7851
 20
-14.5906
 30
0.0
 70
    32
  0
VERTEX
  5
1E89
  8
242
  6
CONTINUOUS
 10
49.024500000000003
 20
-14.5526
 30
0.0
 70
    32
  0
VERTEX
  5
1E8A
  8
242
  6
CONTINUOUS
 10
49.266300000000001
 20
-14.5229
 30
0.0
 70
    32
  0
VERTEX
  5
1E8B
  8
242
  6
CONTINUOUS
 10
49.509900000000002
 20
-14.5017
 30
0.0
 70
    32
  0
VERTEX
  5
1E8C
  8
242
  6
CONTINUOUS
 10
49.7547
 20
-14.488899999999999
 30
0.0
 70
    32
  0
VERTEX
  5
1E8D
  8
242
  6
CONTINUOUS
 10
50.0
 20
-14.4846
 30
0.0
 70
    32
  0
VERTEX
  5
1E8E
  8
242
  6
CONTINUOUS
 10
50.2453
 20
-14.488899999999999
 30
0.0
 70
    32
  0
VERTEX
  5
1E8F
  8
242
  6
CONTINUOUS
 10
50.490099999999991
 20
-14.5017
 30
0.0
 70
    32
  0
VERTEX
  5
1E90
  8
242
  6
CONTINUOUS
 10
50.733699999999999
 20
-14.5229
 30
0.0
 70
    32
  0
VERTEX
  5
1E91
  8
242
  6
CONTINUOUS
 10
50.975499999999997
 20
-14.5526
 30
0.0
 70
    32
  0
VERTEX
  5
1E92
  8
242
  6
CONTINUOUS
 10
51.2149
 20
-14.5906
 30
0.0
 70
    32
  0
VERTEX
  5
1E93
  8
242
  6
CONTINUOUS
 10
51.4514
 20
-14.636900000000001
 30
0.0
 70
    32
  0
VERTEX
  5
1E94
  8
242
  6
CONTINUOUS
 10
51.684399999999997
 20
-14.6913
 30
0.0
 70
    32
  0
VERTEX
  5
1E95
  8
242
  6
CONTINUOUS
 10
51.913400000000003
 20
-14.7538
 30
0.0
 70
    32
  0
VERTEX
  5
1E96
  8
242
  6
CONTINUOUS
 10
52.137799999999991
 20
-14.8241
 30
0.0
 70
    32
  0
VERTEX
  5
1E97
  8
242
  6
CONTINUOUS
 10
52.356999999999999
 20
-14.902100000000001
 30
0.0
 70
    32
  0
VERTEX
  5
1E98
  8
242
  6
CONTINUOUS
 10
52.570500000000003
 20
-14.9876
 30
0.0
 70
    32
  0
VERTEX
  5
1E99
  8
242
  6
CONTINUOUS
 10
52.777900000000002
 20
-15.080500000000001
 30
0.0
 70
    32
  0
VERTEX
  5
1E9A
  8
242
  6
CONTINUOUS
 10
52.978499999999997
 20
-15.180400000000001
 30
0.0
 70
    32
  0
VERTEX
  5
1E9B
  8
242
  6
CONTINUOUS
 10
53.17199999999999
 20
-15.2872
 30
0.0
 70
    32
  0
VERTEX
  5
1E9C
  8
242
  6
CONTINUOUS
 10
53.35779999999999
 20
-15.400499999999999
 30
0.0
 70
    32
  0
VERTEX
  5
1E9D
  8
242
  6
CONTINUOUS
 10
53.535499999999999
 20
-15.520200000000001
 30
0.0
 70
    32
  0
VERTEX
  5
1E9E
  8
242
  6
CONTINUOUS
 10
53.704799999999999
 20
-15.645899999999999
 30
0.0
 70
    32
  0
VERTEX
  5
1E9F
  8
242
  6
CONTINUOUS
 10
53.865099999999998
 20
-15.7773
 30
0.0
 70
    32
  0
VERTEX
  5
1EA0
  8
242
  6
CONTINUOUS
 10
54.015999999999998
 20
-15.914099999999999
 30
0.0
 70
    32
  0
VERTEX
  5
1EA1
  8
242
  6
CONTINUOUS
 10
54.157299999999992
 20
-16.055900000000001
 30
0.0
 70
    32
  0
VERTEX
  5
1EA2
  8
242
  6
CONTINUOUS
 10
54.288600000000002
 20
-16.202500000000001
 30
0.0
 70
    32
  0
VERTEX
  5
1EA3
  8
242
  6
CONTINUOUS
 10
54.409599999999998
 20
-16.3535
 30
0.0
 70
    32
  0
VERTEX
  5
1EA4
  8
242
  6
CONTINUOUS
 10
54.5199
 20
-16.508500000000002
 30
0.0
 70
    32
  0
VERTEX
  5
1EA5
  8
242
  6
CONTINUOUS
 10
54.619399999999999
 20
-16.667200000000001
 30
0.0
 70
    32
  0
VERTEX
  5
1EA6
  8
242
  6
CONTINUOUS
 10
54.707700000000003
 20
-16.8291
 30
0.0
 70
    32
  0
VERTEX
  5
1EA7
  8
242
  6
CONTINUOUS
 10
54.784700000000001
 20
-16.9939
 30
0.0
 70
    32
  0
VERTEX
  5
1EA8
  8
242
  6
CONTINUOUS
 10
54.850200000000001
 20
-17.161100000000001
 30
0.0
 70
    32
  0
VERTEX
  5
1EA9
  8
242
  6
CONTINUOUS
 10
54.9039
 20
-17.330400000000001
 30
0.0
 70
    32
  0
VERTEX
  5
1EAA
  8
242
  6
CONTINUOUS
 10
54.945900000000002
 20
-17.5014
 30
0.0
 70
    32
  0
VERTEX
  5
1EAB
  8
242
  6
CONTINUOUS
 10
54.975900000000003
 20
-17.6736
 30
0.0
 70
    32
  0
VERTEX
  5
1EAC
  8
242
  6
CONTINUOUS
 10
54.994
 20
-17.846699999999991
 30
0.0
 70
    32
  0
VERTEX
  5
1EAD
  8
242
  6
CONTINUOUS
 10
55.0
 20
-18.020199999999999
 30
0.0
 70
    32
  0
VERTEX
  5
1EAE
  8
242
  6
CONTINUOUS
 10
54.994
 20
-18.1937
 30
0.0
 70
    32
  0
VERTEX
  5
1EAF
  8
242
  6
CONTINUOUS
 10
54.975900000000003
 20
-18.366700000000002
 30
0.0
 70
    32
  0
VERTEX
  5
1EB0
  8
242
  6
CONTINUOUS
 10
54.945900000000002
 20
-18.538900000000002
 30
0.0
 70
    32
  0
VERTEX
  5
1EB1
  8
242
  6
CONTINUOUS
 10
54.9039
 20
-18.709900000000001
 30
0.0
 70
    32
  0
VERTEX
  5
1EB2
  8
242
  6
CONTINUOUS
 10
54.850200000000001
 20
-18.879200000000001
 30
0.0
 70
    32
  0
VERTEX
  5
1EB3
  8
242
  6
CONTINUOUS
 10
54.784700000000001
 20
-19.046500000000002
 30
0.0
 70
    32
  0
VERTEX
  5
1EB4
  8
242
  6
CONTINUOUS
 10
54.707700000000003
 20
-19.211300000000001
 30
0.0
 70
    32
  0
VERTEX
  5
1EB5
  8
242
  6
CONTINUOUS
 10
54.619399999999999
 20
-19.373200000000001
 30
0.0
 70
    32
  0
VERTEX
  5
1EB6
  8
242
  6
CONTINUOUS
 10
54.5199
 20
-19.5318
 30
0.0
 70
    32
  0
VERTEX
  5
1EB7
  8
242
  6
CONTINUOUS
 10
54.409599999999998
 20
-19.686800000000002
 30
0.0
 70
    32
  0
VERTEX
  5
1EB8
  8
242
  6
CONTINUOUS
 10
54.288600000000002
 20
-19.837800000000001
 30
0.0
 70
    32
  0
VERTEX
  5
1EB9
  8
242
  6
CONTINUOUS
 10
54.157299999999992
 20
-19.984400000000001
 30
0.0
 70
    32
  0
VERTEX
  5
1EBA
  8
242
  6
CONTINUOUS
 10
54.015999999999998
 20
-20.126300000000001
 30
0.0
 70
    32
  0
VERTEX
  5
1EBB
  8
242
  6
CONTINUOUS
 10
53.865099999999998
 20
-20.263100000000001
 30
0.0
 70
    32
  0
VERTEX
  5
1EBC
  8
242
  6
CONTINUOUS
 10
53.704799999999999
 20
-20.394500000000001
 30
0.0
 70
    32
  0
VERTEX
  5
1EBD
  8
242
  6
CONTINUOUS
 10
53.535499999999999
 20
-20.520199999999999
 30
0.0
 70
    32
  0
VERTEX
  5
1EBE
  8
242
  6
CONTINUOUS
 10
53.35779999999999
 20
-20.639800000000001
 30
0.0
 70
    32
  0
VERTEX
  5
1EBF
  8
242
  6
CONTINUOUS
 10
53.17199999999999
 20
-20.7532
 30
0.0
 70
    32
  0
VERTEX
  5
1EC0
  8
242
  6
CONTINUOUS
 10
52.978499999999997
 20
-20.8599
 30
0.0
 70
    32
  0
VERTEX
  5
1EC1
  8
242
  6
CONTINUOUS
 10
52.777900000000002
 20
-20.959900000000001
 30
0.0
 70
    32
  0
VERTEX
  5
1EC2
  8
242
  6
CONTINUOUS
 10
52.570500000000003
 20
-21.052700000000002
 30
0.0
 70
    32
  0
VERTEX
  5
1EC3
  8
242
  6
CONTINUOUS
 10
52.356999999999999
 20
-21.138200000000001
 30
0.0
 70
    32
  0
VERTEX
  5
1EC4
  8
242
  6
CONTINUOUS
 10
52.137799999999991
 20
-21.2163
 30
0.0
 70
    32
  0
VERTEX
  5
1EC5
  8
242
  6
CONTINUOUS
 10
51.913400000000003
 20
-21.2866
 30
0.0
 70
    32
  0
VERTEX
  5
1EC6
  8
242
  6
CONTINUOUS
 10
51.684399999999997
 20
-21.349
 30
0.0
 70
    32
  0
VERTEX
  5
1EC7
  8
242
  6
CONTINUOUS
 10
51.4514
 20
-21.403500000000001
 30
0.0
 70
    32
  0
VERTEX
  5
1EC8
  8
242
  6
CONTINUOUS
 10
51.2149
 20
-21.4497
 30
0.0
 70
    32
  0
VERTEX
  5
1EC9
  8
242
  6
CONTINUOUS
 10
50.975499999999997
 20
-21.4878
 30
0.0
 70
    32
  0
VERTEX
  5
1ECA
  8
242
  6
CONTINUOUS
 10
50.733699999999999
 20
-21.517399999999999
 30
0.0
 70
    32
  0
VERTEX
  5
1ECB
  8
242
  6
CONTINUOUS
 10
50.490099999999991
 20
-21.538699999999999
 30
0.0
 70
    32
  0
VERTEX
  5
1ECC
  8
242
  6
CONTINUOUS
 10
50.2453
 20
-21.551400000000001
 30
0.0
 70
    32
  0
VERTEX
  5
1ECD
  8
242
  6
CONTINUOUS
 10
50.0
 20
-21.555700000000002
 30
0.0
 70
    32
  0
VERTEX
  5
1ECE
  8
242
  6
CONTINUOUS
 10
49.7547
 20
-21.551400000000001
 30
0.0
 70
    32
  0
VERTEX
  5
1ECF
  8
242
  6
CONTINUOUS
 10
49.509900000000002
 20
-21.538699999999999
 30
0.0
 70
    32
  0
VERTEX
  5
1ED0
  8
242
  6
CONTINUOUS
 10
49.266300000000001
 20
-21.517399999999999
 30
0.0
 70
    32
  0
VERTEX
  5
1ED1
  8
242
  6
CONTINUOUS
 10
49.024500000000003
 20
-21.4878
 30
0.0
 70
    32
  0
VERTEX
  5
1ED2
  8
242
  6
CONTINUOUS
 10
48.7851
 20
-21.4497
 30
0.0
 70
    32
  0
VERTEX
  5
1ED3
  8
242
  6
CONTINUOUS
 10
48.5486
 20
-21.403500000000001
 30
0.0
 70
    32
  0
VERTEX
  5
1ED4
  8
242
  6
CONTINUOUS
 10
48.315600000000003
 20
-21.349
 30
0.0
 70
    32
  0
VERTEX
  5
1ED5
  8
242
  6
CONTINUOUS
 10
48.08659999999999
 20
-21.2866
 30
0.0
 70
    32
  0
VERTEX
  5
1ED6
  8
242
  6
CONTINUOUS
 10
47.862200000000001
 20
-21.2163
 30
0.0
 70
    32
  0
VERTEX
  5
1ED7
  8
242
  6
CONTINUOUS
 10
47.643000000000001
 20
-21.138200000000001
 30
0.0
 70
    32
  0
VERTEX
  5
1ED8
  8
242
  6
CONTINUOUS
 10
47.42949999999999
 20
-21.052700000000002
 30
0.0
 70
    32
  0
VERTEX
  5
1ED9
  8
242
  6
CONTINUOUS
 10
47.22209999999999
 20
-20.959900000000001
 30
0.0
 70
    32
  0
VERTEX
  5
1EDA
  8
242
  6
CONTINUOUS
 10
47.021500000000003
 20
-20.8599
 30
0.0
 70
    32
  0
VERTEX
  5
1EDB
  8
242
  6
CONTINUOUS
 10
46.828000000000003
 20
-20.7532
 30
0.0
 70
    32
  0
VERTEX
  5
1EDC
  8
242
  6
CONTINUOUS
 10
46.642200000000003
 20
-20.639800000000001
 30
0.0
 70
    32
  0
VERTEX
  5
1EDD
  8
242
  6
CONTINUOUS
 10
46.464500000000001
 20
-20.520199999999999
 30
0.0
 70
    32
  0
VERTEX
  5
1EDE
  8
242
  6
CONTINUOUS
 10
46.295200000000001
 20
-20.394500000000001
 30
0.0
 70
    32
  0
VERTEX
  5
1EDF
  8
242
  6
CONTINUOUS
 10
46.134900000000002
 20
-20.263100000000001
 30
0.0
 70
    32
  0
VERTEX
  5
1EE0
  8
242
  6
CONTINUOUS
 10
45.984000000000002
 20
-20.126300000000001
 30
0.0
 70
    32
  0
VERTEX
  5
1EE1
  8
242
  6
CONTINUOUS
 10
45.842700000000001
 20
-19.984400000000001
 30
0.0
 70
    32
  0
VERTEX
  5
1EE2
  8
242
  6
CONTINUOUS
 10
45.711399999999983
 20
-19.837800000000001
 30
0.0
 70
    32
  0
VERTEX
  5
1EE3
  8
242
  6
CONTINUOUS
 10
45.590400000000002
 20
-19.686800000000002
 30
0.0
 70
    32
  0
VERTEX
  5
1EE4
  8
242
  6
CONTINUOUS
 10
45.4801
 20
-19.5318
 30
0.0
 70
    32
  0
VERTEX
  5
1EE5
  8
242
  6
CONTINUOUS
 10
45.380600000000001
 20
-19.373200000000001
 30
0.0
 70
    32
  0
VERTEX
  5
1EE6
  8
242
  6
CONTINUOUS
 10
45.292299999999997
 20
-19.211300000000001
 30
0.0
 70
    32
  0
VERTEX
  5
1EE7
  8
242
  6
CONTINUOUS
 10
45.215299999999999
 20
-19.046500000000002
 30
0.0
 70
    32
  0
VERTEX
  5
1EE8
  8
242
  6
CONTINUOUS
 10
45.149799999999999
 20
-18.879200000000001
 30
0.0
 70
    32
  0
VERTEX
  5
1EE9
  8
242
  6
CONTINUOUS
 10
45.0961
 20
-18.709900000000001
 30
0.0
 70
    32
  0
VERTEX
  5
1EEA
  8
242
  6
CONTINUOUS
 10
45.054099999999998
 20
-18.538900000000002
 30
0.0
 70
    32
  0
VERTEX
  5
1EEB
  8
242
  6
CONTINUOUS
 10
45.024099999999997
 20
-18.366700000000002
 30
0.0
 70
    32
  0
VERTEX
  5
1EEC
  8
242
  6
CONTINUOUS
 10
45.006
 20
-18.1937
 30
0.0
 70
    32
  0
VERTEX
  5
1EED
  8
242
  6
CONTINUOUS
 10
45.0
 20
-18.020199999999999
 30
0.0
 70
    32
  0
SEQEND
  5
1EEE
  8
242
  6
CONTINUOUS
  0
LINE
  5
1EEF
  8
245
  6
CENTER2
 10
45.0
 20
-18.384776310848789
 30
0.0
 11
55.0
 21
-18.384776310848789
 31
0.0
  0
LINE
  5
1EF0
  8
240
  6
CONTINUOUS
 10
-90.000000000002686
 20
19.999999999995001
 30
0.0
 11
-90.000000000004576
 21
-20.000000000009091
 31
0.0
  0
LINE
  5
1EF7
  8
240
  6
CONTINUOUS
 10
-90.000000000002686
 20
19.999999999995001
 30
0.0
 11
-80.499999999997243
 21
19.999999999995001
 31
0.0
  0
LINE
  5
1EFE
  8
240
  6
CONTINUOUS
 10
-90.000000000004576
 20
-20.000000000009091
 30
0.0
 11
-80.499999999997243
 21
-20.000000000009091
 31
0.0
  0
LINE
  5
1F13
  8
241
  6
CONTINUOUS
 10
-29.00000000000729
 20
-19.800000000011551
 30
0.0
 11
-29.00000000000729
 21
19.79999999999654
 31
0.0
  0
LINE
  5
1F16
  8
241
  6
CONTINUOUS
 10
-42.500000000007269
 20
19.799999999996999
 30
0.0
 11
-42.500000000007269
 21
-19.80000000001246
 31
0.0
  0
LINE
  5
1F17
  8
241
  6
CONTINUOUS
 10
-45.000000000007269
 20
19.799999999996992
 30
0.0
 11
-45.000000000003652
 21
-19.80000000001246
 31
0.0
  0
LINE
  5
1F1A
  8
241
  6
CONTINUOUS
 10
-31.500000000003642
 20
19.79999999999654
 30
0.0
 11
-31.500000000003642
 21
-19.800000000011551
 31
0.0
  0
POINT
  5
1F21
  8
0
 10
-15034.81325616512
 20
9264.5895273248061
 30
0.0
1001
GENIUS_GENOLIS_13
1002
{
1000
ENT
1005
0
1005
0
1005
1C86
1005
0
1002
}
1001
GENIUS_GENOENT_13
1002
{
1000
MYREF
1005
1F21
1002
}
1002
{
1000
GRP
1005
0
1002
}
1001
GENIUS_GENOBJ-N-CRS_13
1002
{
1000
OWNER
1000
GEN
1002
}
1001
GENIUS_GENODEF_13
1002
{
1000
HIER
1070
    10
1002
}
1002
{
1000
MANEDIT
1070
     1
1002
}
1002
{
1000
NOSEL
1070
     0
1002
}
1002
{
1000
BEHIND
1070
     0
1002
}
1002
{
1000
OTHER
1070
     0
1002
}
1002
{
1000
REACTOR
1002
}
  0
LINE
  5
1F2C
  8
240
  6
CONTINUOUS
 10
-9.0000000000036344
 20
19.999999999985612
 30
0.0
 11
-9.0000000000036344
 21
26.4999999999784
 31
0.0
  0
LINE
  5
1F2D
  8
240
  6
CONTINUOUS
 10
-9.0000000000036344
 20
-20.000000000019291
 30
0.0
 11
-8.9668613674803055
 21
-26.512061475854811
 31
0.0
  0
TEXT
  5
1F2E
  8
250
 10
24.974409909777251
 20
-44.609543030701502
 30
0.0
 40
6.0
  1
üá
 50
90.0
  0
TEXT
  5
1F2F
  8
250
 10
24.974409909777251
 20
-37.46668588784437
 30
0.0
 40
6.0
  1
21
 50
90.0
  0
LINE
  5
1F9E
  8
244
  6
HIDDEN2
 10
3.9999999999963611
 20
10.49999999999954
 30
0.0
 11
27.999999999996369
 21
-10.500000000000449
 31
0.0
  0
LINE
  5
1F9F
  8
244
  6
HIDDEN2
 10
3.9999999999963611
 20
-10.500000000000449
 30
0.0
 11
27.999999999996369
 21
10.49999999999954
 31
0.0
  0
LINE
  5
1FA0
  8
247
  6
CONTINUOUS
 10
6.2679491924298167
 20
-19.750000000004022
 30
0.0
 11
6.2679491924298754
 21
-15.11538461567404
 31
0.0
  0
LINE
  5
1FA1
  8
247
  6
CONTINUOUS
 10
3.767949192429874
 20
-18.954893499991961
 30
0.0
 11
5.8679491923458817
 21
-19.55705881006137
 31
0.0
  0
LINE
  5
1FA2
  8
247
  6
CONTINUOUS
 10
4.7641030385438734
 20
-18.325151403523041
 30
0.0
 11
4.7641030385438734
 21
-19.240536018871051
 31
0.0
  0
ARC
  5
1FA3
  8
247
  6
CONTINUOUS
 10
4.152668259723975
 20
-18.087263401950821
 30
0.0
 40
0.3876715809326743
 50
72.997889675292001
 51
172.92416621851271
  0
ARC
  5
1FA4
  8
247
  6
CONTINUOUS
 10
4.0731723234578894
 20
-18.382477556808119
 30
0.0
 40
0.693304796535877
 50
4.742936852201395
 51
73.849226273266481
1001
GENIUS_GENOBJ-N-FIL_13
1002
{
1000
OWNER
1000
GEN
1002
}
1001
GENIUS_GENODEF_13
1002
{
1000
HIER
1070
     0
1002
}
1002
{
1000
MANEDIT
1070
     0
1002
}
1002
{
1000
NOSEL
1070
     0
1002
}
1002
{
1000
BEHIND
1070
     0
1002
}
1002
{
1000
OTHER
1070
     0
1002
}
1002
{
1000
REACTOR
1002
}
  0
LINE
  5
1FA5
  8
247
  6
CONTINUOUS
 10
5.8679491923458817
 20
-18.641674194713371
 30
0.0
 11
5.8679491923458817
 21
-19.55705881006137
 31
0.0
  0
LINE
  5
1FA6
  8
247
  6
CONTINUOUS
 10
3.767949192429874
 20
-18.954893499991961
 30
0.0
 11
3.767949192429874
 21
-18.039508884643961
 31
0.0
  0
ARC
  5
1FA7
  8
247
  6
CONTINUOUS
 10
5.1553661551977461
 20
-18.37830647627084
 30
0.0
 40
0.394857301075386
 50
65.990941652528775
 51
172.2634434590698
  0
ARC
  5
1FA8
  8
247
  6
CONTINUOUS
 10
5.1591495197624431
 20
-18.71244661043092
 30
0.0
 40
0.7123241612361686
 50
5.7019851642581392
 51
77.27733843682222
1001
GENIUS_GENOBJ-N-FIL_13
1002
{
1000
OWNER
1000
GEN
1002
}
1001
GENIUS_GENODEF_13
1002
{
1000
HIER
1070
     0
1002
}
1002
{
1000
MANEDIT
1070
     0
1002
}
1002
{
1000
NOSEL
1070
     0
1002
}
1002
{
1000
BEHIND
1070
     0
1002
}
1002
{
1000
OTHER
1070
     0
1002
}
1002
{
1000
REACTOR
1002
}
  0
LINE
  5
1FA9
  8
247
  6
CONTINUOUS
 10
5.8679491923458817
 20
-17.683981887067379
 30
0.0
 11
3.767949192429874
 21
-17.081816576997959
 31
0.0
  0
LINE
  5
1FAA
  8
247
  6
CONTINUOUS
 10
3.767949192429874
 20
-15.58566273091197
 30
0.0
 11
3.767949192429874
 21
-15.981678364307591
 31
0.0
  0
LINE
  5
1FAB
  8
247
  6
CONTINUOUS
 10
5.8679491923458817
 20
-16.608739653947971
 30
0.0
 11
5.8679491923458817
 21
-16.17797042319598
 31
0.0
  0
ARC
  5
1FAC
  8
247
  6
CONTINUOUS
 10
5.2262487875132351
 20
-15.38181657707397
 30
0.0
 40
1.576855057639547
 50
202.35948814152749
 51
254.99324854284589
  0
ARC
  5
1FAD
  8
247
  6
CONTINUOUS
 10
4.3337680509680121
 20
-15.84751136613723
 30
0.0
 40
0.6234706797009447
 50
94.994589319075374
 51
155.16632895730319
1001
GENIUS_GENOBJ-N-FIL_13
1002
{
1000
OWNER
1000
GEN
1002
}
1001
GENIUS_GENODEF_13
1002
{
1000
HIER
1070
     0
1002
}
1002
{
1000
MANEDIT
1070
     0
1002
}
1002
{
1000
NOSEL
1070
     0
1002
}
1002
{
1000
BEHIND
1070
     0
1002
}
1002
{
1000
OTHER
1070
     0
1002
}
1002
{
1000
REACTOR
1002
}
  0
ARC
  5
1FAE
  8
247
  6
CONTINUOUS
 10
4.9300513143993152
 20
-16.444183951036791
 30
0.0
 40
0.9749472149106983
 50
15.84609655577982
 51
82.325137004169122
  0
ARC
  5
1FAF
  8
247
  6
CONTINUOUS
 10
5.1394195944009411
 20
-16.035211638776222
 30
0.0
 40
0.9271945638692009
 50
249.71360167049701
 51
321.7887456564099
1001
GENIUS_GENOBJ-N-FIL_13
1002
{
1000
OWNER
1000
GEN
1002
}
1001
GENIUS_GENODEF_13
1002
{
1000
HIER
1070
     0
1002
}
1002
{
1000
MANEDIT
1070
     0
1002
}
1002
{
1000
NOSEL
1070
     0
1002
}
1002
{
1000
BEHIND
1070
     0
1002
}
1002
{
1000
OTHER
1070
     0
1002
}
1002
{
1000
REACTOR
1002
}
  0
LINE
  5
1FB0
  8
247
  6
CONTINUOUS
 10
5.060256884685848
 20
-15.96258580781997
 30
0.0
 11
5.060256884685848
 21
-15.477970423223971
 31
0.0
  0
ARC
  5
1FB1
  8
247
  6
CONTINUOUS
 10
5.0179491924298754
 20
-19.750000000004022
 30
0.0
 40
1.25
 50
180.0
 51
0.0
  0
LINE
  5
1FB2
  8
247
  6
CONTINUOUS
 10
3.767949192429874
 20
-19.750000000004022
 30
0.0
 11
3.767949192429874
 21
-19.303846153918009
 31
0.0
  0
ARC
  5
1FB3
  8
247
  6
CONTINUOUS
 10
5.0179491924298754
 20
-15.115384615674021
 30
0.0
 40
1.25
 50
0.0
 51
180.0
  0
VIEWPORT
  5
22
 67
     1
  8
0
 10
261.51769911504419
 20
148.5
 30
0.0
 40
523.0353982300885
 41
297.0
 68
     1
 69
     1
1001
ACAD
1000
MVIEW
1002
{
1070
    16
1010
0.0
1020
0.0
1030
0.0
1010
0.0
1020
0.0
1030
1.0
1040
0.0
1040
297.0
1040
261.51769911504419
1040
148.5
1040
50.0
1040
0.0
1040
0.0
1070
     0
1070
   100
1070
     1
1070
     1
1070
     0
1070
     0
1070
     0
1070
     0
1040
0.0
1040
0.0
1040
0.0
1040
1.0
1040
1.0
1040
10.0
1040
10.0
1070
     0
1002
{
1002
}
1002
}
1001
GENIUS_GENODEF_13
1002
{
1000
HIER
1070
     0
1002
}
1002
{
1000
MANEDIT
1070
     0
1002
}
1002
{
1000
NOSEL
1070
     0
1002
}
1002
{
1000
BEHIND
1070
     0
1002
}
1002
{
1000
OTHER
1070
     0
1002
}
1002
{
1000
REACTOR
1002
}
1001
GENIUS_GENOBJ-N-SDF_13
1002
{
1000
OWNER
1000
GEN
1002
}
1001
GENIUS_GENSCREG_15
1000
PF
1040
1.0
1000
DF
1040
1.0
1000
MIN
1011
0.0
1021
0.0
1031
0.0
1021
0.0
1031
0.0
1000
MAX
1011
523.0353982300885
1021
0.0
1031
0.0
1021
297.0
1031
0.0
1000
FLAGS
1070
     4
  0
ENDSEC
  0
EOF
