  0
SECTION
  2
HEADER
  9
$ACADVER
  1
AC1009
  9
$INSBASE
 10
0.0
 20
0.0
 30
0.0
  9
$EXTMIN
 10
-92.508968083550343
 20
-44.78252193338821
 30
0.0
  9
$EXTMAX
 10
92.0
 20
72.81969731915234
 30
0.0
  9
$LIMMIN
 10
0.0
 20
0.0
  9
$LIMMAX
 10
297.0
 20
210.0
  9
$ORTHOMODE
 70
     1
  9
$REGENMODE
 70
     1
  9
$FILLMODE
 70
     1
  9
$QTEXTMODE
 70
     0
  9
$MIRRTEXT
 70
     1
  9
$DRAGMODE
 70
     2
  9
$LTSCALE
 40
10.0
  9
$OSMODE
 70
    39
  9
$ATTMODE
 70
     1
  9
$TEXTSIZE
 40
3.0
  9
$TRACEWID
 40
1.0
  9
$TEXTSTYLE
  7
YOKO
  9
$CLAYER
  8
240
  9
$CELTYPE
  6
BYLAYER
  9
$CECOLOR
 62
   256
  9
$DIMSCALE
 40
1.0
  9
$DIMASZ
 40
2.2299999999999991
  9
$DIMEXO
 40
0.5
  9
$DIMDLI
 40
7.0
  9
$DIMRND
 40
0.0
  9
$DIMDLE
 40
0.0
  9
$DIMEXE
 40
1.0
  9
$DIMTP
 40
0.0
  9
$DIMTM
 40
0.01
  9
$DIMTXT
 40
2.799999999999998
  9
$DIMCEN
 40
0.0
  9
$DIMTSZ
 40
0.0
  9
$DIMTOL
 70
     0
  9
$DIMLIM
 70
     0
  9
$DIMTIH
 70
     0
  9
$DIMTOH
 70
     0
  9
$DIMSE1
 70
     0
  9
$DIMSE2
 70
     0
  9
$DIMTAD
 70
     3
  9
$DIMZIN
 70
     9
  9
$DIMBLK
  1
OPEN
  9
$DIMASO
 70
     1
  9
$DIMSHO
 70
     1
  9
$DIMPOST
  1

  9
$DIMAPOST
  1

  9
$DIMALT
 70
     0
  9
$DIMALTD
 70
     2
  9
$DIMALTF
 40
25.399999999999999
  9
$DIMLFAC
 40
1.0
  9
$DIMTOFL
 70
     1
  9
$DIMTVP
 40
0.0
  9
$DIMTIX
 70
     1
  9
$DIMSOXD
 70
     0
  9
$DIMSAH
 70
     0
  9
$DIMBLK1
  1

  9
$DIMBLK2
  1

  9
$DIMSTYLE
  2
BIGT
  9
$DIMCLRD
 70
   256
  9
$DIMCLRE
 70
   256
  9
$DIMCLRT
 70
    40
  9
$DIMTFAC
 40
1.0
  9
$DIMGAP
 40
1.0
  9
$LUNITS
 70
     2
  9
$LUPREC
 70
     3
  9
$SKETCHINC
 40
1.0
  9
$FILLETRAD
 40
1.0
  9
$AUNITS
 70
     0
  9
$AUPREC
 70
     3
  9
$MENU
  1
.
  9
$ELEVATION
 40
0.0
  9
$PELEVATION
 40
0.0
  9
$THICKNESS
 40
0.0
  9
$LIMCHECK
 70
     0
  9
$BLIPMODE
 70
     0
  9
$CHAMFERA
 40
0.25
  9
$CHAMFERB
 40
0.25
  9
$SKPOLY
 70
     0
  9
$TDCREATE
 40
2455799.6754796989
  9
$TDUPDATE
 40
2457835.6869059722
  9
$TDINDWG
 40
0.0210747569
  9
$TDUSRTIMER
 40
0.0210747106
  9
$USRTIMER
 70
     1
  9
$ANGBASE
 50
0.0
  9
$ANGDIR
 70
     0
  9
$PDMODE
 70
     1
  9
$PDSIZE
 40
0.0
  9
$PLINEWID
 40
0.0
  9
$COORDS
 70
     1
  9
$SPLFRAME
 70
     0
  9
$SPLINETYPE
 70
     6
  9
$SPLINESEGS
 70
     4
  9
$ATTDIA
 70
     1
  9
$ATTREQ
 70
     1
  9
$HANDLING
 70
     1
  9
$HANDSEED
  5
228E
  9
$SURFTAB1
 70
     6
  9
$SURFTAB2
 70
     6
  9
$SURFTYPE
 70
     6
  9
$SURFU
 70
     6
  9
$SURFV
 70
     6
  9
$UCSNAME
  2

  9
$UCSORG
 10
0.0
 20
0.0
 30
0.0
  9
$UCSXDIR
 10
1.0
 20
0.0
 30
0.0
  9
$UCSYDIR
 10
0.0
 20
1.0
 30
0.0
  9
$PUCSNAME
  2

  9
$PUCSORG
 10
0.0
 20
0.0
 30
0.0
  9
$PUCSXDIR
 10
1.0
 20
0.0
 30
0.0
  9
$PUCSYDIR
 10
0.0
 20
1.0
 30
0.0
  9
$USERI1
 70
     1
  9
$USERI2
 70
     0
  9
$USERI3
 70
     0
  9
$USERI4
 70
     0
  9
$USERI5
 70
     0
  9
$USERR1
 40
0.0
  9
$USERR2
 40
0.0
  9
$USERR3
 40
0.0
  9
$USERR4
 40
0.0
  9
$USERR5
 40
0.0
  9
$WORLDVIEW
 70
     1
  9
$SHADEDGE
 70
     3
  9
$SHADEDIF
 70
    70
  9
$TILEMODE
 70
     1
  9
$MAXACTVP
 70
    16
  9
$PLIMCHECK
 70
     0
  9
$PEXTMIN
 10
1.0000000000000000E+020
 20
1.0000000000000000E+020
 30
1.0000000000000000E+020
  9
$PEXTMAX
 10
-1.0000000000000000E+020
 20
-1.0000000000000000E+020
 30
-1.0000000000000000E+020
  9
$PLIMMIN
 10
0.0
 20
0.0
  9
$PLIMMAX
 10
420.0
 20
297.0
  9
$UNITMODE
 70
     0
  9
$VISRETAIN
 70
     1
  9
$PLINEGEN
 70
     0
  9
$PSLTSCALE
 70
     1
  0
ENDSEC
  0
SECTION
  2
TABLES
  0
TABLE
  2
VPORT
 70
     1
  0
VPORT
  2
*ACTIVE
 70
     0
 10
0.0
 20
0.0
 11
1.0
 21
1.0
 12
11.09381965914144
 22
18.347402694945291
 13
0.0
 23
0.0
 14
7.0
 24
7.0
 15
7.0
 25
7.0
 16
0.0
 26
0.0
 36
1.0
 17
0.0
 27
0.0
 37
0.0
 40
190.8587424825906
 41
1.6795646916565901
 42
50.0
 43
0.0
 44
0.0
 50
0.0
 51
0.0
 71
     0
 72
  2000
 73
     1
 74
     0
 75
     0
 76
     0
 77
     0
 78
     0
  0
ENDTAB
  0
TABLE
  2
LTYPE
 70
    16
  0
LTYPE
  2
CONTINUOUS
 70
     0
  3
Solid line
 72
    65
 73
     0
 40
0.0
  0
LTYPE
  2
CENTER2
 70
     0
  3
___ _ ___ _ ___ _ ___ _ ___ _ ___ _ ___ _ ___ _
 72
    65
 73
     4
 40
1.125
 49
0.75
 49
-0.125
 49
0.125
 49
-0.125
  0
LTYPE
  2
HIDDEN2
 70
     0
  3
_ _ _ _ _ _ _ _ _ _ _ _ _ _ _ _ _ _ _ _ _ _ _ _
 72
    65
 73
     2
 40
0.1875
 49
0.125
 49
-0.0625
  0
LTYPE
  2
PHANTOM2
 70
     0
  3
___ _ _ ___ _ _ ___ _ _ ___ _ _ ___ _ _ ___ _ _
 72
    65
 73
     6
 40
1.25
 49
0.625
 49
-0.125
 49
0.125
 49
-0.125
 49
0.125
 49
-0.125
  0
LTYPE
  2
CENTER
 70
     0
  3
____ _ ____ _ ____ _ ____ _ ____ _ ____ _ ____ 
 72
    65
 73
     4
 40
2.0
 49
1.25
 49
-0.25
 49
0.25
 49
-0.25
  0
LTYPE
  2
AMCONSTR
 70
     0
  3
_______________________
 72
    65
 73
     2
 40
9999.0
 49
9999.0
 49
0.0
  0
LTYPE
  2
HIDDEN
 70
     0
  3
Hidden __ __ __ __ __ __ __ __ __ __ __ __ __ _
 72
    65
 73
     2
 40
9.5249999999999986
 49
6.349999999999997
 49
-3.174999999999998
  0
LTYPE
  2
AMZIGZAG2
 70
     0
  3
/\/-/\/-/\/-/\/-/\/-/\/
 72
    65
 73
     2
 40
0.4401
 49
0.0001
 49
-0.4400000000000002
  0
LTYPE
  2
ACANSTGB
 70
     0
  3
__ . . __ . .
 72
    65
 73
     6
 40
0.35433070866
 49
0.15748031496
 49
-0.03937007874
 49
0.03937007874
 49
-0.03937007874
 49
0.03937007874
 49
-0.03937007874
  0
LTYPE
  2
ACANSTGL
 70
     0
  3
_ _ _ _ _
 72
    65
 73
     2
 40
0.11811023622
 49
0.07874015748
 49
-0.03937007874
  0
ENDTAB
  0
TABLE
  2
LAYER
 70
    11
  0
LAYER
  2
0
 70
     0
 62
     7
  6
CONTINUOUS
  0
LAYER
  2
240
 70
     0
 62
     4
  6
CONTINUOUS
  0
LAYER
  2
DEFPOINTS
 70
     0
 62
     7
  6
CONTINUOUS
  0
LAYER
  2
245
 70
     0
 62
     2
  6
CENTER2
  0
LAYER
  2
241
 70
     0
 62
   211
  6
CONTINUOUS
  0
LAYER
  2
242
 70
     0
 62
     3
  6
CONTINUOUS
  0
LAYER
  2
243
 70
     0
 62
   211
  6
HIDDEN2
  0
LAYER
  2
244
 70
     0
 62
     3
  6
HIDDEN2
  0
LAYER
  2
247
 70
     0
 62
    60
  6
CONTINUOUS
  0
LAYER
  2
250
 70
     0
 62
     3
  6
CONTINUOUS
  0
ENDTAB
  0
TABLE
  2
STYLE
 70
     6
  0
STYLE
  2
STANDARD
 70
     0
 40
0.0
 41
1.0
 50
0.0
 71
     0
 42
3.0
  3
romans.shx
  4
extfont.shx
  0
STYLE
  2
YOKO
 70
     0
 40
0.0
 41
1.0
 50
0.0
 71
     0
 42
3.0
  3
romans.shx
  4
extfont.shx
  0
STYLE
  2
ACANSGDT
 70
     0
 40
0.0
 41
1.0
 50
0.0
 71
     0
 42
3.0
  3
amgdt.shx
  4

  0
ENDTAB
  0
TABLE
  2
VIEW
 70
     0
  0
ENDTAB
  0
TABLE
  2
UCS
 70
     0
  0
ENDTAB
  0
TABLE
  2
APPID
 70
    46
  0
APPID
  2
ACAD
 70
     0
  0
APPID
  2
ACADANNOTATIVE
 70
     0
  0
APPID
  2
GLOBAL
 70
     0
  0
APPID
  2
DETAIL
 70
     0
  0
APPID
  2
GRPNAME
 70
     0
  0
APPID
  2
GPARA
 70
     0
  0
APPID
  2
MCAD_NO_VIS
 70
     0
  0
APPID
  2
ACAD_TEMP_GRAPHIC
 70
     0
  0
APPID
  2
ACATTRIBSERVICES
 70
     0
  0
APPID
  2
GENIUS_GENSCREG_15
 70
     0
  0
APPID
  2
GENIUS_GENODEF_13
 70
     0
  0
APPID
  2
GENIUS_GENOBJ-N-SDF_13
 70
     0
  0
APPID
  2
GENIUS_GENREC_14
 70
     0
  0
APPID
  2
GENIUS_GENOBJ-N-REC_13
 70
     0
  0
APPID
  2
GENIUS_GENDIMSH_14
 70
     0
  0
APPID
  2
GENIUS_GENOBJ-N-DIM_13
 70
     0
  0
APPID
  2
GENIUS_GENDIM_13
 70
     0
  0
APPID
  2
GENIUS_GENDTOL_13
 70
     0
  0
APPID
  2
GENIUS_GENOLIS_13
 70
     0
  0
APPID
  2
GENIUS_GENOENT_13
 70
     0
  0
APPID
  2
GENIUS_GENOBJ-F-FEM_13
 70
     0
  0
APPID
  2
GENIUS_GENOREF_13
 70
     0
  0
APPID
  2
GENIUS_GEFFEM_13
 70
     0
  0
APPID
  2
GENIUS_GEFFEMP_13
 70
     0
  0
APPID
  2
AD_DRAW
 70
     0
  0
APPID
  2
DESIGNERASSEMBLIES
 70
     0
  0
APPID
  2
ACADM_DIM_EDIT
 70
     0
  0
APPID
  2
AMDT_DM_ADJ
 70
     0
  0
APPID
  2
GENIUS_GENOBJ-N-FIL_13
 70
     0
  0
APPID
  2
GENIUS_GENFIL_13
 70
     0
  0
APPID
  2
GENIUS_GENOBJ-N-CHA_13
 70
     0
  0
APPID
  2
GENIUS_GENOBJ-N-CRS_13
 70
     0
  0
APPID
  2
HATCH_TYPE
 70
     0
  0
APPID
  2
HATCH_DISPLAY
 70
     0
  0
APPID
  2
HATCH_DISTANCE
 70
     0
  0
APPID
  2
ACAD_DSTYLE_DIMJAG
 70
     0
  0
APPID
  2
ACAD_DSTYLE_DIMBREAK
 70
     0
  0
APPID
  2
ACAD_NAV_VCDISPLAY
 70
     0
  0
APPID
  2
ACAD_EXEMPT_FROM_CAD_STANDARDS
 70
     0
  0
APPID
  2
ACAD_DSTYLE_DIMINSPECT
 70
     0
  0
APPID
  2
ACAD_MLEADERVER
 70
     0
  0
APPID
  2
ACAD_DSTYLE_DIMARC_LENGTH_
 70
     0
  0
APPID
  2
ACAD_DSTYLE_DIM_LINETYPE
 70
     0
  0
APPID
  2
ACAD_DSTYLE_DIM_EXT1_LINETYPE
 70
     0
  0
APPID
  2
ACAD_DSTYLE_DIM_EXT2_LINETYPE
 70
     0
  0
APPID
  2
ACAECLAYERSTANDARD
 70
     0
  0
ENDTAB
  0
TABLE
  2
DIMSTYLE
 70
    10
  0
DIMSTYLE
  2
STANDARD
 70
     0
  3

  4

  5

  6

  7

 40
1.0
 41
0.18
 42
0.0625
 43
0.38
 44
0.18
 45
0.0
 46
0.0
 47
0.0
 48
0.0
140
0.18
141
0.09
142
0.0
143
25.399999999999999
144
1.0
145
0.0
146
1.0
147
0.09
 71
     0
 72
     0
 73
     1
 74
     1
 75
     0
 76
     0
 77
     0
 78
     0
170
     0
171
     2
172
     0
173
     0
174
     0
175
     0
176
     0
177
     0
178
     0
  0
DIMSTYLE
  2
BIGT
 70
     0
  3

  4

  5

  6

  7

 40
1.0
 41
2.2299999999999991
 42
0.5
 43
7.0
 44
1.0
 45
0.0
 46
0.0
 47
0.0
 48
0.01
140
2.799999999999998
141
0.0
142
0.0
143
25.399999999999999
144
1.0
145
0.0
146
1.0
147
1.0
 71
     0
 72
     0
 73
     0
 74
     0
 75
     0
 76
     0
 77
     3
 78
     9
170
     0
171
     2
172
     1
173
     0
174
     1
175
     0
176
   256
177
   256
178
    40
  0
DIMSTYLE
  2
AM_ANSI
 70
     0
  3

  4
mm
  5

  6

  7

 40
1.0
 41
0.12
 42
0.05
 43
0.5
 44
0.1
 45
0.0
 46
0.0
 47
0.1
 48
0.1
140
0.12
141
0.0
142
0.0
143
25.399999999999999
144
1.0
145
0.0
146
0.71
147
0.06
 71
     0
 72
     0
 73
     1
 74
     1
 75
     0
 76
     0
 77
     0
 78
     7
170
     0
171
     2
172
     0
173
     0
174
     0
175
     0
176
   256
177
   256
178
     2
  0
DIMSTYLE
  2
AM_ANSI$3
 70
     0
  3

  4
mm
  5

  6

  7

 40
1.0
 41
0.12
 42
0.05
 43
0.5
 44
0.1
 45
0.0
 46
0.0
 47
0.1
 48
0.1
140
0.12
141
0.0
142
0.0
143
25.399999999999999
144
1.0
145
0.0
146
0.71
147
0.06
 71
     0
 72
     0
 73
     1
 74
     1
 75
     0
 76
     0
 77
     0
 78
     7
170
     0
171
     2
172
     0
173
     0
174
     0
175
     0
176
   256
177
   256
178
     2
  0
DIMSTYLE
  2
AM_ANSI$4
 70
     0
  3

  4
mm
  5

  6

  7

 40
1.0
 41
0.12
 42
0.05
 43
0.5
 44
0.1
 45
0.0
 46
0.0
 47
0.1
 48
0.1
140
0.12
141
0.0
142
0.0
143
25.399999999999999
144
1.0
145
0.0
146
0.71
147
0.06
 71
     0
 72
     0
 73
     1
 74
     1
 75
     0
 76
     0
 77
     0
 78
     7
170
     0
171
     2
172
     0
173
     0
174
     0
175
     0
176
   256
177
   256
178
     2
  0
DIMSTYLE
  2
AM_ANSI$7
 70
     0
  3

  4
mm
  5

  6

  7

 40
1.0
 41
0.12
 42
0.05
 43
0.5
 44
0.1
 45
0.0
 46
0.0
 47
0.1
 48
0.1
140
0.12
141
0.0
142
0.0
143
25.399999999999999
144
1.0
145
0.0
146
0.71
147
0.06
 71
     0
 72
     0
 73
     1
 74
     1
 75
     0
 76
     0
 77
     0
 78
     7
170
     0
171
     2
172
     0
173
     0
174
     0
175
     0
176
   256
177
   256
178
     2
  0
DIMSTYLE
  2
AM_ANSI$SF
 70
     0
  3

  4
mm
  5

  6

  7

 40
1.0
 41
0.12
 42
0.05
 43
0.5
 44
0.1
 45
0.0
 46
0.0
 47
0.1
 48
0.1
140
0.12
141
0.0
142
0.0
143
25.399999999999999
144
1.0
145
0.0
146
0.71
147
0.06
 71
     0
 72
     0
 73
     1
 74
     1
 75
     1
 76
     1
 77
     0
 78
     7
170
     0
171
     2
172
     0
173
     0
174
     0
175
     0
176
   256
177
   256
178
     2
  0
DIMSTYLE
  2
AM_ANSI$SH
 70
     0
  3

  4
mm
  5

  6

  7

 40
1.0
 41
0.12
 42
0.05
 43
0.5
 44
0.1
 45
0.0
 46
0.0
 47
0.1
 48
0.1
140
0.12
141
0.0
142
0.0
143
25.399999999999999
144
1.0
145
0.0
146
0.71
147
0.06
 71
     0
 72
     0
 73
     1
 74
     1
 75
     1
 76
     1
 77
     0
 78
     7
170
     0
171
     2
172
     0
173
     1
174
     0
175
     0
176
   256
177
   256
178
     2
  0
ENDTAB
  0
ENDSEC
  0
SECTION
  2
BLOCKS
  0
BLOCK
  8
0
  2
$MODEL_SPACE
 70
     0
 10
0.0
 20
0.0
 30
0.0
  3
$MODEL_SPACE
  1

  0
ENDBLK
  5
2112
  8
0
  0
BLOCK
 67
     1
  8
0
  2
$PAPER_SPACE
 70
     0
 10
0.0
 20
0.0
 30
0.0
  3
$PAPER_SPACE
  1

  0
ENDBLK
  5
210E
 67
     1
  8
0
  0
BLOCK
  8
0
  2
_OPEN
 70
     0
 10
0.0
 20
0.0
 30
0.0
  3
_OPEN
  1

  0
LINE
  5
1872
  8
0
  6
BYBLOCK
 62
     0
 10
-1.0
 20
0.1666666666666666
 30
0.0
 11
0.0
 21
0.0
 31
0.0
  0
LINE
  5
1873
  8
0
  6
BYBLOCK
 62
     0
 10
-1.0
 20
-0.1666666666666666
 30
0.0
 11
0.0
 21
0.0
 31
0.0
  0
LINE
  5
1874
  8
0
  6
BYBLOCK
 62
     0
 10
0.0
 20
0.0
 30
0.0
 11
-1.0
 21
0.0
 31
0.0
  0
ENDBLK
  5
1875
  8
0
  0
BLOCK
  8
0
  2
_ACMFILLEDHALF
 70
     0
 10
0.0
 20
0.0
 30
0.0
  3
_ACMFILLEDHALF
  1

  0
TRACE
  5
1C21
  8
240
 62
     0
 10
-0.8
 20
0.0
 30
0.0
 11
-1.0
 21
0.166666666
 31
0.0
 12
0.0
 22
0.0
 32
0.0
 13
0.0
 23
0.0
 33
0.0
  0
LINE
  5
1C22
  8
240
 62
     0
 10
-1.0
 20
0.0
 30
0.0
 11
-0.8
 21
0.0
 31
0.0
  0
ENDBLK
  5
1C20
  8
0
  0
ENDSEC
  0
SECTION
  2
ENTITIES
  0
TEXT
  5
151B
  8
241
  6
CONTINUOUS
 10
-90.706710985126833
 20
65.31969731915234
 30
0.0
 40
7.5
  1
MGT36-M33-65
  7
YOKO
  0
LINE
  5
1702
  8
250
  6
CONTINUOUS
 10
0.0
 20
27.499999999983121
 30
0.0
 11
0.0000000000000014
 21
50.0
 31
0.0
  0
LINE
  5
1703
  8
250
  6
CONTINUOUS
 10
65.0
 20
24.999999999988969
 30
0.0
 11
65.0
 21
50.0
 31
0.0
  0
LINE
  5
1704
  8
250
  6
CONTINUOUS
 10
2.2299999999999991
 20
49.0
 30
0.0
 11
62.77000000000001
 21
49.0
 31
0.0
  0
LINE
  5
1709
  8
250
  6
CONTINUOUS
 10
65.500000000000156
 20
24.49999999998909
 30
0.0
 11
92.0
 21
24.499999999989079
 31
0.0
  0
LINE
  5
170A
  8
250
  6
CONTINUOUS
 10
65.500000000000071
 20
-24.49999999998909
 30
0.0
 11
92.0
 21
-24.49999999998909
 31
0.0
  0
LINE
  5
170B
  8
250
  6
CONTINUOUS
 10
91.0
 20
22.269999999989079
 30
0.0
 11
91.0
 21
-22.269999999989089
 31
0.0
  0
LINE
  5
170F
  8
250
  6
CONTINUOUS
 10
65.499999999998295
 20
12.5
 30
0.0
 11
78.0
 21
12.5
 31
0.0
  0
LINE
  5
1710
  8
250
  6
CONTINUOUS
 10
65.499999999998295
 20
-12.50000000000121
 30
0.0
 11
78.0
 21
-12.50000000000121
 31
0.0
  0
LINE
  5
1711
  8
250
  6
CONTINUOUS
 10
77.0
 20
10.269999999999991
 30
0.0
 11
77.0
 21
-10.2700000000012
 31
0.0
  0
LINE
  5
1717
  8
250
  6
CONTINUOUS
 10
26.534714298565522
 20
7.2699999999986371
 30
0.0
 11
26.534714298565522
 21
-7.270000000001362
 31
0.0
  0
LINE
  5
1718
  8
250
  6
CONTINUOUS
 10
26.534714298565511
 20
-44.78252193338821
 30
0.0
 11
26.534714298565522
 21
-9.5000000000013625
 31
0.0
  0
TEXT
  5
171C
  8
250
  6
CONTINUOUS
 10
26.642857142857149
 20
50.0
 30
0.0
 40
6.0
  1
65
  0
LINE
  5
171D
  8
250
  6
CONTINUOUS
 10
62.77000000000001
 20
49.37166666666667
 30
0.0
 11
65.0
 21
49.0
 31
0.0
  0
LINE
  5
171E
  8
250
  6
CONTINUOUS
 10
62.77000000000001
 20
48.62833333333333
 30
0.0
 11
65.0
 21
49.0
 31
0.0
  0
LINE
  5
171F
  8
250
  6
CONTINUOUS
 10
65.0
 20
49.0
 30
0.0
 11
62.77000000000001
 21
49.0
 31
0.0
  0
LINE
  5
1720
  8
250
  6
CONTINUOUS
 10
2.2299999999999991
 20
48.62833333333333
 30
0.0
 11
0.0000000000000013
 21
49.0
 31
0.0
  0
LINE
  5
1721
  8
250
  6
CONTINUOUS
 10
2.2299999999999991
 20
49.37166666666667
 30
0.0
 11
0.0000000000000013
 21
49.0
 31
0.0
  0
LINE
  5
1722
  8
250
  6
CONTINUOUS
 10
0.0000000000000013
 20
49.0
 30
0.0
 11
2.2299999999999991
 21
49.0
 31
0.0
  0
TEXT
  5
1723
  8
250
  6
CONTINUOUS
 10
90.0
 20
-7.9999999999999867
 30
0.0
 40
6.0
  1
\U+220549
 50
90.0
  0
LINE
  5
1724
  8
250
  6
CONTINUOUS
 10
91.371666666666684
 20
-22.269999999989089
 30
0.0
 11
91.0
 21
-24.49999999998909
 31
0.0
  0
LINE
  5
1725
  8
250
  6
CONTINUOUS
 10
90.628333333333316
 20
-22.269999999989089
 30
0.0
 11
91.0
 21
-24.49999999998909
 31
0.0
  0
LINE
  5
1726
  8
250
  6
CONTINUOUS
 10
91.0
 20
-24.49999999998909
 30
0.0
 11
91.0
 21
-22.269999999989089
 31
0.0
  0
LINE
  5
1727
  8
250
  6
CONTINUOUS
 10
90.628333333333316
 20
22.269999999989079
 30
0.0
 11
91.0
 21
24.499999999989079
 31
0.0
  0
LINE
  5
1728
  8
250
  6
CONTINUOUS
 10
91.371666666666684
 20
22.269999999989079
 30
0.0
 11
91.0
 21
24.499999999989079
 31
0.0
  0
LINE
  5
1729
  8
250
  6
CONTINUOUS
 10
91.0
 20
24.499999999989079
 30
0.0
 11
91.0
 21
22.269999999989079
 31
0.0
  0
TEXT
  5
172A
  8
250
  6
CONTINUOUS
 10
76.0
 20
-8.6134040111210481
 30
0.0
 40
6.0
  1
\U+220525
 50
90.0
  0
LINE
  5
172B
  8
250
  6
CONTINUOUS
 10
77.371666666666655
 20
-10.2700000000012
 30
0.0
 11
77.0
 21
-12.50000000000121
 31
0.0
  0
LINE
  5
172C
  8
250
  6
CONTINUOUS
 10
76.62833333333333
 20
-10.2700000000012
 30
0.0
 11
77.0
 21
-12.50000000000121
 31
0.0
  0
LINE
  5
172D
  8
250
  6
CONTINUOUS
 10
77.0
 20
-12.50000000000121
 30
0.0
 11
77.0
 21
-10.2700000000012
 31
0.0
  0
LINE
  5
172E
  8
250
  6
CONTINUOUS
 10
76.62833333333333
 20
10.269999999999991
 30
0.0
 11
77.0
 21
12.5
 31
0.0
  0
LINE
  5
172F
  8
250
  6
CONTINUOUS
 10
77.371666666666655
 20
10.269999999999991
 30
0.0
 11
77.0
 21
12.5
 31
0.0
  0
LINE
  5
1730
  8
250
  6
CONTINUOUS
 10
77.0
 20
12.5
 30
0.0
 11
77.0
 21
10.269999999999991
 31
0.0
  0
LINE
  5
1731
  8
250
  6
CONTINUOUS
 10
26.906380965232181
 20
-7.270000000001362
 30
0.0
 11
26.534714298565522
 21
-9.5000000000013625
 31
0.0
  0
LINE
  5
1732
  8
250
  6
CONTINUOUS
 10
26.163047631898849
 20
-7.270000000001362
 30
0.0
 11
26.534714298565522
 21
-9.5000000000013625
 31
0.0
  0
LINE
  5
1733
  8
250
  6
CONTINUOUS
 10
26.534714298565522
 20
-9.5000000000013625
 30
0.0
 11
26.534714298565522
 21
-7.270000000001362
 31
0.0
  0
LINE
  5
1734
  8
250
  6
CONTINUOUS
 10
26.163047631898859
 20
7.2699999999986371
 30
0.0
 11
26.534714298565522
 21
9.4999999999986375
 31
0.0
  0
LINE
  5
1735
  8
250
  6
CONTINUOUS
 10
26.906380965232191
 20
7.2699999999986371
 30
0.0
 11
26.534714298565522
 21
9.4999999999986375
 31
0.0
  0
LINE
  5
1736
  8
250
  6
CONTINUOUS
 10
26.534714298565522
 20
9.4999999999986375
 30
0.0
 11
26.534714298565522
 21
7.2699999999986371
 31
0.0
  0
LINE
  5
1C40
  8
245
  6
CENTER2
 10
-92.508968083550343
 20
0.0
 30
0.0
 11
66.978040236310221
 21
0.0
 31
0.0
  0
LINE
  5
1C48
  8
245
  6
CENTER2
 10
-66.00000000000361
 20
19.999999999969528
 30
0.0
 11
-66.00000000000361
 21
-20.000000000023189
 31
0.0
1001
GENIUS_GENOREF_13
1005
1EED
  0
LINE
  5
1C4F
  8
240
  6
CONTINUOUS
 10
-9.0000000000036344
 20
26.499999999968392
 30
0.0
 11
-7.6262612902762852
 21
26.99999999996772
 31
0.0
  0
LINE
  5
1C51
  8
240
  6
CONTINUOUS
 10
0.00000000000691
 20
26.99999999996772
 30
0.0
 11
-7.6262612902762852
 21
26.99999999996772
 31
0.0
  0
LINE
  5
1C5C
  8
240
  6
CONTINUOUS
 10
-55.000000000021828
 20
16.49999999997317
 30
0.0
 11
-51.50000000001819
 21
19.99999999997317
 31
0.0
  0
LINE
  5
1C5D
  8
240
  6
CONTINUOUS
 10
-55.000000000021828
 20
16.49999999997317
 30
0.0
 11
-66.00000000000361
 21
16.49999999997317
 31
0.0
  0
LINE
  5
1C5E
  8
240
  6
CONTINUOUS
 10
-76.999999999989086
 20
16.499999999971351
 30
0.0
 11
-66.00000000000361
 21
16.499999999945882
 31
0.0
  0
LINE
  5
1C5F
  8
240
  6
CONTINUOUS
 10
-76.999999999989086
 20
16.499999999971351
 30
0.0
 11
-80.499999999989086
 21
19.999999999971351
 31
0.0
  0
LINE
  5
1C61
  8
240
  6
CONTINUOUS
 10
-51.50000000001819
 20
19.99999999997317
 30
0.0
 11
-9.0000000000036344
 21
19.999999999975621
 31
0.0
  0
LINE
  5
1C6B
  8
241
  6
CONTINUOUS
 10
-9.0000000000036344
 20
19.999999999975621
 30
0.0
 11
-9.0000000000036344
 21
-20.000000000029281
 31
0.0
  0
LINE
  5
1C6D
  8
240
  6
CONTINUOUS
 10
-9.0000000000036344
 20
-26.500000000022052
 30
0.0
 11
-7.6262612902762612
 21
-27.00000000002138
 31
0.0
  0
LINE
  5
1C6F
  8
240
  6
CONTINUOUS
 10
-0.0000000000074681
 20
-27.00000000002138
 30
0.0
 11
-7.6262612902762612
 21
-27.00000000002138
 31
0.0
  0
LINE
  5
1C7A
  8
240
  6
CONTINUOUS
 10
-55.000000000021828
 20
-16.50000000002683
 30
0.0
 11
-51.50000000001819
 21
-20.00000000002683
 31
0.0
  0
LINE
  5
1C7B
  8
240
  6
CONTINUOUS
 10
-55.000000000021828
 20
-16.50000000002683
 30
0.0
 11
-66.00000000000361
 21
-16.50000000002683
 31
0.0
  0
LINE
  5
1C7C
  8
240
  6
CONTINUOUS
 10
-76.999999999989086
 20
-16.500000000025011
 30
0.0
 11
-66.00000000000361
 21
-16.499999999999542
 31
0.0
  0
LINE
  5
1C7D
  8
240
  6
CONTINUOUS
 10
-76.999999999989086
 20
-16.500000000025011
 30
0.0
 11
-80.499999999989086
 21
-20.000000000025011
 31
0.0
  0
LINE
  5
1C7F
  8
240
  6
CONTINUOUS
 10
-51.50000000001819
 20
-20.00000000002683
 30
0.0
 11
-9.0000000000036344
 21
-20.000000000029281
 31
0.0
  0
LINE
  5
1C80
  8
241
  6
CONTINUOUS
 10
0.0
 20
-26.641256028075532
 30
0.0
 11
0.0
 21
26.641256028021871
 31
0.0
  0
LINE
  5
1C82
  8
241
  6
CONTINUOUS
 10
-7.6262612902773981
 20
-27.00000000002138
 30
0.0
 11
-7.6262612902773981
 21
26.99999999996772
 31
0.0
  0
LINE
  5
1C85
  8
243
  6
HIDDEN2
 10
29.999999999996358
 20
-12.5
 30
0.0
 11
64.999999999998295
 21
-12.5
 31
0.0
  0
LINE
  5
1C86
  8
243
  6
HIDDEN2
 10
7.999999999996362
 20
9.5
 30
0.0
 11
29.999999999996358
 21
9.5
 31
0.0
  0
LINE
  5
1C87
  8
243
  6
HIDDEN2
 10
7.999999999996362
 20
-9.5
 30
0.0
 11
7.999999999996362
 21
9.5
 31
0.0
  0
LINE
  5
1C88
  8
243
  6
HIDDEN2
 10
7.999999999996362
 20
-9.5
 30
0.0
 11
29.999999999996358
 21
-9.5
 31
0.0
  0
LINE
  5
1C8A
  8
243
  6
HIDDEN2
 10
29.999999999996358
 20
12.5
 30
0.0
 11
29.999999999996358
 21
-12.5
 31
0.0
  0
LINE
  5
1C8E
  8
243
  6
HIDDEN2
 10
29.999999999996358
 20
12.5
 30
0.0
 11
64.999999999998295
 21
12.5
 31
0.0
  0
LINE
  5
1C92
  8
240
  6
CONTINUOUS
 10
0.00000000000691
 20
26.99999999996772
 30
0.0
 11
0.4712741427669556
 21
25.241180954894119
 31
0.0
  0
LINE
  5
1C93
  8
240
  6
CONTINUOUS
 10
64.999999999996362
 20
0.0
 30
0.0
 11
65.000000000000156
 21
24.499999999988969
 31
0.0
  0
LINE
  5
1C94
  8
245
  6
CENTER2
 10
50.0
 20
20.495044512077129
 30
0.0
 11
50.0
 21
13.423976700211821
 31
0.0
  0
LINE
  5
1C96
  8
240
  6
CONTINUOUS
 10
1.4371999690558881
 20
24.499999999996689
 30
0.0
 11
65.000000000000156
 21
24.499999999988969
 31
0.0
  0
LINE
  5
1C98
  8
245
  6
CENTER2
 10
20.0
 20
5.0000000000004521
 30
0.0
 11
20.0
 21
-5.0000000000004521
 31
0.0
  0
CIRCLE
  5
1C99
  8
242
  6
CONTINUOUS
 10
20.0
 20
0.0
 30
0.0
 40
5.0000000000004521
  0
CIRCLE
  5
1C9A
  8
241
  6
CONTINUOUS
 10
20.0
 20
0.0
 30
0.0
 40
4.2500000000004521
  0
POLYLINE
  5
1C9C
  8
241
  6
CONTINUOUS
 66
     1
 10
0.0
 20
0.0
 30
0.0
 70
     8
  0
VERTEX
  5
1C9D
  8
241
  6
CONTINUOUS
 10
45.75
 20
17.061499999999999
 30
0.0
 70
    32
  0
VERTEX
  5
1C9E
  8
241
  6
CONTINUOUS
 10
45.755099999999999
 20
16.914000000000001
 30
0.0
 70
    32
  0
VERTEX
  5
1C9F
  8
241
  6
CONTINUOUS
 10
45.770499999999977
 20
16.7669
 30
0.0
 70
    32
  0
VERTEX
  5
1CA0
  8
241
  6
CONTINUOUS
 10
45.795999999999999
 20
16.6205
 30
0.0
 70
    32
  0
VERTEX
  5
1CA1
  8
241
  6
CONTINUOUS
 10
45.831699999999991
 20
16.475200000000001
 30
0.0
 70
    32
  0
VERTEX
  5
1CA2
  8
241
  6
CONTINUOUS
 10
45.877400000000002
 20
16.331299999999999
 30
0.0
 70
    32
  0
VERTEX
  5
1CA3
  8
241
  6
CONTINUOUS
 10
45.933
 20
16.1891
 30
0.0
 70
    32
  0
VERTEX
  5
1CA4
  8
241
  6
CONTINUOUS
 10
45.99839999999999
 20
16.048999999999999
 30
0.0
 70
    32
  0
VERTEX
  5
1CA5
  8
241
  6
CONTINUOUS
 10
46.073500000000003
 20
15.9114
 30
0.0
 70
    32
  0
VERTEX
  5
1CA6
  8
241
  6
CONTINUOUS
 10
46.158000000000001
 20
15.7766
 30
0.0
 70
    32
  0
VERTEX
  5
1CA7
  8
241
  6
CONTINUOUS
 10
46.251800000000003
 20
15.6448
 30
0.0
 70
    32
  0
VERTEX
  5
1CA8
  8
241
  6
CONTINUOUS
 10
46.354700000000001
 20
15.516500000000001
 30
0.0
 70
    32
  0
VERTEX
  5
1CA9
  8
241
  6
CONTINUOUS
 10
46.466299999999997
 20
15.3919
 30
0.0
 70
    32
  0
VERTEX
  5
1CAA
  8
241
  6
CONTINUOUS
 10
46.586399999999998
 20
15.2713
 30
0.0
 70
    32
  0
VERTEX
  5
1CAB
  8
241
  6
CONTINUOUS
 10
46.714700000000001
 20
15.154999999999999
 30
0.0
 70
    32
  0
VERTEX
  5
1CAC
  8
241
  6
CONTINUOUS
 10
46.850999999999999
 20
15.0433
 30
0.0
 70
    32
  0
VERTEX
  5
1CAD
  8
241
  6
CONTINUOUS
 10
46.994799999999998
 20
14.936500000000001
 30
0.0
 70
    32
  0
VERTEX
  5
1CAE
  8
241
  6
CONTINUOUS
 10
47.145899999999997
 20
14.8348
 30
0.0
 70
    32
  0
VERTEX
  5
1CAF
  8
241
  6
CONTINUOUS
 10
47.303800000000003
 20
14.7384
 30
0.0
 70
    32
  0
VERTEX
  5
1CB0
  8
241
  6
CONTINUOUS
 10
47.468299999999999
 20
14.6477
 30
0.0
 70
    32
  0
VERTEX
  5
1CB1
  8
241
  6
CONTINUOUS
 10
47.638800000000003
 20
14.5627
 30
0.0
 70
    32
  0
VERTEX
  5
1CB2
  8
241
  6
CONTINUOUS
 10
47.815099999999987
 20
14.4838
 30
0.0
 70
    32
  0
VERTEX
  5
1CB3
  8
241
  6
CONTINUOUS
 10
47.996600000000001
 20
14.411099999999999
 30
0.0
 70
    32
  0
VERTEX
  5
1CB4
  8
241
  6
CONTINUOUS
 10
48.182899999999997
 20
14.344799999999999
 30
0.0
 70
    32
  0
VERTEX
  5
1CB5
  8
241
  6
CONTINUOUS
 10
48.373600000000003
 20
14.285
 30
0.0
 70
    32
  0
VERTEX
  5
1CB6
  8
241
  6
CONTINUOUS
 10
48.56819999999999
 20
14.2319
 30
0.0
 70
    32
  0
VERTEX
  5
1CB7
  8
241
  6
CONTINUOUS
 10
48.766300000000001
 20
14.185700000000001
 30
0.0
 70
    32
  0
VERTEX
  5
1CB8
  8
241
  6
CONTINUOUS
 10
48.967300000000002
 20
14.1463
 30
0.0
 70
    32
  0
VERTEX
  5
1CB9
  8
241
  6
CONTINUOUS
 10
49.170900000000003
 20
14.114000000000001
 30
0.0
 70
    32
  0
VERTEX
  5
1CBA
  8
241
  6
CONTINUOUS
 10
49.376399999999997
 20
14.088800000000001
 30
0.0
 70
    32
  0
VERTEX
  5
1CBB
  8
241
  6
CONTINUOUS
 10
49.58339999999999
 20
14.0707
 30
0.0
 70
    32
  0
VERTEX
  5
1CBC
  8
241
  6
CONTINUOUS
 10
49.791499999999999
 20
14.059900000000001
 30
0.0
 70
    32
  0
VERTEX
  5
1CBD
  8
241
  6
CONTINUOUS
 10
50.0
 20
14.0563
 30
0.0
 70
    32
  0
VERTEX
  5
1CBE
  8
241
  6
CONTINUOUS
 10
50.208500000000001
 20
14.059900000000001
 30
0.0
 70
    32
  0
VERTEX
  5
1CBF
  8
241
  6
CONTINUOUS
 10
50.416600000000003
 20
14.0707
 30
0.0
 70
    32
  0
VERTEX
  5
1CC0
  8
241
  6
CONTINUOUS
 10
50.623600000000003
 20
14.088800000000001
 30
0.0
 70
    32
  0
VERTEX
  5
1CC1
  8
241
  6
CONTINUOUS
 10
50.829099999999997
 20
14.114000000000001
 30
0.0
 70
    32
  0
VERTEX
  5
1CC2
  8
241
  6
CONTINUOUS
 10
51.032699999999998
 20
14.1463
 30
0.0
 70
    32
  0
VERTEX
  5
1CC3
  8
241
  6
CONTINUOUS
 10
51.233699999999999
 20
14.185700000000001
 30
0.0
 70
    32
  0
VERTEX
  5
1CC4
  8
241
  6
CONTINUOUS
 10
51.431800000000003
 20
14.2319
 30
0.0
 70
    32
  0
VERTEX
  5
1CC5
  8
241
  6
CONTINUOUS
 10
51.62639999999999
 20
14.285
 30
0.0
 70
    32
  0
VERTEX
  5
1CC6
  8
241
  6
CONTINUOUS
 10
51.817100000000003
 20
14.344799999999999
 30
0.0
 70
    32
  0
VERTEX
  5
1CC7
  8
241
  6
CONTINUOUS
 10
52.003399999999999
 20
14.411099999999999
 30
0.0
 70
    32
  0
VERTEX
  5
1CC8
  8
241
  6
CONTINUOUS
 10
52.184899999999999
 20
14.4838
 30
0.0
 70
    32
  0
VERTEX
  5
1CC9
  8
241
  6
CONTINUOUS
 10
52.36119999999999
 20
14.5627
 30
0.0
 70
    32
  0
VERTEX
  5
1CCA
  8
241
  6
CONTINUOUS
 10
52.531700000000001
 20
14.6477
 30
0.0
 70
    32
  0
VERTEX
  5
1CCB
  8
241
  6
CONTINUOUS
 10
52.69619999999999
 20
14.7384
 30
0.0
 70
    32
  0
VERTEX
  5
1CCC
  8
241
  6
CONTINUOUS
 10
52.854100000000003
 20
14.8348
 30
0.0
 70
    32
  0
VERTEX
  5
1CCD
  8
241
  6
CONTINUOUS
 10
53.005200000000002
 20
14.936500000000001
 30
0.0
 70
    32
  0
VERTEX
  5
1CCE
  8
241
  6
CONTINUOUS
 10
53.149000000000001
 20
15.0433
 30
0.0
 70
    32
  0
VERTEX
  5
1CCF
  8
241
  6
CONTINUOUS
 10
53.285299999999999
 20
15.154999999999999
 30
0.0
 70
    32
  0
VERTEX
  5
1CD0
  8
241
  6
CONTINUOUS
 10
53.413600000000002
 20
15.2713
 30
0.0
 70
    32
  0
VERTEX
  5
1CD1
  8
241
  6
CONTINUOUS
 10
53.533700000000003
 20
15.3919
 30
0.0
 70
    32
  0
VERTEX
  5
1CD2
  8
241
  6
CONTINUOUS
 10
53.645299999999999
 20
15.516500000000001
 30
0.0
 70
    32
  0
VERTEX
  5
1CD3
  8
241
  6
CONTINUOUS
 10
53.74819999999999
 20
15.6448
 30
0.0
 70
    32
  0
VERTEX
  5
1CD4
  8
241
  6
CONTINUOUS
 10
53.841999999999992
 20
15.7766
 30
0.0
 70
    32
  0
VERTEX
  5
1CD5
  8
241
  6
CONTINUOUS
 10
53.92649999999999
 20
15.9114
 30
0.0
 70
    32
  0
VERTEX
  5
1CD6
  8
241
  6
CONTINUOUS
 10
54.001600000000003
 20
16.048999999999999
 30
0.0
 70
    32
  0
VERTEX
  5
1CD7
  8
241
  6
CONTINUOUS
 10
54.067
 20
16.1891
 30
0.0
 70
    32
  0
VERTEX
  5
1CD8
  8
241
  6
CONTINUOUS
 10
54.122599999999991
 20
16.331299999999999
 30
0.0
 70
    32
  0
VERTEX
  5
1CD9
  8
241
  6
CONTINUOUS
 10
54.168300000000002
 20
16.475200000000001
 30
0.0
 70
    32
  0
VERTEX
  5
1CDA
  8
241
  6
CONTINUOUS
 10
54.204000000000001
 20
16.6205
 30
0.0
 70
    32
  0
VERTEX
  5
1CDB
  8
241
  6
CONTINUOUS
 10
54.229500000000002
 20
16.7669
 30
0.0
 70
    32
  0
VERTEX
  5
1CDC
  8
241
  6
CONTINUOUS
 10
54.244900000000001
 20
16.914000000000001
 30
0.0
 70
    32
  0
VERTEX
  5
1CDD
  8
241
  6
CONTINUOUS
 10
54.25
 20
17.061499999999999
 30
0.0
 70
    32
  0
VERTEX
  5
1CDE
  8
241
  6
CONTINUOUS
 10
54.244900000000001
 20
17.2089
 30
0.0
 70
    32
  0
VERTEX
  5
1CDF
  8
241
  6
CONTINUOUS
 10
54.229500000000002
 20
17.356000000000002
 30
0.0
 70
    32
  0
VERTEX
  5
1CE0
  8
241
  6
CONTINUOUS
 10
54.204000000000001
 20
17.502400000000002
 30
0.0
 70
    32
  0
VERTEX
  5
1CE1
  8
241
  6
CONTINUOUS
 10
54.168300000000002
 20
17.6478
 30
0.0
 70
    32
  0
VERTEX
  5
1CE2
  8
241
  6
CONTINUOUS
 10
54.122599999999991
 20
17.791699999999999
 30
0.0
 70
    32
  0
VERTEX
  5
1CE3
  8
241
  6
CONTINUOUS
 10
54.067
 20
17.933800000000002
 30
0.0
 70
    32
  0
VERTEX
  5
1CE4
  8
241
  6
CONTINUOUS
 10
54.001600000000003
 20
18.073899999999998
 30
0.0
 70
    32
  0
VERTEX
  5
1CE5
  8
241
  6
CONTINUOUS
 10
53.92649999999999
 20
18.211500000000001
 30
0.0
 70
    32
  0
VERTEX
  5
1CE6
  8
241
  6
CONTINUOUS
 10
53.841999999999992
 20
18.346399999999999
 30
0.0
 70
    32
  0
VERTEX
  5
1CE7
  8
241
  6
CONTINUOUS
 10
53.74819999999999
 20
18.478100000000001
 30
0.0
 70
    32
  0
VERTEX
  5
1CE8
  8
241
  6
CONTINUOUS
 10
53.645299999999999
 20
18.6065
 30
0.0
 70
    32
  0
VERTEX
  5
1CE9
  8
241
  6
CONTINUOUS
 10
53.533700000000003
 20
18.731100000000001
 30
0.0
 70
    32
  0
VERTEX
  5
1CEA
  8
241
  6
CONTINUOUS
 10
53.413600000000002
 20
18.851700000000001
 30
0.0
 70
    32
  0
VERTEX
  5
1CEB
  8
241
  6
CONTINUOUS
 10
53.285299999999999
 20
18.968
 30
0.0
 70
    32
  0
VERTEX
  5
1CEC
  8
241
  6
CONTINUOUS
 10
53.149000000000001
 20
19.079599999999999
 30
0.0
 70
    32
  0
VERTEX
  5
1CED
  8
241
  6
CONTINUOUS
 10
53.005200000000002
 20
19.186499999999999
 30
0.0
 70
    32
  0
VERTEX
  5
1CEE
  8
241
  6
CONTINUOUS
 10
52.854100000000003
 20
19.2882
 30
0.0
 70
    32
  0
VERTEX
  5
1CEF
  8
241
  6
CONTINUOUS
 10
52.69619999999999
 20
19.384499999999999
 30
0.0
 70
    32
  0
VERTEX
  5
1CF0
  8
241
  6
CONTINUOUS
 10
52.531700000000001
 20
19.475300000000001
 30
0.0
 70
    32
  0
VERTEX
  5
1CF1
  8
241
  6
CONTINUOUS
 10
52.36119999999999
 20
19.560199999999998
 30
0.0
 70
    32
  0
VERTEX
  5
1CF2
  8
241
  6
CONTINUOUS
 10
52.184899999999999
 20
19.639099999999999
 30
0.0
 70
    32
  0
VERTEX
  5
1CF3
  8
241
  6
CONTINUOUS
 10
52.003399999999999
 20
19.7118
 30
0.0
 70
    32
  0
VERTEX
  5
1CF4
  8
241
  6
CONTINUOUS
 10
51.817100000000003
 20
19.778099999999998
 30
0.0
 70
    32
  0
VERTEX
  5
1CF5
  8
241
  6
CONTINUOUS
 10
51.62639999999999
 20
19.837900000000001
 30
0.0
 70
    32
  0
VERTEX
  5
1CF6
  8
241
  6
CONTINUOUS
 10
51.431800000000003
 20
19.890999999999998
 30
0.0
 70
    32
  0
VERTEX
  5
1CF7
  8
241
  6
CONTINUOUS
 10
51.233699999999999
 20
19.9373
 30
0.0
 70
    32
  0
VERTEX
  5
1CF8
  8
241
  6
CONTINUOUS
 10
51.032699999999998
 20
19.976600000000001
 30
0.0
 70
    32
  0
VERTEX
  5
1CF9
  8
241
  6
CONTINUOUS
 10
50.829099999999997
 20
20.008900000000001
 30
0.0
 70
    32
  0
VERTEX
  5
1CFA
  8
241
  6
CONTINUOUS
 10
50.623600000000003
 20
20.034099999999999
 30
0.0
 70
    32
  0
VERTEX
  5
1CFB
  8
241
  6
CONTINUOUS
 10
50.416600000000003
 20
20.052199999999999
 30
0.0
 70
    32
  0
VERTEX
  5
1CFC
  8
241
  6
CONTINUOUS
 10
50.208500000000001
 20
20.063099999999999
 30
0.0
 70
    32
  0
VERTEX
  5
1CFD
  8
241
  6
CONTINUOUS
 10
50.0
 20
20.066700000000001
 30
0.0
 70
    32
  0
VERTEX
  5
1CFE
  8
241
  6
CONTINUOUS
 10
49.791499999999999
 20
20.063099999999999
 30
0.0
 70
    32
  0
VERTEX
  5
1CFF
  8
241
  6
CONTINUOUS
 10
49.58339999999999
 20
20.052199999999999
 30
0.0
 70
    32
  0
VERTEX
  5
1D00
  8
241
  6
CONTINUOUS
 10
49.376399999999997
 20
20.034099999999999
 30
0.0
 70
    32
  0
VERTEX
  5
1D01
  8
241
  6
CONTINUOUS
 10
49.170900000000003
 20
20.008900000000001
 30
0.0
 70
    32
  0
VERTEX
  5
1D02
  8
241
  6
CONTINUOUS
 10
48.967300000000002
 20
19.976600000000001
 30
0.0
 70
    32
  0
VERTEX
  5
1D03
  8
241
  6
CONTINUOUS
 10
48.766300000000001
 20
19.9373
 30
0.0
 70
    32
  0
VERTEX
  5
1D04
  8
241
  6
CONTINUOUS
 10
48.56819999999999
 20
19.890999999999998
 30
0.0
 70
    32
  0
VERTEX
  5
1D05
  8
241
  6
CONTINUOUS
 10
48.373600000000003
 20
19.837900000000001
 30
0.0
 70
    32
  0
VERTEX
  5
1D06
  8
241
  6
CONTINUOUS
 10
48.182899999999997
 20
19.778099999999998
 30
0.0
 70
    32
  0
VERTEX
  5
1D07
  8
241
  6
CONTINUOUS
 10
47.996600000000001
 20
19.7118
 30
0.0
 70
    32
  0
VERTEX
  5
1D08
  8
241
  6
CONTINUOUS
 10
47.815099999999987
 20
19.639099999999999
 30
0.0
 70
    32
  0
VERTEX
  5
1D09
  8
241
  6
CONTINUOUS
 10
47.638800000000003
 20
19.560199999999998
 30
0.0
 70
    32
  0
VERTEX
  5
1D0A
  8
241
  6
CONTINUOUS
 10
47.468299999999999
 20
19.475300000000001
 30
0.0
 70
    32
  0
VERTEX
  5
1D0B
  8
241
  6
CONTINUOUS
 10
47.303800000000003
 20
19.384499999999999
 30
0.0
 70
    32
  0
VERTEX
  5
1D0C
  8
241
  6
CONTINUOUS
 10
47.145899999999997
 20
19.2882
 30
0.0
 70
    32
  0
VERTEX
  5
1D0D
  8
241
  6
CONTINUOUS
 10
46.994799999999998
 20
19.186499999999999
 30
0.0
 70
    32
  0
VERTEX
  5
1D0E
  8
241
  6
CONTINUOUS
 10
46.850999999999999
 20
19.079599999999999
 30
0.0
 70
    32
  0
VERTEX
  5
1D0F
  8
241
  6
CONTINUOUS
 10
46.714700000000001
 20
18.968
 30
0.0
 70
    32
  0
VERTEX
  5
1D10
  8
241
  6
CONTINUOUS
 10
46.586399999999998
 20
18.851700000000001
 30
0.0
 70
    32
  0
VERTEX
  5
1D11
  8
241
  6
CONTINUOUS
 10
46.466299999999997
 20
18.731100000000001
 30
0.0
 70
    32
  0
VERTEX
  5
1D12
  8
241
  6
CONTINUOUS
 10
46.354700000000001
 20
18.6065
 30
0.0
 70
    32
  0
VERTEX
  5
1D13
  8
241
  6
CONTINUOUS
 10
46.251800000000003
 20
18.478100000000001
 30
0.0
 70
    32
  0
VERTEX
  5
1D14
  8
241
  6
CONTINUOUS
 10
46.158000000000001
 20
18.346399999999999
 30
0.0
 70
    32
  0
VERTEX
  5
1D15
  8
241
  6
CONTINUOUS
 10
46.073500000000003
 20
18.211500000000001
 30
0.0
 70
    32
  0
VERTEX
  5
1D16
  8
241
  6
CONTINUOUS
 10
45.99839999999999
 20
18.073899999999998
 30
0.0
 70
    32
  0
VERTEX
  5
1D17
  8
241
  6
CONTINUOUS
 10
45.933
 20
17.933800000000002
 30
0.0
 70
    32
  0
VERTEX
  5
1D18
  8
241
  6
CONTINUOUS
 10
45.877400000000002
 20
17.791699999999999
 30
0.0
 70
    32
  0
VERTEX
  5
1D19
  8
241
  6
CONTINUOUS
 10
45.831699999999991
 20
17.6478
 30
0.0
 70
    32
  0
VERTEX
  5
1D1A
  8
241
  6
CONTINUOUS
 10
45.795999999999999
 20
17.502400000000002
 30
0.0
 70
    32
  0
VERTEX
  5
1D1B
  8
241
  6
CONTINUOUS
 10
45.770499999999977
 20
17.356000000000002
 30
0.0
 70
    32
  0
VERTEX
  5
1D1C
  8
241
  6
CONTINUOUS
 10
45.755099999999999
 20
17.2089
 30
0.0
 70
    32
  0
VERTEX
  5
1D1D
  8
241
  6
CONTINUOUS
 10
45.75
 20
17.061499999999999
 30
0.0
 70
    32
  0
SEQEND
  5
1D1E
  8
241
  6
CONTINUOUS
  0
POLYLINE
  5
1D1F
  8
242
  6
CONTINUOUS
 66
     1
 10
0.0
 20
0.0
 30
0.0
 70
     8
  0
VERTEX
  5
1D20
  8
242
  6
CONTINUOUS
 10
45.0
 20
16.959499999999998
 30
0.0
 70
    32
  0
VERTEX
  5
1D21
  8
242
  6
CONTINUOUS
 10
45.006
 20
16.786000000000001
 30
0.0
 70
    32
  0
VERTEX
  5
1D22
  8
242
  6
CONTINUOUS
 10
45.024099999999997
 20
16.613
 30
0.0
 70
    32
  0
VERTEX
  5
1D23
  8
242
  6
CONTINUOUS
 10
45.054099999999998
 20
16.4407
 30
0.0
 70
    32
  0
VERTEX
  5
1D24
  8
242
  6
CONTINUOUS
 10
45.0961
 20
16.2698
 30
0.0
 70
    32
  0
VERTEX
  5
1D25
  8
242
  6
CONTINUOUS
 10
45.149799999999999
 20
16.1004
 30
0.0
 70
    32
  0
VERTEX
  5
1D26
  8
242
  6
CONTINUOUS
 10
45.215299999999999
 20
15.933199999999999
 30
0.0
 70
    32
  0
VERTEX
  5
1D27
  8
242
  6
CONTINUOUS
 10
45.292299999999997
 20
15.7684
 30
0.0
 70
    32
  0
VERTEX
  5
1D28
  8
242
  6
CONTINUOUS
 10
45.380600000000001
 20
15.6065
 30
0.0
 70
    32
  0
VERTEX
  5
1D29
  8
242
  6
CONTINUOUS
 10
45.4801
 20
15.447900000000001
 30
0.0
 70
    32
  0
VERTEX
  5
1D2A
  8
242
  6
CONTINUOUS
 10
45.590400000000002
 20
15.292899999999999
 30
0.0
 70
    32
  0
VERTEX
  5
1D2B
  8
242
  6
CONTINUOUS
 10
45.711399999999983
 20
15.1419
 30
0.0
 70
    32
  0
VERTEX
  5
1D2C
  8
242
  6
CONTINUOUS
 10
45.842700000000001
 20
14.9953
 30
0.0
 70
    32
  0
VERTEX
  5
1D2D
  8
242
  6
CONTINUOUS
 10
45.984000000000002
 20
14.853400000000001
 30
0.0
 70
    32
  0
VERTEX
  5
1D2E
  8
242
  6
CONTINUOUS
 10
46.134900000000002
 20
14.7166
 30
0.0
 70
    32
  0
VERTEX
  5
1D2F
  8
242
  6
CONTINUOUS
 10
46.295200000000001
 20
14.5852
 30
0.0
 70
    32
  0
VERTEX
  5
1D30
  8
242
  6
CONTINUOUS
 10
46.464500000000001
 20
14.4595
 30
0.0
 70
    32
  0
VERTEX
  5
1D31
  8
242
  6
CONTINUOUS
 10
46.642200000000003
 20
14.3399
 30
0.0
 70
    32
  0
VERTEX
  5
1D32
  8
242
  6
CONTINUOUS
 10
46.828000000000003
 20
14.2265
 30
0.0
 70
    32
  0
VERTEX
  5
1D33
  8
242
  6
CONTINUOUS
 10
47.021500000000003
 20
14.1197
 30
0.0
 70
    32
  0
VERTEX
  5
1D34
  8
242
  6
CONTINUOUS
 10
47.22209999999999
 20
14.0198
 30
0.0
 70
    32
  0
VERTEX
  5
1D35
  8
242
  6
CONTINUOUS
 10
47.42949999999999
 20
13.927
 30
0.0
 70
    32
  0
VERTEX
  5
1D36
  8
242
  6
CONTINUOUS
 10
47.643000000000001
 20
13.8414
 30
0.0
 70
    32
  0
VERTEX
  5
1D37
  8
242
  6
CONTINUOUS
 10
47.862200000000001
 20
13.763400000000001
 30
0.0
 70
    32
  0
VERTEX
  5
1D38
  8
242
  6
CONTINUOUS
 10
48.08659999999999
 20
13.693099999999999
 30
0.0
 70
    32
  0
VERTEX
  5
1D39
  8
242
  6
CONTINUOUS
 10
48.315600000000003
 20
13.630599999999999
 30
0.0
 70
    32
  0
VERTEX
  5
1D3A
  8
242
  6
CONTINUOUS
 10
48.5486
 20
13.5762
 30
0.0
 70
    32
  0
VERTEX
  5
1D3B
  8
242
  6
CONTINUOUS
 10
48.7851
 20
13.5299
 30
0.0
 70
    32
  0
VERTEX
  5
1D3C
  8
242
  6
CONTINUOUS
 10
49.024500000000003
 20
13.491899999999999
 30
0.0
 70
    32
  0
VERTEX
  5
1D3D
  8
242
  6
CONTINUOUS
 10
49.266300000000001
 20
13.462199999999999
 30
0.0
 70
    32
  0
VERTEX
  5
1D3E
  8
242
  6
CONTINUOUS
 10
49.509900000000002
 20
13.441000000000001
 30
0.0
 70
    32
  0
VERTEX
  5
1D3F
  8
242
  6
CONTINUOUS
 10
49.7547
 20
13.4282
 30
0.0
 70
    32
  0
VERTEX
  5
1D40
  8
242
  6
CONTINUOUS
 10
50.0
 20
13.423999999999999
 30
0.0
 70
    32
  0
VERTEX
  5
1D41
  8
242
  6
CONTINUOUS
 10
50.2453
 20
13.4282
 30
0.0
 70
    32
  0
VERTEX
  5
1D42
  8
242
  6
CONTINUOUS
 10
50.490099999999991
 20
13.441000000000001
 30
0.0
 70
    32
  0
VERTEX
  5
1D43
  8
242
  6
CONTINUOUS
 10
50.733699999999999
 20
13.462199999999999
 30
0.0
 70
    32
  0
VERTEX
  5
1D44
  8
242
  6
CONTINUOUS
 10
50.975499999999997
 20
13.491899999999999
 30
0.0
 70
    32
  0
VERTEX
  5
1D45
  8
242
  6
CONTINUOUS
 10
51.2149
 20
13.5299
 30
0.0
 70
    32
  0
VERTEX
  5
1D46
  8
242
  6
CONTINUOUS
 10
51.4514
 20
13.5762
 30
0.0
 70
    32
  0
VERTEX
  5
1D47
  8
242
  6
CONTINUOUS
 10
51.684399999999997
 20
13.630599999999999
 30
0.0
 70
    32
  0
VERTEX
  5
1D48
  8
242
  6
CONTINUOUS
 10
51.913400000000003
 20
13.693099999999999
 30
0.0
 70
    32
  0
VERTEX
  5
1D49
  8
242
  6
CONTINUOUS
 10
52.137799999999991
 20
13.763400000000001
 30
0.0
 70
    32
  0
VERTEX
  5
1D4A
  8
242
  6
CONTINUOUS
 10
52.356999999999999
 20
13.8414
 30
0.0
 70
    32
  0
VERTEX
  5
1D4B
  8
242
  6
CONTINUOUS
 10
52.570500000000003
 20
13.927
 30
0.0
 70
    32
  0
VERTEX
  5
1D4C
  8
242
  6
CONTINUOUS
 10
52.777900000000002
 20
14.0198
 30
0.0
 70
    32
  0
VERTEX
  5
1D4D
  8
242
  6
CONTINUOUS
 10
52.978499999999997
 20
14.1197
 30
0.0
 70
    32
  0
VERTEX
  5
1D4E
  8
242
  6
CONTINUOUS
 10
53.17199999999999
 20
14.2265
 30
0.0
 70
    32
  0
VERTEX
  5
1D4F
  8
242
  6
CONTINUOUS
 10
53.35779999999999
 20
14.3399
 30
0.0
 70
    32
  0
VERTEX
  5
1D50
  8
242
  6
CONTINUOUS
 10
53.535499999999999
 20
14.4595
 30
0.0
 70
    32
  0
VERTEX
  5
1D51
  8
242
  6
CONTINUOUS
 10
53.704799999999999
 20
14.5852
 30
0.0
 70
    32
  0
VERTEX
  5
1D52
  8
242
  6
CONTINUOUS
 10
53.865099999999998
 20
14.7166
 30
0.0
 70
    32
  0
VERTEX
  5
1D53
  8
242
  6
CONTINUOUS
 10
54.015999999999998
 20
14.853400000000001
 30
0.0
 70
    32
  0
VERTEX
  5
1D54
  8
242
  6
CONTINUOUS
 10
54.157299999999992
 20
14.9953
 30
0.0
 70
    32
  0
VERTEX
  5
1D55
  8
242
  6
CONTINUOUS
 10
54.288600000000002
 20
15.1419
 30
0.0
 70
    32
  0
VERTEX
  5
1D56
  8
242
  6
CONTINUOUS
 10
54.409599999999998
 20
15.292899999999999
 30
0.0
 70
    32
  0
VERTEX
  5
1D57
  8
242
  6
CONTINUOUS
 10
54.5199
 20
15.447900000000001
 30
0.0
 70
    32
  0
VERTEX
  5
1D58
  8
242
  6
CONTINUOUS
 10
54.619399999999999
 20
15.6065
 30
0.0
 70
    32
  0
VERTEX
  5
1D59
  8
242
  6
CONTINUOUS
 10
54.707700000000003
 20
15.7684
 30
0.0
 70
    32
  0
VERTEX
  5
1D5A
  8
242
  6
CONTINUOUS
 10
54.784700000000001
 20
15.933199999999999
 30
0.0
 70
    32
  0
VERTEX
  5
1D5B
  8
242
  6
CONTINUOUS
 10
54.850200000000001
 20
16.1004
 30
0.0
 70
    32
  0
VERTEX
  5
1D5C
  8
242
  6
CONTINUOUS
 10
54.9039
 20
16.2698
 30
0.0
 70
    32
  0
VERTEX
  5
1D5D
  8
242
  6
CONTINUOUS
 10
54.945900000000002
 20
16.4407
 30
0.0
 70
    32
  0
VERTEX
  5
1D5E
  8
242
  6
CONTINUOUS
 10
54.975900000000003
 20
16.613
 30
0.0
 70
    32
  0
VERTEX
  5
1D5F
  8
242
  6
CONTINUOUS
 10
54.994
 20
16.786000000000001
 30
0.0
 70
    32
  0
VERTEX
  5
1D60
  8
242
  6
CONTINUOUS
 10
55.0
 20
16.959499999999998
 30
0.0
 70
    32
  0
VERTEX
  5
1D61
  8
242
  6
CONTINUOUS
 10
54.994
 20
17.132999999999999
 30
0.0
 70
    32
  0
VERTEX
  5
1D62
  8
242
  6
CONTINUOUS
 10
54.975900000000003
 20
17.306100000000001
 30
0.0
 70
    32
  0
VERTEX
  5
1D63
  8
242
  6
CONTINUOUS
 10
54.945900000000002
 20
17.478300000000001
 30
0.0
 70
    32
  0
VERTEX
  5
1D64
  8
242
  6
CONTINUOUS
 10
54.9039
 20
17.6493
 30
0.0
 70
    32
  0
VERTEX
  5
1D65
  8
242
  6
CONTINUOUS
 10
54.850200000000001
 20
17.8186
 30
0.0
 70
    32
  0
VERTEX
  5
1D66
  8
242
  6
CONTINUOUS
 10
54.784700000000001
 20
17.985800000000001
 30
0.0
 70
    32
  0
VERTEX
  5
1D67
  8
242
  6
CONTINUOUS
 10
54.707700000000003
 20
18.150600000000001
 30
0.0
 70
    32
  0
VERTEX
  5
1D68
  8
242
  6
CONTINUOUS
 10
54.619399999999999
 20
18.3125
 30
0.0
 70
    32
  0
VERTEX
  5
1D69
  8
242
  6
CONTINUOUS
 10
54.5199
 20
18.4711
 30
0.0
 70
    32
  0
VERTEX
  5
1D6A
  8
242
  6
CONTINUOUS
 10
54.409599999999998
 20
18.626100000000001
 30
0.0
 70
    32
  0
VERTEX
  5
1D6B
  8
242
  6
CONTINUOUS
 10
54.288600000000002
 20
18.777100000000001
 30
0.0
 70
    32
  0
VERTEX
  5
1D6C
  8
242
  6
CONTINUOUS
 10
54.157299999999992
 20
18.9237
 30
0.0
 70
    32
  0
VERTEX
  5
1D6D
  8
242
  6
CONTINUOUS
 10
54.015999999999998
 20
19.0656
 30
0.0
 70
    32
  0
VERTEX
  5
1D6E
  8
242
  6
CONTINUOUS
 10
53.865099999999998
 20
19.202400000000001
 30
0.0
 70
    32
  0
VERTEX
  5
1D6F
  8
242
  6
CONTINUOUS
 10
53.704799999999999
 20
19.3338
 30
0.0
 70
    32
  0
VERTEX
  5
1D70
  8
242
  6
CONTINUOUS
 10
53.535499999999999
 20
19.459499999999998
 30
0.0
 70
    32
  0
VERTEX
  5
1D71
  8
242
  6
CONTINUOUS
 10
53.35779999999999
 20
19.5792
 30
0.0
 70
    32
  0
VERTEX
  5
1D72
  8
242
  6
CONTINUOUS
 10
53.17199999999999
 20
19.692499999999999
 30
0.0
 70
    32
  0
VERTEX
  5
1D73
  8
242
  6
CONTINUOUS
 10
52.978499999999997
 20
19.799299999999999
 30
0.0
 70
    32
  0
VERTEX
  5
1D74
  8
242
  6
CONTINUOUS
 10
52.777900000000002
 20
19.8992
 30
0.0
 70
    32
  0
VERTEX
  5
1D75
  8
242
  6
CONTINUOUS
 10
52.570500000000003
 20
19.992000000000001
 30
0.0
 70
    32
  0
VERTEX
  5
1D76
  8
242
  6
CONTINUOUS
 10
52.356999999999999
 20
20.0776
 30
0.0
 70
    32
  0
VERTEX
  5
1D77
  8
242
  6
CONTINUOUS
 10
52.137799999999991
 20
20.1556
 30
0.0
 70
    32
  0
VERTEX
  5
1D78
  8
242
  6
CONTINUOUS
 10
51.913400000000003
 20
20.225899999999999
 30
0.0
 70
    32
  0
VERTEX
  5
1D79
  8
242
  6
CONTINUOUS
 10
51.684399999999997
 20
20.288399999999999
 30
0.0
 70
    32
  0
VERTEX
  5
1D7A
  8
242
  6
CONTINUOUS
 10
51.4514
 20
20.3428
 30
0.0
 70
    32
  0
VERTEX
  5
1D7B
  8
242
  6
CONTINUOUS
 10
51.2149
 20
20.389099999999999
 30
0.0
 70
    32
  0
VERTEX
  5
1D7C
  8
242
  6
CONTINUOUS
 10
50.975499999999997
 20
20.427099999999999
 30
0.0
 70
    32
  0
VERTEX
  5
1D7D
  8
242
  6
CONTINUOUS
 10
50.733699999999999
 20
20.456800000000001
 30
0.0
 70
    32
  0
VERTEX
  5
1D7E
  8
242
  6
CONTINUOUS
 10
50.490099999999991
 20
20.478000000000002
 30
0.0
 70
    32
  0
VERTEX
  5
1D7F
  8
242
  6
CONTINUOUS
 10
50.2453
 20
20.4908
 30
0.0
 70
    32
  0
VERTEX
  5
1D80
  8
242
  6
CONTINUOUS
 10
50.0
 20
20.495000000000001
 30
0.0
 70
    32
  0
VERTEX
  5
1D81
  8
242
  6
CONTINUOUS
 10
49.7547
 20
20.4908
 30
0.0
 70
    32
  0
VERTEX
  5
1D82
  8
242
  6
CONTINUOUS
 10
49.509900000000002
 20
20.478000000000002
 30
0.0
 70
    32
  0
VERTEX
  5
1D83
  8
242
  6
CONTINUOUS
 10
49.266300000000001
 20
20.456800000000001
 30
0.0
 70
    32
  0
VERTEX
  5
1D84
  8
242
  6
CONTINUOUS
 10
49.024500000000003
 20
20.427099999999999
 30
0.0
 70
    32
  0
VERTEX
  5
1D85
  8
242
  6
CONTINUOUS
 10
48.7851
 20
20.389099999999999
 30
0.0
 70
    32
  0
VERTEX
  5
1D86
  8
242
  6
CONTINUOUS
 10
48.5486
 20
20.3428
 30
0.0
 70
    32
  0
VERTEX
  5
1D87
  8
242
  6
CONTINUOUS
 10
48.315600000000003
 20
20.288399999999999
 30
0.0
 70
    32
  0
VERTEX
  5
1D88
  8
242
  6
CONTINUOUS
 10
48.08659999999999
 20
20.225899999999999
 30
0.0
 70
    32
  0
VERTEX
  5
1D89
  8
242
  6
CONTINUOUS
 10
47.862200000000001
 20
20.1556
 30
0.0
 70
    32
  0
VERTEX
  5
1D8A
  8
242
  6
CONTINUOUS
 10
47.643000000000001
 20
20.0776
 30
0.0
 70
    32
  0
VERTEX
  5
1D8B
  8
242
  6
CONTINUOUS
 10
47.42949999999999
 20
19.992000000000001
 30
0.0
 70
    32
  0
VERTEX
  5
1D8C
  8
242
  6
CONTINUOUS
 10
47.22209999999999
 20
19.8992
 30
0.0
 70
    32
  0
VERTEX
  5
1D8D
  8
242
  6
CONTINUOUS
 10
47.021500000000003
 20
19.799299999999999
 30
0.0
 70
    32
  0
VERTEX
  5
1D8E
  8
242
  6
CONTINUOUS
 10
46.828000000000003
 20
19.692499999999999
 30
0.0
 70
    32
  0
VERTEX
  5
1D8F
  8
242
  6
CONTINUOUS
 10
46.642200000000003
 20
19.5792
 30
0.0
 70
    32
  0
VERTEX
  5
1D90
  8
242
  6
CONTINUOUS
 10
46.464500000000001
 20
19.459499999999998
 30
0.0
 70
    32
  0
VERTEX
  5
1D91
  8
242
  6
CONTINUOUS
 10
46.295200000000001
 20
19.3338
 30
0.0
 70
    32
  0
VERTEX
  5
1D92
  8
242
  6
CONTINUOUS
 10
46.134900000000002
 20
19.202400000000001
 30
0.0
 70
    32
  0
VERTEX
  5
1D93
  8
242
  6
CONTINUOUS
 10
45.984000000000002
 20
19.0656
 30
0.0
 70
    32
  0
VERTEX
  5
1D94
  8
242
  6
CONTINUOUS
 10
45.842700000000001
 20
18.9237
 30
0.0
 70
    32
  0
VERTEX
  5
1D95
  8
242
  6
CONTINUOUS
 10
45.711399999999983
 20
18.777100000000001
 30
0.0
 70
    32
  0
VERTEX
  5
1D96
  8
242
  6
CONTINUOUS
 10
45.590400000000002
 20
18.626100000000001
 30
0.0
 70
    32
  0
VERTEX
  5
1D97
  8
242
  6
CONTINUOUS
 10
45.4801
 20
18.4711
 30
0.0
 70
    32
  0
VERTEX
  5
1D98
  8
242
  6
CONTINUOUS
 10
45.380600000000001
 20
18.3125
 30
0.0
 70
    32
  0
VERTEX
  5
1D99
  8
242
  6
CONTINUOUS
 10
45.292299999999997
 20
18.150600000000001
 30
0.0
 70
    32
  0
VERTEX
  5
1D9A
  8
242
  6
CONTINUOUS
 10
45.215299999999999
 20
17.985800000000001
 30
0.0
 70
    32
  0
VERTEX
  5
1D9B
  8
242
  6
CONTINUOUS
 10
45.149799999999999
 20
17.8186
 30
0.0
 70
    32
  0
VERTEX
  5
1D9C
  8
242
  6
CONTINUOUS
 10
45.0961
 20
17.6493
 30
0.0
 70
    32
  0
VERTEX
  5
1D9D
  8
242
  6
CONTINUOUS
 10
45.054099999999998
 20
17.478300000000001
 30
0.0
 70
    32
  0
VERTEX
  5
1D9E
  8
242
  6
CONTINUOUS
 10
45.024099999999997
 20
17.306100000000001
 30
0.0
 70
    32
  0
VERTEX
  5
1D9F
  8
242
  6
CONTINUOUS
 10
45.006
 20
17.132999999999999
 30
0.0
 70
    32
  0
VERTEX
  5
1DA0
  8
242
  6
CONTINUOUS
 10
45.0
 20
16.959499999999998
 30
0.0
 70
    32
  0
SEQEND
  5
1DA1
  8
242
  6
CONTINUOUS
  0
LINE
  5
1DA2
  8
245
  6
CENTER2
 10
45.0
 20
17.32411613906833
 30
0.0
 11
55.0
 21
17.32411613906833
 31
0.0
  0
LINE
  5
1DA3
  8
241
  6
CONTINUOUS
 10
42.0
 20
-24.49999999999136
 30
0.0
 11
42.0
 21
24.49999999999136
 31
0.0
  0
LINE
  5
1DA4
  8
241
  6
CONTINUOUS
 10
40.399999999994172
 20
-24.49999999999136
 30
0.0
 11
40.399999999994172
 21
24.499999999991822
 31
0.0
  0
LINE
  5
1DA5
  8
241
  6
CONTINUOUS
 10
39.0
 20
-24.49999999999136
 30
0.0
 11
39.0
 21
24.49999999999136
 31
0.0
  0
LINE
  5
1DA6
  8
241
  6
CONTINUOUS
 10
37.399999999994179
 20
-24.499999999992269
 30
0.0
 11
37.399999999994179
 21
24.499999999992269
 31
0.0
  0
LINE
  5
1DA7
  8
241
  6
CONTINUOUS
 10
4.0
 20
-24.399999999985539
 30
0.0
 11
4.0
 21
24.399999999986449
 31
0.0
  0
LINE
  5
1DAB
  8
240
  6
CONTINUOUS
 10
-0.0000000000074681
 20
-27.00000000002138
 30
0.0
 11
0.4712741427669556
 21
-25.241180954894119
 31
0.0
  0
LINE
  5
1DAC
  8
240
  6
CONTINUOUS
 10
64.999999999996362
 20
0.0000000000004547
 30
0.0
 11
65.000000000000156
 21
-24.4999999999885
 31
0.0
  0
LINE
  5
1DAD
  8
245
  6
CENTER2
 10
50.0
 20
-20.495044512076671
 30
0.0
 11
50.0
 21
-13.423976700211369
 31
0.0
  0
LINE
  5
1DAF
  8
240
  6
CONTINUOUS
 10
1.4371999690558861
 20
-24.499999999996689
 30
0.0
 11
65.000000000000156
 21
-24.4999999999885
 31
0.0
  0
LINE
  5
1DB1
  8
241
  6
CONTINUOUS
 10
0.6966679003235186
 20
-24.399999999988271
 30
0.0
 11
0.6966679003235186
 21
24.399999999988271
 31
0.0
  0
POLYLINE
  5
1DB2
  8
241
  6
CONTINUOUS
 66
     1
 10
0.0
 20
0.0
 30
0.0
 70
     8
  0
VERTEX
  5
1DB3
  8
241
  6
CONTINUOUS
 10
45.75
 20
-17.061499999999999
 30
0.0
 70
    32
  0
VERTEX
  5
1DB4
  8
241
  6
CONTINUOUS
 10
45.755099999999999
 20
-16.914000000000001
 30
0.0
 70
    32
  0
VERTEX
  5
1DB5
  8
241
  6
CONTINUOUS
 10
45.770499999999977
 20
-16.7669
 30
0.0
 70
    32
  0
VERTEX
  5
1DB6
  8
241
  6
CONTINUOUS
 10
45.795999999999999
 20
-16.6205
 30
0.0
 70
    32
  0
VERTEX
  5
1DB7
  8
241
  6
CONTINUOUS
 10
45.831699999999991
 20
-16.475200000000001
 30
0.0
 70
    32
  0
VERTEX
  5
1DB8
  8
241
  6
CONTINUOUS
 10
45.877400000000002
 20
-16.331299999999999
 30
0.0
 70
    32
  0
VERTEX
  5
1DB9
  8
241
  6
CONTINUOUS
 10
45.933
 20
-16.1891
 30
0.0
 70
    32
  0
VERTEX
  5
1DBA
  8
241
  6
CONTINUOUS
 10
45.99839999999999
 20
-16.048999999999999
 30
0.0
 70
    32
  0
VERTEX
  5
1DBB
  8
241
  6
CONTINUOUS
 10
46.073500000000003
 20
-15.9114
 30
0.0
 70
    32
  0
VERTEX
  5
1DBC
  8
241
  6
CONTINUOUS
 10
46.158000000000001
 20
-15.7766
 30
0.0
 70
    32
  0
VERTEX
  5
1DBD
  8
241
  6
CONTINUOUS
 10
46.251800000000003
 20
-15.6448
 30
0.0
 70
    32
  0
VERTEX
  5
1DBE
  8
241
  6
CONTINUOUS
 10
46.354700000000001
 20
-15.516500000000001
 30
0.0
 70
    32
  0
VERTEX
  5
1DBF
  8
241
  6
CONTINUOUS
 10
46.466299999999997
 20
-15.3919
 30
0.0
 70
    32
  0
VERTEX
  5
1DC0
  8
241
  6
CONTINUOUS
 10
46.586399999999998
 20
-15.2713
 30
0.0
 70
    32
  0
VERTEX
  5
1DC1
  8
241
  6
CONTINUOUS
 10
46.714700000000001
 20
-15.154999999999999
 30
0.0
 70
    32
  0
VERTEX
  5
1DC2
  8
241
  6
CONTINUOUS
 10
46.850999999999999
 20
-15.0433
 30
0.0
 70
    32
  0
VERTEX
  5
1DC3
  8
241
  6
CONTINUOUS
 10
46.994799999999998
 20
-14.936500000000001
 30
0.0
 70
    32
  0
VERTEX
  5
1DC4
  8
241
  6
CONTINUOUS
 10
47.145899999999997
 20
-14.8348
 30
0.0
 70
    32
  0
VERTEX
  5
1DC5
  8
241
  6
CONTINUOUS
 10
47.303800000000003
 20
-14.7384
 30
0.0
 70
    32
  0
VERTEX
  5
1DC6
  8
241
  6
CONTINUOUS
 10
47.468299999999999
 20
-14.6477
 30
0.0
 70
    32
  0
VERTEX
  5
1DC7
  8
241
  6
CONTINUOUS
 10
47.638800000000003
 20
-14.5627
 30
0.0
 70
    32
  0
VERTEX
  5
1DC8
  8
241
  6
CONTINUOUS
 10
47.815099999999987
 20
-14.4838
 30
0.0
 70
    32
  0
VERTEX
  5
1DC9
  8
241
  6
CONTINUOUS
 10
47.996600000000001
 20
-14.411099999999999
 30
0.0
 70
    32
  0
VERTEX
  5
1DCA
  8
241
  6
CONTINUOUS
 10
48.182899999999997
 20
-14.344799999999999
 30
0.0
 70
    32
  0
VERTEX
  5
1DCB
  8
241
  6
CONTINUOUS
 10
48.373600000000003
 20
-14.285
 30
0.0
 70
    32
  0
VERTEX
  5
1DCC
  8
241
  6
CONTINUOUS
 10
48.56819999999999
 20
-14.2319
 30
0.0
 70
    32
  0
VERTEX
  5
1DCD
  8
241
  6
CONTINUOUS
 10
48.766300000000001
 20
-14.185700000000001
 30
0.0
 70
    32
  0
VERTEX
  5
1DCE
  8
241
  6
CONTINUOUS
 10
48.967300000000002
 20
-14.1463
 30
0.0
 70
    32
  0
VERTEX
  5
1DCF
  8
241
  6
CONTINUOUS
 10
49.170900000000003
 20
-14.114000000000001
 30
0.0
 70
    32
  0
VERTEX
  5
1DD0
  8
241
  6
CONTINUOUS
 10
49.376399999999997
 20
-14.088800000000001
 30
0.0
 70
    32
  0
VERTEX
  5
1DD1
  8
241
  6
CONTINUOUS
 10
49.58339999999999
 20
-14.0707
 30
0.0
 70
    32
  0
VERTEX
  5
1DD2
  8
241
  6
CONTINUOUS
 10
49.791499999999999
 20
-14.059900000000001
 30
0.0
 70
    32
  0
VERTEX
  5
1DD3
  8
241
  6
CONTINUOUS
 10
50.0
 20
-14.0563
 30
0.0
 70
    32
  0
VERTEX
  5
1DD4
  8
241
  6
CONTINUOUS
 10
50.208500000000001
 20
-14.059900000000001
 30
0.0
 70
    32
  0
VERTEX
  5
1DD5
  8
241
  6
CONTINUOUS
 10
50.416600000000003
 20
-14.0707
 30
0.0
 70
    32
  0
VERTEX
  5
1DD6
  8
241
  6
CONTINUOUS
 10
50.623600000000003
 20
-14.088800000000001
 30
0.0
 70
    32
  0
VERTEX
  5
1DD7
  8
241
  6
CONTINUOUS
 10
50.829099999999997
 20
-14.114000000000001
 30
0.0
 70
    32
  0
VERTEX
  5
1DD8
  8
241
  6
CONTINUOUS
 10
51.032699999999998
 20
-14.1463
 30
0.0
 70
    32
  0
VERTEX
  5
1DD9
  8
241
  6
CONTINUOUS
 10
51.233699999999999
 20
-14.185700000000001
 30
0.0
 70
    32
  0
VERTEX
  5
1DDA
  8
241
  6
CONTINUOUS
 10
51.431800000000003
 20
-14.2319
 30
0.0
 70
    32
  0
VERTEX
  5
1DDB
  8
241
  6
CONTINUOUS
 10
51.62639999999999
 20
-14.285
 30
0.0
 70
    32
  0
VERTEX
  5
1DDC
  8
241
  6
CONTINUOUS
 10
51.817100000000003
 20
-14.344799999999999
 30
0.0
 70
    32
  0
VERTEX
  5
1DDD
  8
241
  6
CONTINUOUS
 10
52.003399999999999
 20
-14.411099999999999
 30
0.0
 70
    32
  0
VERTEX
  5
1DDE
  8
241
  6
CONTINUOUS
 10
52.184899999999999
 20
-14.4838
 30
0.0
 70
    32
  0
VERTEX
  5
1DDF
  8
241
  6
CONTINUOUS
 10
52.36119999999999
 20
-14.5627
 30
0.0
 70
    32
  0
VERTEX
  5
1DE0
  8
241
  6
CONTINUOUS
 10
52.531700000000001
 20
-14.6477
 30
0.0
 70
    32
  0
VERTEX
  5
1DE1
  8
241
  6
CONTINUOUS
 10
52.69619999999999
 20
-14.7384
 30
0.0
 70
    32
  0
VERTEX
  5
1DE2
  8
241
  6
CONTINUOUS
 10
52.854100000000003
 20
-14.8348
 30
0.0
 70
    32
  0
VERTEX
  5
1DE3
  8
241
  6
CONTINUOUS
 10
53.005200000000002
 20
-14.936500000000001
 30
0.0
 70
    32
  0
VERTEX
  5
1DE4
  8
241
  6
CONTINUOUS
 10
53.149000000000001
 20
-15.0433
 30
0.0
 70
    32
  0
VERTEX
  5
1DE5
  8
241
  6
CONTINUOUS
 10
53.285299999999999
 20
-15.154999999999999
 30
0.0
 70
    32
  0
VERTEX
  5
1DE6
  8
241
  6
CONTINUOUS
 10
53.413600000000002
 20
-15.2713
 30
0.0
 70
    32
  0
VERTEX
  5
1DE7
  8
241
  6
CONTINUOUS
 10
53.533700000000003
 20
-15.3919
 30
0.0
 70
    32
  0
VERTEX
  5
1DE8
  8
241
  6
CONTINUOUS
 10
53.645299999999999
 20
-15.516500000000001
 30
0.0
 70
    32
  0
VERTEX
  5
1DE9
  8
241
  6
CONTINUOUS
 10
53.74819999999999
 20
-15.6448
 30
0.0
 70
    32
  0
VERTEX
  5
1DEA
  8
241
  6
CONTINUOUS
 10
53.841999999999992
 20
-15.7766
 30
0.0
 70
    32
  0
VERTEX
  5
1DEB
  8
241
  6
CONTINUOUS
 10
53.92649999999999
 20
-15.9114
 30
0.0
 70
    32
  0
VERTEX
  5
1DEC
  8
241
  6
CONTINUOUS
 10
54.001600000000003
 20
-16.048999999999999
 30
0.0
 70
    32
  0
VERTEX
  5
1DED
  8
241
  6
CONTINUOUS
 10
54.067
 20
-16.1891
 30
0.0
 70
    32
  0
VERTEX
  5
1DEE
  8
241
  6
CONTINUOUS
 10
54.122599999999991
 20
-16.331299999999999
 30
0.0
 70
    32
  0
VERTEX
  5
1DEF
  8
241
  6
CONTINUOUS
 10
54.168300000000002
 20
-16.475200000000001
 30
0.0
 70
    32
  0
VERTEX
  5
1DF0
  8
241
  6
CONTINUOUS
 10
54.204000000000001
 20
-16.6205
 30
0.0
 70
    32
  0
VERTEX
  5
1DF1
  8
241
  6
CONTINUOUS
 10
54.229500000000002
 20
-16.7669
 30
0.0
 70
    32
  0
VERTEX
  5
1DF2
  8
241
  6
CONTINUOUS
 10
54.244900000000001
 20
-16.914000000000001
 30
0.0
 70
    32
  0
VERTEX
  5
1DF3
  8
241
  6
CONTINUOUS
 10
54.25
 20
-17.061499999999999
 30
0.0
 70
    32
  0
VERTEX
  5
1DF4
  8
241
  6
CONTINUOUS
 10
54.244900000000001
 20
-17.2089
 30
0.0
 70
    32
  0
VERTEX
  5
1DF5
  8
241
  6
CONTINUOUS
 10
54.229500000000002
 20
-17.356000000000002
 30
0.0
 70
    32
  0
VERTEX
  5
1DF6
  8
241
  6
CONTINUOUS
 10
54.204000000000001
 20
-17.502400000000002
 30
0.0
 70
    32
  0
VERTEX
  5
1DF7
  8
241
  6
CONTINUOUS
 10
54.168300000000002
 20
-17.6478
 30
0.0
 70
    32
  0
VERTEX
  5
1DF8
  8
241
  6
CONTINUOUS
 10
54.122599999999991
 20
-17.791699999999999
 30
0.0
 70
    32
  0
VERTEX
  5
1DF9
  8
241
  6
CONTINUOUS
 10
54.067
 20
-17.933800000000002
 30
0.0
 70
    32
  0
VERTEX
  5
1DFA
  8
241
  6
CONTINUOUS
 10
54.001600000000003
 20
-18.073899999999998
 30
0.0
 70
    32
  0
VERTEX
  5
1DFB
  8
241
  6
CONTINUOUS
 10
53.92649999999999
 20
-18.211500000000001
 30
0.0
 70
    32
  0
VERTEX
  5
1DFC
  8
241
  6
CONTINUOUS
 10
53.841999999999992
 20
-18.346399999999999
 30
0.0
 70
    32
  0
VERTEX
  5
1DFD
  8
241
  6
CONTINUOUS
 10
53.74819999999999
 20
-18.478100000000001
 30
0.0
 70
    32
  0
VERTEX
  5
1DFE
  8
241
  6
CONTINUOUS
 10
53.645299999999999
 20
-18.6065
 30
0.0
 70
    32
  0
VERTEX
  5
1DFF
  8
241
  6
CONTINUOUS
 10
53.533700000000003
 20
-18.731100000000001
 30
0.0
 70
    32
  0
VERTEX
  5
1E00
  8
241
  6
CONTINUOUS
 10
53.413600000000002
 20
-18.851700000000001
 30
0.0
 70
    32
  0
VERTEX
  5
1E01
  8
241
  6
CONTINUOUS
 10
53.285299999999999
 20
-18.968
 30
0.0
 70
    32
  0
VERTEX
  5
1E02
  8
241
  6
CONTINUOUS
 10
53.149000000000001
 20
-19.079599999999999
 30
0.0
 70
    32
  0
VERTEX
  5
1E03
  8
241
  6
CONTINUOUS
 10
53.005200000000002
 20
-19.186499999999999
 30
0.0
 70
    32
  0
VERTEX
  5
1E04
  8
241
  6
CONTINUOUS
 10
52.854100000000003
 20
-19.2882
 30
0.0
 70
    32
  0
VERTEX
  5
1E05
  8
241
  6
CONTINUOUS
 10
52.69619999999999
 20
-19.384499999999999
 30
0.0
 70
    32
  0
VERTEX
  5
1E06
  8
241
  6
CONTINUOUS
 10
52.531700000000001
 20
-19.475300000000001
 30
0.0
 70
    32
  0
VERTEX
  5
1E07
  8
241
  6
CONTINUOUS
 10
52.36119999999999
 20
-19.560199999999998
 30
0.0
 70
    32
  0
VERTEX
  5
1E08
  8
241
  6
CONTINUOUS
 10
52.184899999999999
 20
-19.639099999999999
 30
0.0
 70
    32
  0
VERTEX
  5
1E09
  8
241
  6
CONTINUOUS
 10
52.003399999999999
 20
-19.7118
 30
0.0
 70
    32
  0
VERTEX
  5
1E0A
  8
241
  6
CONTINUOUS
 10
51.817100000000003
 20
-19.778099999999998
 30
0.0
 70
    32
  0
VERTEX
  5
1E0B
  8
241
  6
CONTINUOUS
 10
51.62639999999999
 20
-19.837900000000001
 30
0.0
 70
    32
  0
VERTEX
  5
1E0C
  8
241
  6
CONTINUOUS
 10
51.431800000000003
 20
-19.890999999999998
 30
0.0
 70
    32
  0
VERTEX
  5
1E0D
  8
241
  6
CONTINUOUS
 10
51.233699999999999
 20
-19.9373
 30
0.0
 70
    32
  0
VERTEX
  5
1E0E
  8
241
  6
CONTINUOUS
 10
51.032699999999998
 20
-19.976600000000001
 30
0.0
 70
    32
  0
VERTEX
  5
1E0F
  8
241
  6
CONTINUOUS
 10
50.829099999999997
 20
-20.008900000000001
 30
0.0
 70
    32
  0
VERTEX
  5
1E10
  8
241
  6
CONTINUOUS
 10
50.623600000000003
 20
-20.034099999999999
 30
0.0
 70
    32
  0
VERTEX
  5
1E11
  8
241
  6
CONTINUOUS
 10
50.416600000000003
 20
-20.052199999999999
 30
0.0
 70
    32
  0
VERTEX
  5
1E12
  8
241
  6
CONTINUOUS
 10
50.208500000000001
 20
-20.063099999999999
 30
0.0
 70
    32
  0
VERTEX
  5
1E13
  8
241
  6
CONTINUOUS
 10
50.0
 20
-20.066700000000001
 30
0.0
 70
    32
  0
VERTEX
  5
1E14
  8
241
  6
CONTINUOUS
 10
49.791499999999999
 20
-20.063099999999999
 30
0.0
 70
    32
  0
VERTEX
  5
1E15
  8
241
  6
CONTINUOUS
 10
49.58339999999999
 20
-20.052199999999999
 30
0.0
 70
    32
  0
VERTEX
  5
1E16
  8
241
  6
CONTINUOUS
 10
49.376399999999997
 20
-20.034099999999999
 30
0.0
 70
    32
  0
VERTEX
  5
1E17
  8
241
  6
CONTINUOUS
 10
49.170900000000003
 20
-20.008900000000001
 30
0.0
 70
    32
  0
VERTEX
  5
1E18
  8
241
  6
CONTINUOUS
 10
48.967300000000002
 20
-19.976600000000001
 30
0.0
 70
    32
  0
VERTEX
  5
1E19
  8
241
  6
CONTINUOUS
 10
48.766300000000001
 20
-19.9373
 30
0.0
 70
    32
  0
VERTEX
  5
1E1A
  8
241
  6
CONTINUOUS
 10
48.56819999999999
 20
-19.890999999999998
 30
0.0
 70
    32
  0
VERTEX
  5
1E1B
  8
241
  6
CONTINUOUS
 10
48.373600000000003
 20
-19.837900000000001
 30
0.0
 70
    32
  0
VERTEX
  5
1E1C
  8
241
  6
CONTINUOUS
 10
48.182899999999997
 20
-19.778099999999998
 30
0.0
 70
    32
  0
VERTEX
  5
1E1D
  8
241
  6
CONTINUOUS
 10
47.996600000000001
 20
-19.7118
 30
0.0
 70
    32
  0
VERTEX
  5
1E1E
  8
241
  6
CONTINUOUS
 10
47.815099999999987
 20
-19.639099999999999
 30
0.0
 70
    32
  0
VERTEX
  5
1E1F
  8
241
  6
CONTINUOUS
 10
47.638800000000003
 20
-19.560199999999998
 30
0.0
 70
    32
  0
VERTEX
  5
1E20
  8
241
  6
CONTINUOUS
 10
47.468299999999999
 20
-19.475300000000001
 30
0.0
 70
    32
  0
VERTEX
  5
1E21
  8
241
  6
CONTINUOUS
 10
47.303800000000003
 20
-19.384499999999999
 30
0.0
 70
    32
  0
VERTEX
  5
1E22
  8
241
  6
CONTINUOUS
 10
47.145899999999997
 20
-19.2882
 30
0.0
 70
    32
  0
VERTEX
  5
1E23
  8
241
  6
CONTINUOUS
 10
46.994799999999998
 20
-19.186499999999999
 30
0.0
 70
    32
  0
VERTEX
  5
1E24
  8
241
  6
CONTINUOUS
 10
46.850999999999999
 20
-19.079599999999999
 30
0.0
 70
    32
  0
VERTEX
  5
1E25
  8
241
  6
CONTINUOUS
 10
46.714700000000001
 20
-18.968
 30
0.0
 70
    32
  0
VERTEX
  5
1E26
  8
241
  6
CONTINUOUS
 10
46.586399999999998
 20
-18.851700000000001
 30
0.0
 70
    32
  0
VERTEX
  5
1E27
  8
241
  6
CONTINUOUS
 10
46.466299999999997
 20
-18.731100000000001
 30
0.0
 70
    32
  0
VERTEX
  5
1E28
  8
241
  6
CONTINUOUS
 10
46.354700000000001
 20
-18.6065
 30
0.0
 70
    32
  0
VERTEX
  5
1E29
  8
241
  6
CONTINUOUS
 10
46.251800000000003
 20
-18.478100000000001
 30
0.0
 70
    32
  0
VERTEX
  5
1E2A
  8
241
  6
CONTINUOUS
 10
46.158000000000001
 20
-18.346399999999999
 30
0.0
 70
    32
  0
VERTEX
  5
1E2B
  8
241
  6
CONTINUOUS
 10
46.073500000000003
 20
-18.211500000000001
 30
0.0
 70
    32
  0
VERTEX
  5
1E2C
  8
241
  6
CONTINUOUS
 10
45.99839999999999
 20
-18.073899999999998
 30
0.0
 70
    32
  0
VERTEX
  5
1E2D
  8
241
  6
CONTINUOUS
 10
45.933
 20
-17.933800000000002
 30
0.0
 70
    32
  0
VERTEX
  5
1E2E
  8
241
  6
CONTINUOUS
 10
45.877400000000002
 20
-17.791699999999999
 30
0.0
 70
    32
  0
VERTEX
  5
1E2F
  8
241
  6
CONTINUOUS
 10
45.831699999999991
 20
-17.6478
 30
0.0
 70
    32
  0
VERTEX
  5
1E30
  8
241
  6
CONTINUOUS
 10
45.795999999999999
 20
-17.502400000000002
 30
0.0
 70
    32
  0
VERTEX
  5
1E31
  8
241
  6
CONTINUOUS
 10
45.770499999999977
 20
-17.356000000000002
 30
0.0
 70
    32
  0
VERTEX
  5
1E32
  8
241
  6
CONTINUOUS
 10
45.755099999999999
 20
-17.2089
 30
0.0
 70
    32
  0
VERTEX
  5
1E33
  8
241
  6
CONTINUOUS
 10
45.75
 20
-17.061499999999999
 30
0.0
 70
    32
  0
SEQEND
  5
1E34
  8
241
  6
CONTINUOUS
  0
POLYLINE
  5
1E35
  8
242
  6
CONTINUOUS
 66
     1
 10
0.0
 20
0.0
 30
0.0
 70
     8
  0
VERTEX
  5
1E36
  8
242
  6
CONTINUOUS
 10
45.0
 20
-16.959499999999998
 30
0.0
 70
    32
  0
VERTEX
  5
1E37
  8
242
  6
CONTINUOUS
 10
45.006
 20
-16.786000000000001
 30
0.0
 70
    32
  0
VERTEX
  5
1E38
  8
242
  6
CONTINUOUS
 10
45.024099999999997
 20
-16.613
 30
0.0
 70
    32
  0
VERTEX
  5
1E39
  8
242
  6
CONTINUOUS
 10
45.054099999999998
 20
-16.4407
 30
0.0
 70
    32
  0
VERTEX
  5
1E3A
  8
242
  6
CONTINUOUS
 10
45.0961
 20
-16.2698
 30
0.0
 70
    32
  0
VERTEX
  5
1E3B
  8
242
  6
CONTINUOUS
 10
45.149799999999999
 20
-16.1004
 30
0.0
 70
    32
  0
VERTEX
  5
1E3C
  8
242
  6
CONTINUOUS
 10
45.215299999999999
 20
-15.933199999999999
 30
0.0
 70
    32
  0
VERTEX
  5
1E3D
  8
242
  6
CONTINUOUS
 10
45.292299999999997
 20
-15.7684
 30
0.0
 70
    32
  0
VERTEX
  5
1E3E
  8
242
  6
CONTINUOUS
 10
45.380600000000001
 20
-15.6065
 30
0.0
 70
    32
  0
VERTEX
  5
1E3F
  8
242
  6
CONTINUOUS
 10
45.4801
 20
-15.447900000000001
 30
0.0
 70
    32
  0
VERTEX
  5
1E40
  8
242
  6
CONTINUOUS
 10
45.590400000000002
 20
-15.292899999999999
 30
0.0
 70
    32
  0
VERTEX
  5
1E41
  8
242
  6
CONTINUOUS
 10
45.711399999999983
 20
-15.1419
 30
0.0
 70
    32
  0
VERTEX
  5
1E42
  8
242
  6
CONTINUOUS
 10
45.842700000000001
 20
-14.9953
 30
0.0
 70
    32
  0
VERTEX
  5
1E43
  8
242
  6
CONTINUOUS
 10
45.984000000000002
 20
-14.853400000000001
 30
0.0
 70
    32
  0
VERTEX
  5
1E44
  8
242
  6
CONTINUOUS
 10
46.134900000000002
 20
-14.7166
 30
0.0
 70
    32
  0
VERTEX
  5
1E45
  8
242
  6
CONTINUOUS
 10
46.295200000000001
 20
-14.5852
 30
0.0
 70
    32
  0
VERTEX
  5
1E46
  8
242
  6
CONTINUOUS
 10
46.464500000000001
 20
-14.4595
 30
0.0
 70
    32
  0
VERTEX
  5
1E47
  8
242
  6
CONTINUOUS
 10
46.642200000000003
 20
-14.3399
 30
0.0
 70
    32
  0
VERTEX
  5
1E48
  8
242
  6
CONTINUOUS
 10
46.828000000000003
 20
-14.2265
 30
0.0
 70
    32
  0
VERTEX
  5
1E49
  8
242
  6
CONTINUOUS
 10
47.021500000000003
 20
-14.1197
 30
0.0
 70
    32
  0
VERTEX
  5
1E4A
  8
242
  6
CONTINUOUS
 10
47.22209999999999
 20
-14.0198
 30
0.0
 70
    32
  0
VERTEX
  5
1E4B
  8
242
  6
CONTINUOUS
 10
47.42949999999999
 20
-13.927
 30
0.0
 70
    32
  0
VERTEX
  5
1E4C
  8
242
  6
CONTINUOUS
 10
47.643000000000001
 20
-13.8414
 30
0.0
 70
    32
  0
VERTEX
  5
1E4D
  8
242
  6
CONTINUOUS
 10
47.862200000000001
 20
-13.763400000000001
 30
0.0
 70
    32
  0
VERTEX
  5
1E4E
  8
242
  6
CONTINUOUS
 10
48.08659999999999
 20
-13.693099999999999
 30
0.0
 70
    32
  0
VERTEX
  5
1E4F
  8
242
  6
CONTINUOUS
 10
48.315600000000003
 20
-13.630599999999999
 30
0.0
 70
    32
  0
VERTEX
  5
1E50
  8
242
  6
CONTINUOUS
 10
48.5486
 20
-13.5762
 30
0.0
 70
    32
  0
VERTEX
  5
1E51
  8
242
  6
CONTINUOUS
 10
48.7851
 20
-13.5299
 30
0.0
 70
    32
  0
VERTEX
  5
1E52
  8
242
  6
CONTINUOUS
 10
49.024500000000003
 20
-13.491899999999999
 30
0.0
 70
    32
  0
VERTEX
  5
1E53
  8
242
  6
CONTINUOUS
 10
49.266300000000001
 20
-13.462199999999999
 30
0.0
 70
    32
  0
VERTEX
  5
1E54
  8
242
  6
CONTINUOUS
 10
49.509900000000002
 20
-13.441000000000001
 30
0.0
 70
    32
  0
VERTEX
  5
1E55
  8
242
  6
CONTINUOUS
 10
49.7547
 20
-13.4282
 30
0.0
 70
    32
  0
VERTEX
  5
1E56
  8
242
  6
CONTINUOUS
 10
50.0
 20
-13.423999999999999
 30
0.0
 70
    32
  0
VERTEX
  5
1E57
  8
242
  6
CONTINUOUS
 10
50.2453
 20
-13.4282
 30
0.0
 70
    32
  0
VERTEX
  5
1E58
  8
242
  6
CONTINUOUS
 10
50.490099999999991
 20
-13.441000000000001
 30
0.0
 70
    32
  0
VERTEX
  5
1E59
  8
242
  6
CONTINUOUS
 10
50.733699999999999
 20
-13.462199999999999
 30
0.0
 70
    32
  0
VERTEX
  5
1E5A
  8
242
  6
CONTINUOUS
 10
50.975499999999997
 20
-13.491899999999999
 30
0.0
 70
    32
  0
VERTEX
  5
1E5B
  8
242
  6
CONTINUOUS
 10
51.2149
 20
-13.5299
 30
0.0
 70
    32
  0
VERTEX
  5
1E5C
  8
242
  6
CONTINUOUS
 10
51.4514
 20
-13.5762
 30
0.0
 70
    32
  0
VERTEX
  5
1E5D
  8
242
  6
CONTINUOUS
 10
51.684399999999997
 20
-13.630599999999999
 30
0.0
 70
    32
  0
VERTEX
  5
1E5E
  8
242
  6
CONTINUOUS
 10
51.913400000000003
 20
-13.693099999999999
 30
0.0
 70
    32
  0
VERTEX
  5
1E5F
  8
242
  6
CONTINUOUS
 10
52.137799999999991
 20
-13.763400000000001
 30
0.0
 70
    32
  0
VERTEX
  5
1E60
  8
242
  6
CONTINUOUS
 10
52.356999999999999
 20
-13.8414
 30
0.0
 70
    32
  0
VERTEX
  5
1E61
  8
242
  6
CONTINUOUS
 10
52.570500000000003
 20
-13.927
 30
0.0
 70
    32
  0
VERTEX
  5
1E62
  8
242
  6
CONTINUOUS
 10
52.777900000000002
 20
-14.0198
 30
0.0
 70
    32
  0
VERTEX
  5
1E63
  8
242
  6
CONTINUOUS
 10
52.978499999999997
 20
-14.1197
 30
0.0
 70
    32
  0
VERTEX
  5
1E64
  8
242
  6
CONTINUOUS
 10
53.17199999999999
 20
-14.2265
 30
0.0
 70
    32
  0
VERTEX
  5
1E65
  8
242
  6
CONTINUOUS
 10
53.35779999999999
 20
-14.3399
 30
0.0
 70
    32
  0
VERTEX
  5
1E66
  8
242
  6
CONTINUOUS
 10
53.535499999999999
 20
-14.4595
 30
0.0
 70
    32
  0
VERTEX
  5
1E67
  8
242
  6
CONTINUOUS
 10
53.704799999999999
 20
-14.5852
 30
0.0
 70
    32
  0
VERTEX
  5
1E68
  8
242
  6
CONTINUOUS
 10
53.865099999999998
 20
-14.7166
 30
0.0
 70
    32
  0
VERTEX
  5
1E69
  8
242
  6
CONTINUOUS
 10
54.015999999999998
 20
-14.853400000000001
 30
0.0
 70
    32
  0
VERTEX
  5
1E6A
  8
242
  6
CONTINUOUS
 10
54.157299999999992
 20
-14.9953
 30
0.0
 70
    32
  0
VERTEX
  5
1E6B
  8
242
  6
CONTINUOUS
 10
54.288600000000002
 20
-15.1419
 30
0.0
 70
    32
  0
VERTEX
  5
1E6C
  8
242
  6
CONTINUOUS
 10
54.409599999999998
 20
-15.292899999999999
 30
0.0
 70
    32
  0
VERTEX
  5
1E6D
  8
242
  6
CONTINUOUS
 10
54.5199
 20
-15.447900000000001
 30
0.0
 70
    32
  0
VERTEX
  5
1E6E
  8
242
  6
CONTINUOUS
 10
54.619399999999999
 20
-15.6065
 30
0.0
 70
    32
  0
VERTEX
  5
1E6F
  8
242
  6
CONTINUOUS
 10
54.707700000000003
 20
-15.7684
 30
0.0
 70
    32
  0
VERTEX
  5
1E70
  8
242
  6
CONTINUOUS
 10
54.784700000000001
 20
-15.933199999999999
 30
0.0
 70
    32
  0
VERTEX
  5
1E71
  8
242
  6
CONTINUOUS
 10
54.850200000000001
 20
-16.1004
 30
0.0
 70
    32
  0
VERTEX
  5
1E72
  8
242
  6
CONTINUOUS
 10
54.9039
 20
-16.2698
 30
0.0
 70
    32
  0
VERTEX
  5
1E73
  8
242
  6
CONTINUOUS
 10
54.945900000000002
 20
-16.4407
 30
0.0
 70
    32
  0
VERTEX
  5
1E74
  8
242
  6
CONTINUOUS
 10
54.975900000000003
 20
-16.613
 30
0.0
 70
    32
  0
VERTEX
  5
1E75
  8
242
  6
CONTINUOUS
 10
54.994
 20
-16.786000000000001
 30
0.0
 70
    32
  0
VERTEX
  5
1E76
  8
242
  6
CONTINUOUS
 10
55.0
 20
-16.959499999999998
 30
0.0
 70
    32
  0
VERTEX
  5
1E77
  8
242
  6
CONTINUOUS
 10
54.994
 20
-17.132999999999999
 30
0.0
 70
    32
  0
VERTEX
  5
1E78
  8
242
  6
CONTINUOUS
 10
54.975900000000003
 20
-17.306100000000001
 30
0.0
 70
    32
  0
VERTEX
  5
1E79
  8
242
  6
CONTINUOUS
 10
54.945900000000002
 20
-17.478300000000001
 30
0.0
 70
    32
  0
VERTEX
  5
1E7A
  8
242
  6
CONTINUOUS
 10
54.9039
 20
-17.6493
 30
0.0
 70
    32
  0
VERTEX
  5
1E7B
  8
242
  6
CONTINUOUS
 10
54.850200000000001
 20
-17.8186
 30
0.0
 70
    32
  0
VERTEX
  5
1E7C
  8
242
  6
CONTINUOUS
 10
54.784700000000001
 20
-17.985800000000001
 30
0.0
 70
    32
  0
VERTEX
  5
1E7D
  8
242
  6
CONTINUOUS
 10
54.707700000000003
 20
-18.150600000000001
 30
0.0
 70
    32
  0
VERTEX
  5
1E7E
  8
242
  6
CONTINUOUS
 10
54.619399999999999
 20
-18.3125
 30
0.0
 70
    32
  0
VERTEX
  5
1E7F
  8
242
  6
CONTINUOUS
 10
54.5199
 20
-18.4711
 30
0.0
 70
    32
  0
VERTEX
  5
1E80
  8
242
  6
CONTINUOUS
 10
54.409599999999998
 20
-18.626100000000001
 30
0.0
 70
    32
  0
VERTEX
  5
1E81
  8
242
  6
CONTINUOUS
 10
54.288600000000002
 20
-18.777100000000001
 30
0.0
 70
    32
  0
VERTEX
  5
1E82
  8
242
  6
CONTINUOUS
 10
54.157299999999992
 20
-18.9237
 30
0.0
 70
    32
  0
VERTEX
  5
1E83
  8
242
  6
CONTINUOUS
 10
54.015999999999998
 20
-19.0656
 30
0.0
 70
    32
  0
VERTEX
  5
1E84
  8
242
  6
CONTINUOUS
 10
53.865099999999998
 20
-19.202400000000001
 30
0.0
 70
    32
  0
VERTEX
  5
1E85
  8
242
  6
CONTINUOUS
 10
53.704799999999999
 20
-19.3338
 30
0.0
 70
    32
  0
VERTEX
  5
1E86
  8
242
  6
CONTINUOUS
 10
53.535499999999999
 20
-19.459499999999998
 30
0.0
 70
    32
  0
VERTEX
  5
1E87
  8
242
  6
CONTINUOUS
 10
53.35779999999999
 20
-19.5792
 30
0.0
 70
    32
  0
VERTEX
  5
1E88
  8
242
  6
CONTINUOUS
 10
53.17199999999999
 20
-19.692499999999999
 30
0.0
 70
    32
  0
VERTEX
  5
1E89
  8
242
  6
CONTINUOUS
 10
52.978499999999997
 20
-19.799299999999999
 30
0.0
 70
    32
  0
VERTEX
  5
1E8A
  8
242
  6
CONTINUOUS
 10
52.777900000000002
 20
-19.8992
 30
0.0
 70
    32
  0
VERTEX
  5
1E8B
  8
242
  6
CONTINUOUS
 10
52.570500000000003
 20
-19.992000000000001
 30
0.0
 70
    32
  0
VERTEX
  5
1E8C
  8
242
  6
CONTINUOUS
 10
52.356999999999999
 20
-20.0776
 30
0.0
 70
    32
  0
VERTEX
  5
1E8D
  8
242
  6
CONTINUOUS
 10
52.137799999999991
 20
-20.1556
 30
0.0
 70
    32
  0
VERTEX
  5
1E8E
  8
242
  6
CONTINUOUS
 10
51.913400000000003
 20
-20.225899999999999
 30
0.0
 70
    32
  0
VERTEX
  5
1E8F
  8
242
  6
CONTINUOUS
 10
51.684399999999997
 20
-20.288399999999999
 30
0.0
 70
    32
  0
VERTEX
  5
1E90
  8
242
  6
CONTINUOUS
 10
51.4514
 20
-20.3428
 30
0.0
 70
    32
  0
VERTEX
  5
1E91
  8
242
  6
CONTINUOUS
 10
51.2149
 20
-20.389099999999999
 30
0.0
 70
    32
  0
VERTEX
  5
1E92
  8
242
  6
CONTINUOUS
 10
50.975499999999997
 20
-20.427099999999999
 30
0.0
 70
    32
  0
VERTEX
  5
1E93
  8
242
  6
CONTINUOUS
 10
50.733699999999999
 20
-20.456800000000001
 30
0.0
 70
    32
  0
VERTEX
  5
1E94
  8
242
  6
CONTINUOUS
 10
50.490099999999991
 20
-20.478000000000002
 30
0.0
 70
    32
  0
VERTEX
  5
1E95
  8
242
  6
CONTINUOUS
 10
50.2453
 20
-20.4908
 30
0.0
 70
    32
  0
VERTEX
  5
1E96
  8
242
  6
CONTINUOUS
 10
50.0
 20
-20.495000000000001
 30
0.0
 70
    32
  0
VERTEX
  5
1E97
  8
242
  6
CONTINUOUS
 10
49.7547
 20
-20.4908
 30
0.0
 70
    32
  0
VERTEX
  5
1E98
  8
242
  6
CONTINUOUS
 10
49.509900000000002
 20
-20.478000000000002
 30
0.0
 70
    32
  0
VERTEX
  5
1E99
  8
242
  6
CONTINUOUS
 10
49.266300000000001
 20
-20.456800000000001
 30
0.0
 70
    32
  0
VERTEX
  5
1E9A
  8
242
  6
CONTINUOUS
 10
49.024500000000003
 20
-20.427099999999999
 30
0.0
 70
    32
  0
VERTEX
  5
1E9B
  8
242
  6
CONTINUOUS
 10
48.7851
 20
-20.389099999999999
 30
0.0
 70
    32
  0
VERTEX
  5
1E9C
  8
242
  6
CONTINUOUS
 10
48.5486
 20
-20.3428
 30
0.0
 70
    32
  0
VERTEX
  5
1E9D
  8
242
  6
CONTINUOUS
 10
48.315600000000003
 20
-20.288399999999999
 30
0.0
 70
    32
  0
VERTEX
  5
1E9E
  8
242
  6
CONTINUOUS
 10
48.08659999999999
 20
-20.225899999999999
 30
0.0
 70
    32
  0
VERTEX
  5
1E9F
  8
242
  6
CONTINUOUS
 10
47.862200000000001
 20
-20.1556
 30
0.0
 70
    32
  0
VERTEX
  5
1EA0
  8
242
  6
CONTINUOUS
 10
47.643000000000001
 20
-20.0776
 30
0.0
 70
    32
  0
VERTEX
  5
1EA1
  8
242
  6
CONTINUOUS
 10
47.42949999999999
 20
-19.992000000000001
 30
0.0
 70
    32
  0
VERTEX
  5
1EA2
  8
242
  6
CONTINUOUS
 10
47.22209999999999
 20
-19.8992
 30
0.0
 70
    32
  0
VERTEX
  5
1EA3
  8
242
  6
CONTINUOUS
 10
47.021500000000003
 20
-19.799299999999999
 30
0.0
 70
    32
  0
VERTEX
  5
1EA4
  8
242
  6
CONTINUOUS
 10
46.828000000000003
 20
-19.692499999999999
 30
0.0
 70
    32
  0
VERTEX
  5
1EA5
  8
242
  6
CONTINUOUS
 10
46.642200000000003
 20
-19.5792
 30
0.0
 70
    32
  0
VERTEX
  5
1EA6
  8
242
  6
CONTINUOUS
 10
46.464500000000001
 20
-19.459499999999998
 30
0.0
 70
    32
  0
VERTEX
  5
1EA7
  8
242
  6
CONTINUOUS
 10
46.295200000000001
 20
-19.3338
 30
0.0
 70
    32
  0
VERTEX
  5
1EA8
  8
242
  6
CONTINUOUS
 10
46.134900000000002
 20
-19.202400000000001
 30
0.0
 70
    32
  0
VERTEX
  5
1EA9
  8
242
  6
CONTINUOUS
 10
45.984000000000002
 20
-19.0656
 30
0.0
 70
    32
  0
VERTEX
  5
1EAA
  8
242
  6
CONTINUOUS
 10
45.842700000000001
 20
-18.9237
 30
0.0
 70
    32
  0
VERTEX
  5
1EAB
  8
242
  6
CONTINUOUS
 10
45.711399999999983
 20
-18.777100000000001
 30
0.0
 70
    32
  0
VERTEX
  5
1EAC
  8
242
  6
CONTINUOUS
 10
45.590400000000002
 20
-18.626100000000001
 30
0.0
 70
    32
  0
VERTEX
  5
1EAD
  8
242
  6
CONTINUOUS
 10
45.4801
 20
-18.4711
 30
0.0
 70
    32
  0
VERTEX
  5
1EAE
  8
242
  6
CONTINUOUS
 10
45.380600000000001
 20
-18.3125
 30
0.0
 70
    32
  0
VERTEX
  5
1EAF
  8
242
  6
CONTINUOUS
 10
45.292299999999997
 20
-18.150600000000001
 30
0.0
 70
    32
  0
VERTEX
  5
1EB0
  8
242
  6
CONTINUOUS
 10
45.215299999999999
 20
-17.985800000000001
 30
0.0
 70
    32
  0
VERTEX
  5
1EB1
  8
242
  6
CONTINUOUS
 10
45.149799999999999
 20
-17.8186
 30
0.0
 70
    32
  0
VERTEX
  5
1EB2
  8
242
  6
CONTINUOUS
 10
45.0961
 20
-17.6493
 30
0.0
 70
    32
  0
VERTEX
  5
1EB3
  8
242
  6
CONTINUOUS
 10
45.054099999999998
 20
-17.478300000000001
 30
0.0
 70
    32
  0
VERTEX
  5
1EB4
  8
242
  6
CONTINUOUS
 10
45.024099999999997
 20
-17.306100000000001
 30
0.0
 70
    32
  0
VERTEX
  5
1EB5
  8
242
  6
CONTINUOUS
 10
45.006
 20
-17.132999999999999
 30
0.0
 70
    32
  0
VERTEX
  5
1EB6
  8
242
  6
CONTINUOUS
 10
45.0
 20
-16.959499999999998
 30
0.0
 70
    32
  0
SEQEND
  5
1EB7
  8
242
  6
CONTINUOUS
  0
LINE
  5
1EB8
  8
245
  6
CENTER2
 10
45.0
 20
-17.324116139067879
 30
0.0
 11
55.0
 21
-17.324116139067879
 31
0.0
  0
LINE
  5
1EB9
  8
240
  6
CONTINUOUS
 10
-90.000000000002686
 20
19.999999999995449
 30
0.0
 11
-90.000000000003666
 21
0.0
 31
0.0
  0
LINE
  5
1EC0
  8
240
  6
CONTINUOUS
 10
-90.000000000002686
 20
19.999999999995449
 30
0.0
 11
-80.499999999997243
 21
19.999999999995449
 31
0.0
  0
LINE
  5
1EC3
  8
240
  6
CONTINUOUS
 10
-90.000000000002686
 20
-20.00000000000864
 30
0.0
 11
-90.000000000003666
 21
-0.0000000000131877
 31
0.0
  0
LINE
  5
1ECA
  8
240
  6
CONTINUOUS
 10
-90.000000000002686
 20
-20.00000000000864
 30
0.0
 11
-80.499999999997243
 21
-20.00000000000864
 31
0.0
  0
LINE
  5
1EE1
  8
241
  6
CONTINUOUS
 10
-42.500000000007269
 20
19.999999999973681
 30
0.0
 11
-42.500000000007269
 21
-20.000000000027349
 31
0.0
  0
LINE
  5
1EE2
  8
241
  6
CONTINUOUS
 10
-45.000000000007283
 20
19.999999999973529
 30
0.0
 11
-45.00000000000361
 21
-20.0000000000272
 31
0.0
  0
LINE
  5
1EE5
  8
241
  6
CONTINUOUS
 10
-29.00000000000729
 20
19.99999999997447
 30
0.0
 11
-29.00000000000729
 21
-20.00000000002813
 31
0.0
  0
LINE
  5
1EE6
  8
241
  6
CONTINUOUS
 10
-31.500000000003642
 20
19.999999999974321
 30
0.0
 11
-31.500000000003642
 21
-20.000000000027981
 31
0.0
  0
POINT
  5
1EED
  8
0
 10
-15034.81325616512
 20
9264.5895273247988
 30
0.0
1001
GENIUS_GENOLIS_13
1002
{
1000
ENT
1005
0
1005
0
1005
1C48
1005
0
1002
}
1001
GENIUS_GENOENT_13
1002
{
1000
MYREF
1005
1EED
1002
}
1002
{
1000
GRP
1005
0
1002
}
1001
GENIUS_GENOBJ-N-CRS_13
1002
{
1000
OWNER
1000
GEN
1002
}
1001
GENIUS_GENODEF_13
1002
{
1000
HIER
1070
    10
1002
}
1002
{
1000
MANEDIT
1070
     1
1002
}
1002
{
1000
NOSEL
1070
     0
1002
}
1002
{
1000
BEHIND
1070
     0
1002
}
1002
{
1000
OTHER
1070
     0
1002
}
1002
{
1000
REACTOR
1002
}
  0
ARC
  5
1EF1
  8
240
  6
CONTINUOUS
 10
1.4371999690560111
 20
25.499999999996689
 30
0.0
 40
1.0
 50
195.0000000000029
 51
269.99999999999301
1001
GENIUS_GENODEF_13
1002
{
1000
HIER
1070
     0
1002
}
1002
{
1000
MANEDIT
1070
     0
1002
}
1002
{
1000
NOSEL
1070
     0
1002
}
1002
{
1000
BEHIND
1070
     0
1002
}
1002
{
1000
OTHER
1070
     0
1002
}
1002
{
1000
REACTOR
1002
}
1001
GENIUS_GENOBJ-N-FIL_13
1002
{
1000
OWNER
1000
GEN
1002
}
  0
ARC
  5
1EF2
  8
240
  6
CONTINUOUS
 10
1.43719996905601
 20
-25.499999999996689
 30
0.0
 40
1.0
 50
90.000000000007049
 51
164.9999999999971
1001
GENIUS_GENODEF_13
1002
{
1000
HIER
1070
     0
1002
}
1002
{
1000
MANEDIT
1070
     0
1002
}
1002
{
1000
NOSEL
1070
     0
1002
}
1002
{
1000
BEHIND
1070
     0
1002
}
1002
{
1000
OTHER
1070
     0
1002
}
1002
{
1000
REACTOR
1002
}
1001
GENIUS_GENOBJ-N-FIL_13
1002
{
1000
OWNER
1000
GEN
1002
}
  0
LINE
  5
1EFA
  8
240
  6
CONTINUOUS
 10
-9.0000000000036344
 20
19.999999999975621
 30
0.0
 11
-9.0000000000036344
 21
26.499999999968392
 31
0.0
  0
LINE
  5
1EFB
  8
240
  6
CONTINUOUS
 10
-9.0000000000036344
 20
-20.000000000029281
 30
0.0
 11
-9.0000000000036344
 21
-26.500000000022052
 31
0.0
  0
TEXT
  5
1F14
  8
250
  6
CONTINUOUS
 10
25.534714298565511
 20
-44.353950504816787
 30
0.0
 40
6.0
  1
üá
 50
90.0
  0
TEXT
  5
1F15
  8
250
  6
CONTINUOUS
 10
25.534714298565511
 20
-37.211093361959648
 30
0.0
 40
6.0
  1
19
 50
90.0
  0
LINE
  5
1F34
  8
244
  6
HIDDEN2
 10
7.999999999996362
 20
9.5
 30
0.0
 11
29.999999999996358
 21
-9.5
 31
0.0
  0
LINE
  5
1F35
  8
244
  6
HIDDEN2
 10
7.999999999996362
 20
-9.5
 30
0.0
 11
29.999999999996358
 21
9.5
 31
0.0
  0
LINE
  5
1F36
  8
247
  6
CONTINUOUS
 10
9.9999999999999432
 20
-18.75000000000356
 30
0.0
 11
10.0
 21
-14.11538461567358
 31
0.0
  0
LINE
  5
1F37
  8
247
  6
CONTINUOUS
 10
7.5
 20
-17.954893499991499
 30
0.0
 11
9.5999999999160082
 21
-18.557058810060919
 31
0.0
  0
LINE
  5
1F38
  8
247
  6
CONTINUOUS
 10
8.4961538461139963
 20
-17.32515140352259
 30
0.0
 11
8.4961538461139963
 21
-18.240536018870579
 31
0.0
  0
ARC
  5
1F39
  8
247
  6
CONTINUOUS
 10
7.8847190672940979
 20
-17.087263401950359
 30
0.0
 40
0.3876715809326743
 50
72.997889675291987
 51
172.92416621851271
  0
ARC
  5
1F3A
  8
247
  6
CONTINUOUS
 10
7.8052231310280149
 20
-17.382477556807672
 30
0.0
 40
0.693304796535877
 50
4.742936852201395
 51
73.849226273266495
1001
GENIUS_GENOBJ-N-FIL_13
1002
{
1000
OWNER
1000
GEN
1002
}
1001
GENIUS_GENODEF_13
1002
{
1000
HIER
1070
     0
1002
}
1002
{
1000
MANEDIT
1070
     0
1002
}
1002
{
1000
NOSEL
1070
     0
1002
}
1002
{
1000
BEHIND
1070
     0
1002
}
1002
{
1000
OTHER
1070
     0
1002
}
1002
{
1000
REACTOR
1002
}
  0
LINE
  5
1F3B
  8
247
  6
CONTINUOUS
 10
9.5999999999160082
 20
-17.641674194712898
 30
0.0
 11
9.5999999999160082
 21
-18.557058810060919
 31
0.0
  0
LINE
  5
1F3C
  8
247
  6
CONTINUOUS
 10
7.5
 20
-17.95489349999151
 30
0.0
 11
7.5
 21
-17.03950888464351
 31
0.0
  0
ARC
  5
1F3D
  8
247
  6
CONTINUOUS
 10
8.8874169627678725
 20
-17.378306476270389
 30
0.0
 40
0.394857301075386
 50
65.990941652528775
 51
172.2634434590698
  0
ARC
  5
1F3E
  8
247
  6
CONTINUOUS
 10
8.8912003273325695
 20
-17.712446610430469
 30
0.0
 40
0.7123241612361686
 50
5.7019851642581392
 51
77.27733843682222
1001
GENIUS_GENOBJ-N-FIL_13
1002
{
1000
OWNER
1000
GEN
1002
}
1001
GENIUS_GENODEF_13
1002
{
1000
HIER
1070
     0
1002
}
1002
{
1000
MANEDIT
1070
     0
1002
}
1002
{
1000
NOSEL
1070
     0
1002
}
1002
{
1000
BEHIND
1070
     0
1002
}
1002
{
1000
OTHER
1070
     0
1002
}
1002
{
1000
REACTOR
1002
}
  0
LINE
  5
1F3F
  8
247
  6
CONTINUOUS
 10
9.5999999999160082
 20
-16.683981887066931
 30
0.0
 11
7.5
 21
-16.081816576997522
 31
0.0
  0
LINE
  5
1F40
  8
247
  6
CONTINUOUS
 10
7.5
 20
-14.585662730911521
 30
0.0
 11
7.5
 21
-14.98167836430714
 31
0.0
  0
LINE
  5
1F41
  8
247
  6
CONTINUOUS
 10
9.5999999999160082
 20
-15.60873965394752
 30
0.0
 11
9.5999999999160082
 21
-15.17797042319553
 31
0.0
  0
ARC
  5
1F42
  8
247
  6
CONTINUOUS
 10
8.9582995950833606
 20
-14.38181657707352
 30
0.0
 40
1.576855057639547
 50
202.35948814152749
 51
254.99324854284589
  0
ARC
  5
1F43
  8
247
  6
CONTINUOUS
 10
8.0658188585381367
 20
-14.84751136613678
 30
0.0
 40
0.6234706797009447
 50
94.994589319075374
 51
155.16632895730319
1001
GENIUS_GENOBJ-N-FIL_13
1002
{
1000
OWNER
1000
GEN
1002
}
1001
GENIUS_GENODEF_13
1002
{
1000
HIER
1070
     0
1002
}
1002
{
1000
MANEDIT
1070
     0
1002
}
1002
{
1000
NOSEL
1070
     0
1002
}
1002
{
1000
BEHIND
1070
     0
1002
}
1002
{
1000
OTHER
1070
     0
1002
}
1002
{
1000
REACTOR
1002
}
  0
ARC
  5
1F44
  8
247
  6
CONTINUOUS
 10
8.6621021219694398
 20
-15.444183951036329
 30
0.0
 40
0.9749472149106983
 50
15.846096555779839
 51
82.325137004169122
  0
ARC
  5
1F45
  8
247
  6
CONTINUOUS
 10
8.8714704019710648
 20
-15.03521163877577
 30
0.0
 40
0.9271945638692009
 50
249.71360167049701
 51
321.7887456564099
1001
GENIUS_GENOBJ-N-FIL_13
1002
{
1000
OWNER
1000
GEN
1002
}
1001
GENIUS_GENODEF_13
1002
{
1000
HIER
1070
     0
1002
}
1002
{
1000
MANEDIT
1070
     0
1002
}
1002
{
1000
NOSEL
1070
     0
1002
}
1002
{
1000
BEHIND
1070
     0
1002
}
1002
{
1000
OTHER
1070
     0
1002
}
1002
{
1000
REACTOR
1002
}
  0
LINE
  5
1F46
  8
247
  6
CONTINUOUS
 10
8.7923076922559744
 20
-14.96258580781952
 30
0.0
 11
8.7923076922559744
 21
-14.477970423223519
 31
0.0
  0
ARC
  5
1F47
  8
247
  6
CONTINUOUS
 10
8.75
 20
-18.75000000000356
 30
0.0
 40
1.25
 50
180.0
 51
0.0
  0
LINE
  5
1F48
  8
247
  6
CONTINUOUS
 10
7.5
 20
-18.75000000000356
 30
0.0
 11
7.5
 21
-18.303846153917551
 31
0.0
  0
ARC
  5
1F49
  8
247
  6
CONTINUOUS
 10
8.75
 20
-14.11538461567357
 30
0.0
 40
1.25
 50
0.0
 51
180.0
  0
VIEWPORT
  5
22
 67
     1
  8
0
 10
261.51769911504419
 20
148.5
 30
0.0
 40
523.0353982300885
 41
297.0
 68
     1
 69
     1
1001
ACAD
1000
MVIEW
1002
{
1070
    16
1010
0.0
1020
0.0
1030
0.0
1010
0.0
1020
0.0
1030
1.0
1040
0.0
1040
297.0
1040
261.51769911504419
1040
148.5
1040
50.0
1040
0.0
1040
0.0
1070
     0
1070
   100
1070
     1
1070
     1
1070
     0
1070
     0
1070
     0
1070
     0
1040
0.0
1040
0.0
1040
0.0
1040
1.0
1040
1.0
1040
10.0
1040
10.0
1070
     0
1002
{
1002
}
1002
}
1001
GENIUS_GENODEF_13
1002
{
1000
HIER
1070
     0
1002
}
1002
{
1000
MANEDIT
1070
     0
1002
}
1002
{
1000
NOSEL
1070
     0
1002
}
1002
{
1000
BEHIND
1070
     0
1002
}
1002
{
1000
OTHER
1070
     0
1002
}
1002
{
1000
REACTOR
1002
}
1001
GENIUS_GENOBJ-N-SDF_13
1002
{
1000
OWNER
1000
GEN
1002
}
1001
GENIUS_GENSCREG_15
1000
PF
1040
1.0
1000
DF
1040
1.0
1000
MIN
1011
0.0
1021
0.0
1031
0.0
1021
0.0
1031
0.0
1000
MAX
1011
523.0353982300885
1021
0.0
1031
0.0
1021
297.0
1031
0.0
1000
FLAGS
1070
     4
  0
ENDSEC
  0
EOF
