  0
SECTION
  2
HEADER
  9
$ACADVER
  1
AC1009
  9
$INSBASE
 10
0.0
 20
0.0
 30
0.0
  9
$EXTMIN
 10
-92.474587060714967
 20
-42.917576175423918
 30
0.0
  9
$EXTMAX
 10
92.0
 20
67.537180151922257
 30
0.0
  9
$LIMMIN
 10
0.0
 20
0.0
  9
$LIMMAX
 10
297.0
 20
210.0
  9
$ORTHOMODE
 70
     1
  9
$REGENMODE
 70
     1
  9
$FILLMODE
 70
     1
  9
$QTEXTMODE
 70
     0
  9
$MIRRTEXT
 70
     1
  9
$DRAGMODE
 70
     2
  9
$LTSCALE
 40
10.0
  9
$OSMODE
 70
    39
  9
$ATTMODE
 70
     1
  9
$TEXTSIZE
 40
3.0
  9
$TRACEWID
 40
1.0
  9
$TEXTSTYLE
  7
YOKO
  9
$CLAYER
  8
240
  9
$CELTYPE
  6
BYLAYER
  9
$CECOLOR
 62
   256
  9
$DIMSCALE
 40
1.0
  9
$DIMASZ
 40
2.2299999999999991
  9
$DIMEXO
 40
0.5
  9
$DIMDLI
 40
7.0
  9
$DIMRND
 40
0.0
  9
$DIMDLE
 40
0.0
  9
$DIMEXE
 40
1.0
  9
$DIMTP
 40
0.0
  9
$DIMTM
 40
0.01
  9
$DIMTXT
 40
2.799999999999998
  9
$DIMCEN
 40
0.0
  9
$DIMTSZ
 40
0.0
  9
$DIMTOL
 70
     0
  9
$DIMLIM
 70
     0
  9
$DIMTIH
 70
     0
  9
$DIMTOH
 70
     0
  9
$DIMSE1
 70
     0
  9
$DIMSE2
 70
     0
  9
$DIMTAD
 70
     3
  9
$DIMZIN
 70
     9
  9
$DIMBLK
  1
OPEN
  9
$DIMASO
 70
     1
  9
$DIMSHO
 70
     1
  9
$DIMPOST
  1

  9
$DIMAPOST
  1

  9
$DIMALT
 70
     0
  9
$DIMALTD
 70
     2
  9
$DIMALTF
 40
25.399999999999999
  9
$DIMLFAC
 40
1.0
  9
$DIMTOFL
 70
     1
  9
$DIMTVP
 40
0.0
  9
$DIMTIX
 70
     1
  9
$DIMSOXD
 70
     0
  9
$DIMSAH
 70
     0
  9
$DIMBLK1
  1

  9
$DIMBLK2
  1

  9
$DIMSTYLE
  2
BIGT
  9
$DIMCLRD
 70
   256
  9
$DIMCLRE
 70
   256
  9
$DIMCLRT
 70
    40
  9
$DIMTFAC
 40
1.0
  9
$DIMGAP
 40
1.0
  9
$LUNITS
 70
     2
  9
$LUPREC
 70
     3
  9
$SKETCHINC
 40
1.0
  9
$FILLETRAD
 40
1.0
  9
$AUNITS
 70
     0
  9
$AUPREC
 70
     3
  9
$MENU
  1
.
  9
$ELEVATION
 40
0.0
  9
$PELEVATION
 40
0.0
  9
$THICKNESS
 40
0.0
  9
$LIMCHECK
 70
     0
  9
$BLIPMODE
 70
     0
  9
$CHAMFERA
 40
0.25
  9
$CHAMFERB
 40
0.25
  9
$SKPOLY
 70
     0
  9
$TDCREATE
 40
2455799.6690682871
  9
$TDUPDATE
 40
2457835.682553553
  9
$TDINDWG
 40
0.0231983449
  9
$TDUSRTIMER
 40
0.0231983218
  9
$USRTIMER
 70
     1
  9
$ANGBASE
 50
0.0
  9
$ANGDIR
 70
     0
  9
$PDMODE
 70
     1
  9
$PDSIZE
 40
0.0
  9
$PLINEWID
 40
0.0
  9
$COORDS
 70
     1
  9
$SPLFRAME
 70
     0
  9
$SPLINETYPE
 70
     6
  9
$SPLINESEGS
 70
     4
  9
$ATTDIA
 70
     1
  9
$ATTREQ
 70
     1
  9
$HANDLING
 70
     1
  9
$HANDSEED
  5
2413
  9
$SURFTAB1
 70
     6
  9
$SURFTAB2
 70
     6
  9
$SURFTYPE
 70
     6
  9
$SURFU
 70
     6
  9
$SURFV
 70
     6
  9
$UCSNAME
  2

  9
$UCSORG
 10
0.0
 20
0.0
 30
0.0
  9
$UCSXDIR
 10
1.0
 20
0.0
 30
0.0
  9
$UCSYDIR
 10
0.0
 20
1.0
 30
0.0
  9
$PUCSNAME
  2

  9
$PUCSORG
 10
0.0
 20
0.0
 30
0.0
  9
$PUCSXDIR
 10
1.0
 20
0.0
 30
0.0
  9
$PUCSYDIR
 10
0.0
 20
1.0
 30
0.0
  9
$USERI1
 70
     1
  9
$USERI2
 70
     0
  9
$USERI3
 70
     0
  9
$USERI4
 70
     0
  9
$USERI5
 70
     0
  9
$USERR1
 40
0.0
  9
$USERR2
 40
0.0
  9
$USERR3
 40
0.0
  9
$USERR4
 40
0.0
  9
$USERR5
 40
0.0
  9
$WORLDVIEW
 70
     1
  9
$SHADEDGE
 70
     3
  9
$SHADEDIF
 70
    70
  9
$TILEMODE
 70
     1
  9
$MAXACTVP
 70
    16
  9
$PLIMCHECK
 70
     0
  9
$PEXTMIN
 10
1.0000000000000000E+020
 20
1.0000000000000000E+020
 30
1.0000000000000000E+020
  9
$PEXTMAX
 10
-1.0000000000000000E+020
 20
-1.0000000000000000E+020
 30
-1.0000000000000000E+020
  9
$PLIMMIN
 10
0.0
 20
0.0
  9
$PLIMMAX
 10
420.0
 20
297.0
  9
$UNITMODE
 70
     0
  9
$VISRETAIN
 70
     1
  9
$PLINEGEN
 70
     0
  9
$PSLTSCALE
 70
     1
  0
ENDSEC
  0
SECTION
  2
TABLES
  0
TABLE
  2
VPORT
 70
     1
  0
VPORT
  2
*ACTIVE
 70
     0
 10
0.0
 20
0.0
 11
1.0
 21
1.0
 12
12.03949503020595
 22
8.8781368661590818
 13
0.0
 23
0.0
 14
7.0
 24
7.0
 15
7.0
 25
7.0
 16
0.0
 26
0.0
 36
1.0
 17
0.0
 27
0.0
 37
0.0
 40
187.78392634922281
 41
1.6795646916565901
 42
50.0
 43
0.0
 44
0.0
 50
0.0
 51
0.0
 71
     0
 72
  2000
 73
     1
 74
     0
 75
     0
 76
     0
 77
     0
 78
     0
  0
ENDTAB
  0
TABLE
  2
LTYPE
 70
    16
  0
LTYPE
  2
CONTINUOUS
 70
     0
  3
Solid line
 72
    65
 73
     0
 40
0.0
  0
LTYPE
  2
CENTER2
 70
     0
  3
___ _ ___ _ ___ _ ___ _ ___ _ ___ _ ___ _ ___ _
 72
    65
 73
     4
 40
1.125
 49
0.75
 49
-0.125
 49
0.125
 49
-0.125
  0
LTYPE
  2
HIDDEN2
 70
     0
  3
_ _ _ _ _ _ _ _ _ _ _ _ _ _ _ _ _ _ _ _ _ _ _ _
 72
    65
 73
     2
 40
0.1875
 49
0.125
 49
-0.0625
  0
LTYPE
  2
PHANTOM2
 70
     0
  3
___ _ _ ___ _ _ ___ _ _ ___ _ _ ___ _ _ ___ _ _
 72
    65
 73
     6
 40
1.25
 49
0.625
 49
-0.125
 49
0.125
 49
-0.125
 49
0.125
 49
-0.125
  0
LTYPE
  2
CENTER
 70
     0
  3
____ _ ____ _ ____ _ ____ _ ____ _ ____ _ ____ 
 72
    65
 73
     4
 40
2.0
 49
1.25
 49
-0.25
 49
0.25
 49
-0.25
  0
LTYPE
  2
AMCONSTR
 70
     0
  3
_______________________
 72
    65
 73
     2
 40
9999.0
 49
9999.0
 49
0.0
  0
LTYPE
  2
HIDDEN
 70
     0
  3
Hidden __ __ __ __ __ __ __ __ __ __ __ __ __ _
 72
    65
 73
     2
 40
9.5249999999999986
 49
6.349999999999997
 49
-3.174999999999998
  0
LTYPE
  2
AMZIGZAG2
 70
     0
  3
/\/-/\/-/\/-/\/-/\/-/\/
 72
    65
 73
     2
 40
0.4401
 49
0.0001
 49
-0.4400000000000002
  0
LTYPE
  2
ACANSTGB
 70
     0
  3
__ . . __ . .
 72
    65
 73
     6
 40
0.35433070866
 49
0.15748031496
 49
-0.03937007874
 49
0.03937007874
 49
-0.03937007874
 49
0.03937007874
 49
-0.03937007874
  0
LTYPE
  2
ACANSTGL
 70
     0
  3
_ _ _ _ _
 72
    65
 73
     2
 40
0.11811023622
 49
0.07874015748
 49
-0.03937007874
  0
ENDTAB
  0
TABLE
  2
LAYER
 70
    12
  0
LAYER
  2
0
 70
     0
 62
     7
  6
CONTINUOUS
  0
LAYER
  2
240
 70
     0
 62
     4
  6
CONTINUOUS
  0
LAYER
  2
DEFPOINTS
 70
     0
 62
     7
  6
CONTINUOUS
  0
LAYER
  2
245
 70
     0
 62
     2
  6
CENTER2
  0
LAYER
  2
241
 70
     0
 62
   211
  6
CONTINUOUS
  0
LAYER
  2
242
 70
     0
 62
     3
  6
CONTINUOUS
  0
LAYER
  2
243
 70
     0
 62
   211
  6
HIDDEN2
  0
LAYER
  2
244
 70
     0
 62
     3
  6
HIDDEN2
  0
LAYER
  2
247
 70
     0
 62
    60
  6
CONTINUOUS
  0
LAYER
  2
250
 70
     0
 62
     3
  6
CONTINUOUS
  0
ENDTAB
  0
TABLE
  2
STYLE
 70
     6
  0
STYLE
  2
STANDARD
 70
     0
 40
0.0
 41
1.0
 50
0.0
 71
     0
 42
3.0
  3
romans.shx
  4
extfont.shx
  0
STYLE
  2
YOKO
 70
     0
 40
0.0
 41
1.0
 50
0.0
 71
     0
 42
3.0
  3
romans.shx
  4
extfont.shx
  0
STYLE
  2
ACANSGDT
 70
     0
 40
0.0
 41
1.0
 50
0.0
 71
     0
 42
3.0
  3
amgdt.shx
  4

  0
ENDTAB
  0
TABLE
  2
VIEW
 70
     0
  0
ENDTAB
  0
TABLE
  2
UCS
 70
     0
  0
ENDTAB
  0
TABLE
  2
APPID
 70
    46
  0
APPID
  2
ACAD
 70
     0
  0
APPID
  2
ACADANNOTATIVE
 70
     0
  0
APPID
  2
GLOBAL
 70
     0
  0
APPID
  2
DETAIL
 70
     0
  0
APPID
  2
GRPNAME
 70
     0
  0
APPID
  2
GPARA
 70
     0
  0
APPID
  2
MCAD_NO_VIS
 70
     0
  0
APPID
  2
ACAD_TEMP_GRAPHIC
 70
     0
  0
APPID
  2
ACATTRIBSERVICES
 70
     0
  0
APPID
  2
GENIUS_GENSCREG_15
 70
     0
  0
APPID
  2
GENIUS_GENODEF_13
 70
     0
  0
APPID
  2
GENIUS_GENOBJ-N-SDF_13
 70
     0
  0
APPID
  2
GENIUS_GENREC_14
 70
     0
  0
APPID
  2
GENIUS_GENOBJ-N-REC_13
 70
     0
  0
APPID
  2
GENIUS_GENDIMSH_14
 70
     0
  0
APPID
  2
GENIUS_GENOBJ-N-DIM_13
 70
     0
  0
APPID
  2
GENIUS_GENDIM_13
 70
     0
  0
APPID
  2
GENIUS_GENDTOL_13
 70
     0
  0
APPID
  2
GENIUS_GENOLIS_13
 70
     0
  0
APPID
  2
GENIUS_GENOENT_13
 70
     0
  0
APPID
  2
GENIUS_GENOBJ-F-FEM_13
 70
     0
  0
APPID
  2
GENIUS_GENOREF_13
 70
     0
  0
APPID
  2
GENIUS_GEFFEM_13
 70
     0
  0
APPID
  2
GENIUS_GEFFEMP_13
 70
     0
  0
APPID
  2
AD_DRAW
 70
     0
  0
APPID
  2
DESIGNERASSEMBLIES
 70
     0
  0
APPID
  2
ACADM_DIM_EDIT
 70
     0
  0
APPID
  2
AMDT_DM_ADJ
 70
     0
  0
APPID
  2
GENIUS_GENOBJ-N-FIL_13
 70
     0
  0
APPID
  2
GENIUS_GENFIL_13
 70
     0
  0
APPID
  2
GENIUS_GENOBJ-N-CHA_13
 70
     0
  0
APPID
  2
GENIUS_GENOBJ-N-CRS_13
 70
     0
  0
APPID
  2
HATCH_TYPE
 70
     0
  0
APPID
  2
HATCH_DISPLAY
 70
     0
  0
APPID
  2
HATCH_DISTANCE
 70
     0
  0
APPID
  2
ACAD_DSTYLE_DIMJAG
 70
     0
  0
APPID
  2
ACAD_DSTYLE_DIMBREAK
 70
     0
  0
APPID
  2
ACAD_NAV_VCDISPLAY
 70
     0
  0
APPID
  2
ACAD_EXEMPT_FROM_CAD_STANDARDS
 70
     0
  0
APPID
  2
ACAD_DSTYLE_DIMINSPECT
 70
     0
  0
APPID
  2
ACAD_MLEADERVER
 70
     0
  0
APPID
  2
ACAD_DSTYLE_DIMARC_LENGTH_
 70
     0
  0
APPID
  2
ACAD_DSTYLE_DIM_LINETYPE
 70
     0
  0
APPID
  2
ACAD_DSTYLE_DIM_EXT1_LINETYPE
 70
     0
  0
APPID
  2
ACAD_DSTYLE_DIM_EXT2_LINETYPE
 70
     0
  0
APPID
  2
ACAECLAYERSTANDARD
 70
     0
  0
ENDTAB
  0
TABLE
  2
DIMSTYLE
 70
    10
  0
DIMSTYLE
  2
STANDARD
 70
     0
  3

  4

  5

  6

  7

 40
1.0
 41
0.18
 42
0.0625
 43
0.38
 44
0.18
 45
0.0
 46
0.0
 47
0.0
 48
0.0
140
0.18
141
0.09
142
0.0
143
25.399999999999999
144
1.0
145
0.0
146
1.0
147
0.09
 71
     0
 72
     0
 73
     1
 74
     1
 75
     0
 76
     0
 77
     0
 78
     0
170
     0
171
     2
172
     0
173
     0
174
     0
175
     0
176
     0
177
     0
178
     0
  0
DIMSTYLE
  2
BIGT
 70
     0
  3

  4

  5

  6

  7

 40
1.0
 41
2.2299999999999991
 42
0.5
 43
7.0
 44
1.0
 45
0.0
 46
0.0
 47
0.0
 48
0.01
140
2.799999999999998
141
0.0
142
0.0
143
25.399999999999999
144
1.0
145
0.0
146
1.0
147
1.0
 71
     0
 72
     0
 73
     0
 74
     0
 75
     0
 76
     0
 77
     3
 78
     9
170
     0
171
     2
172
     1
173
     0
174
     1
175
     0
176
   256
177
   256
178
    40
  0
DIMSTYLE
  2
AM_ANSI
 70
     0
  3

  4
mm
  5

  6

  7

 40
1.0
 41
0.12
 42
0.05
 43
0.5
 44
0.1
 45
0.0
 46
0.0
 47
0.1
 48
0.1
140
0.12
141
0.0
142
0.0
143
25.399999999999999
144
1.0
145
0.0
146
0.71
147
0.06
 71
     0
 72
     0
 73
     1
 74
     1
 75
     0
 76
     0
 77
     0
 78
     7
170
     0
171
     2
172
     0
173
     0
174
     0
175
     0
176
   256
177
   256
178
     2
  0
DIMSTYLE
  2
AM_ANSI$3
 70
     0
  3

  4
mm
  5

  6

  7

 40
1.0
 41
0.12
 42
0.05
 43
0.5
 44
0.1
 45
0.0
 46
0.0
 47
0.1
 48
0.1
140
0.12
141
0.0
142
0.0
143
25.399999999999999
144
1.0
145
0.0
146
0.71
147
0.06
 71
     0
 72
     0
 73
     1
 74
     1
 75
     0
 76
     0
 77
     0
 78
     7
170
     0
171
     2
172
     0
173
     0
174
     0
175
     0
176
   256
177
   256
178
     2
  0
DIMSTYLE
  2
AM_ANSI$4
 70
     0
  3

  4
mm
  5

  6

  7

 40
1.0
 41
0.12
 42
0.05
 43
0.5
 44
0.1
 45
0.0
 46
0.0
 47
0.1
 48
0.1
140
0.12
141
0.0
142
0.0
143
25.399999999999999
144
1.0
145
0.0
146
0.71
147
0.06
 71
     0
 72
     0
 73
     1
 74
     1
 75
     0
 76
     0
 77
     0
 78
     7
170
     0
171
     2
172
     0
173
     0
174
     0
175
     0
176
   256
177
   256
178
     2
  0
DIMSTYLE
  2
AM_ANSI$7
 70
     0
  3

  4
mm
  5

  6

  7

 40
1.0
 41
0.12
 42
0.05
 43
0.5
 44
0.1
 45
0.0
 46
0.0
 47
0.1
 48
0.1
140
0.12
141
0.0
142
0.0
143
25.399999999999999
144
1.0
145
0.0
146
0.71
147
0.06
 71
     0
 72
     0
 73
     1
 74
     1
 75
     0
 76
     0
 77
     0
 78
     7
170
     0
171
     2
172
     0
173
     0
174
     0
175
     0
176
   256
177
   256
178
     2
  0
DIMSTYLE
  2
AM_ANSI$SF
 70
     0
  3

  4
mm
  5

  6

  7

 40
1.0
 41
0.12
 42
0.05
 43
0.5
 44
0.1
 45
0.0
 46
0.0
 47
0.1
 48
0.1
140
0.12
141
0.0
142
0.0
143
25.399999999999999
144
1.0
145
0.0
146
0.71
147
0.06
 71
     0
 72
     0
 73
     1
 74
     1
 75
     1
 76
     1
 77
     0
 78
     7
170
     0
171
     2
172
     0
173
     0
174
     0
175
     0
176
   256
177
   256
178
     2
  0
DIMSTYLE
  2
AM_ANSI$SH
 70
     0
  3

  4
mm
  5

  6

  7

 40
1.0
 41
0.12
 42
0.05
 43
0.5
 44
0.1
 45
0.0
 46
0.0
 47
0.1
 48
0.1
140
0.12
141
0.0
142
0.0
143
25.399999999999999
144
1.0
145
0.0
146
0.71
147
0.06
 71
     0
 72
     0
 73
     1
 74
     1
 75
     1
 76
     1
 77
     0
 78
     7
170
     0
171
     2
172
     0
173
     1
174
     0
175
     0
176
   256
177
   256
178
     2
  0
ENDTAB
  0
ENDSEC
  0
SECTION
  2
BLOCKS
  0
BLOCK
  8
0
  2
$MODEL_SPACE
 70
     0
 10
0.0
 20
0.0
 30
0.0
  3
$MODEL_SPACE
  1

  0
ENDBLK
  5
21B7
  8
0
  0
BLOCK
 67
     1
  8
0
  2
$PAPER_SPACE
 70
     0
 10
0.0
 20
0.0
 30
0.0
  3
$PAPER_SPACE
  1

  0
ENDBLK
  5
21B3
 67
     1
  8
0
  0
BLOCK
  8
0
  2
_OPEN
 70
     0
 10
0.0
 20
0.0
 30
0.0
  3
_OPEN
  1

  0
LINE
  5
18C6
  8
0
  6
BYBLOCK
 62
     0
 10
-1.0
 20
0.1666666666666666
 30
0.0
 11
0.0
 21
0.0
 31
0.0
  0
LINE
  5
18C7
  8
0
  6
BYBLOCK
 62
     0
 10
-1.0
 20
-0.1666666666666666
 30
0.0
 11
0.0
 21
0.0
 31
0.0
  0
LINE
  5
18C8
  8
0
  6
BYBLOCK
 62
     0
 10
0.0
 20
0.0
 30
0.0
 11
-1.0
 21
0.0
 31
0.0
  0
ENDBLK
  5
18C9
  8
0
  0
BLOCK
  8
0
  2
_ACMFILLEDHALF
 70
     0
 10
0.0
 20
0.0
 30
0.0
  3
_ACMFILLEDHALF
  1

  0
TRACE
  5
1C75
  8
240
 62
     0
 10
-0.8
 20
0.0
 30
0.0
 11
-1.0
 21
0.166666666
 31
0.0
 12
0.0
 22
0.0
 32
0.0
 13
0.0
 23
0.0
 33
0.0
  0
LINE
  5
1C76
  8
240
 62
     0
 10
-1.0
 20
0.0
 30
0.0
 11
-0.8
 21
0.0
 31
0.0
  0
ENDBLK
  5
1C74
  8
0
  0
ENDSEC
  0
SECTION
  2
ENTITIES
  0
TEXT
  5
1547
  8
241
  6
CONTINUOUS
 10
-90.706710985126833
 20
60.037180151922257
 30
0.0
 40
7.5
  1
MGT36-M30-65
  7
YOKO
  0
LINE
  5
176B
  8
250
  6
CONTINUOUS
 10
-0.0000000000036378
 20
27.499999999977721
 30
0.0
 11
-0.0000000000036365
 21
49.999999999881751
 31
0.0
  0
LINE
  5
176C
  8
250
  6
CONTINUOUS
 10
65.0
 20
21.99999999999627
 30
0.0
 11
65.0
 21
49.999999999881751
 31
0.0
  0
LINE
  5
176D
  8
250
  6
CONTINUOUS
 10
2.2299999999963611
 20
48.999999999881751
 30
0.0
 11
62.77000000000001
 21
48.999999999881751
 31
0.0
  0
LINE
  5
1772
  8
250
  6
CONTINUOUS
 10
65.499999999988816
 20
21.499999999994991
 30
0.0
 11
92.0
 21
21.499999999994991
 31
0.0
  0
LINE
  5
1773
  8
250
  6
CONTINUOUS
 10
65.50000000000027
 20
-21.49999999999817
 30
0.0
 11
92.0
 21
-21.499999999998192
 31
0.0
  0
LINE
  5
1774
  8
250
  6
CONTINUOUS
 10
91.0
 20
19.26999999999498
 30
0.0
 11
91.0
 21
-19.269999999998191
 31
0.0
  0
LINE
  5
1778
  8
250
  6
CONTINUOUS
 10
65.499999999991459
 20
11.49999999999863
 30
0.0
 11
78.0
 21
11.49999999999863
 31
0.0
  0
LINE
  5
1779
  8
250
  6
CONTINUOUS
 10
65.499999999997613
 20
-11.500000000001821
 30
0.0
 11
78.0
 21
-11.500000000001821
 31
0.0
  0
LINE
  5
177A
  8
250
  6
CONTINUOUS
 10
77.0
 20
9.2699999999986318
 30
0.0
 11
77.0
 21
-9.2700000000018221
 31
0.0
  0
LINE
  5
1780
  8
250
  6
CONTINUOUS
 10
17.468728541761831
 20
6.2699999999995439
 30
0.0
 11
17.468728541761831
 21
-6.2700000000004543
 31
0.0
  0
LINE
  5
1781
  8
250
  6
CONTINUOUS
 10
17.46872854176182
 20
-42.917576175423918
 30
0.0
 11
17.468728541761831
 21
-8.5000000000004547
 31
0.0
  0
TEXT
  5
1785
  8
250
  6
CONTINUOUS
 10
26.64285714285532
 20
49.999999999881751
 30
0.0
 40
6.0
  1
65
  0
LINE
  5
1786
  8
250
  6
CONTINUOUS
 10
62.77000000000001
 20
49.371666666548421
 30
0.0
 11
65.0
 21
48.999999999881751
 31
0.0
  0
LINE
  5
1787
  8
250
  6
CONTINUOUS
 10
62.77000000000001
 20
48.628333333215068
 30
0.0
 11
65.0
 21
48.999999999881751
 31
0.0
  0
LINE
  5
1788
  8
250
  6
CONTINUOUS
 10
65.0
 20
48.999999999881751
 30
0.0
 11
62.77000000000001
 21
48.999999999881751
 31
0.0
  0
LINE
  5
1789
  8
250
  6
CONTINUOUS
 10
2.2299999999963611
 20
48.628333333215068
 30
0.0
 11
-0.0000000000036366
 21
48.999999999881751
 31
0.0
  0
LINE
  5
178A
  8
250
  6
CONTINUOUS
 10
2.2299999999963611
 20
49.371666666548421
 30
0.0
 11
-0.0000000000036366
 21
48.999999999881751
 31
0.0
  0
LINE
  5
178B
  8
250
  6
CONTINUOUS
 10
-0.0000000000036366
 20
48.999999999881751
 30
0.0
 11
2.2299999999963611
 21
48.999999999881751
 31
0.0
  0
TEXT
  5
178C
  8
250
  6
CONTINUOUS
 10
90.0
 20
-8.1428571428587251
 30
0.0
 40
6.0
  1
\U+220543
 50
90.0
  0
LINE
  5
178D
  8
250
  6
CONTINUOUS
 10
91.371666666666684
 20
-19.269999999998191
 30
0.0
 11
91.0
 21
-21.499999999998192
 31
0.0
  0
LINE
  5
178E
  8
250
  6
CONTINUOUS
 10
90.628333333333316
 20
-19.269999999998191
 30
0.0
 11
91.0
 21
-21.499999999998192
 31
0.0
  0
LINE
  5
178F
  8
250
  6
CONTINUOUS
 10
91.0
 20
-21.499999999998192
 30
0.0
 11
91.0
 21
-19.269999999998191
 31
0.0
  0
LINE
  5
1790
  8
250
  6
CONTINUOUS
 10
90.628333333333316
 20
19.26999999999498
 30
0.0
 11
91.0
 21
21.499999999994991
 31
0.0
  0
LINE
  5
1791
  8
250
  6
CONTINUOUS
 10
91.371666666666684
 20
19.26999999999498
 30
0.0
 11
91.0
 21
21.499999999994991
 31
0.0
  0
LINE
  5
1792
  8
250
  6
CONTINUOUS
 10
91.0
 20
21.499999999994991
 30
0.0
 11
91.0
 21
19.26999999999498
 31
0.0
  0
TEXT
  5
1793
  8
250
  6
CONTINUOUS
 10
76.0
 20
-8.1428571428571388
 30
0.0
 40
6.0
  1
\U+220523
 50
90.0
  0
LINE
  5
1794
  8
250
  6
CONTINUOUS
 10
77.371666666666655
 20
-9.2700000000018221
 30
0.0
 11
77.0
 21
-11.500000000001821
 31
0.0
  0
LINE
  5
1795
  8
250
  6
CONTINUOUS
 10
76.62833333333333
 20
-9.2700000000018221
 30
0.0
 11
77.0
 21
-11.500000000001821
 31
0.0
  0
LINE
  5
1796
  8
250
  6
CONTINUOUS
 10
77.0
 20
-11.500000000001821
 30
0.0
 11
77.0
 21
-9.2700000000018221
 31
0.0
  0
LINE
  5
1797
  8
250
  6
CONTINUOUS
 10
76.62833333333333
 20
9.2699999999986318
 30
0.0
 11
77.0
 21
11.49999999999863
 31
0.0
  0
LINE
  5
1798
  8
250
  6
CONTINUOUS
 10
77.371666666666655
 20
9.2699999999986318
 30
0.0
 11
77.0
 21
11.49999999999863
 31
0.0
  0
LINE
  5
1799
  8
250
  6
CONTINUOUS
 10
77.0
 20
11.49999999999863
 30
0.0
 11
77.0
 21
9.2699999999986318
 31
0.0
  0
LINE
  5
179A
  8
250
  6
CONTINUOUS
 10
17.840395208428479
 20
-6.2700000000004543
 30
0.0
 11
17.468728541761831
 21
-8.5000000000004547
 31
0.0
  0
LINE
  5
179B
  8
250
  6
CONTINUOUS
 10
17.097061875095161
 20
-6.2700000000004543
 30
0.0
 11
17.468728541761831
 21
-8.5000000000004547
 31
0.0
  0
LINE
  5
179C
  8
250
  6
CONTINUOUS
 10
17.468728541761831
 20
-8.5000000000004547
 30
0.0
 11
17.468728541761831
 21
-6.2700000000004543
 31
0.0
  0
LINE
  5
179D
  8
250
  6
CONTINUOUS
 10
17.097061875095172
 20
6.2699999999995439
 30
0.0
 11
17.468728541761831
 21
8.4999999999995488
 31
0.0
  0
LINE
  5
179E
  8
250
  6
CONTINUOUS
 10
17.8403952084285
 20
6.2699999999995439
 30
0.0
 11
17.468728541761831
 21
8.4999999999995488
 31
0.0
  0
LINE
  5
179F
  8
250
  6
CONTINUOUS
 10
17.468728541761831
 20
8.4999999999995488
 30
0.0
 11
17.468728541761831
 21
6.2699999999995439
 31
0.0
  0
LINE
  5
1C95
  8
245
  6
CENTER2
 10
-92.474587060714967
 20
0.0
 30
0.0
 11
66.969174642959501
 21
0.0
 31
0.0
  0
CIRCLE
  5
1C99
  8
241
  6
CONTINUOUS
 10
22.999999999996358
 20
0.0
 30
0.0
 40
3.3749999999999432
  0
CIRCLE
  5
1C9A
  8
242
  6
CONTINUOUS
 10
22.999999999996358
 20
0.0
 30
0.0
 40
4.0000000000000284
  0
LINE
  5
1C9B
  8
245
  6
CENTER2
 10
22.999999999996358
 20
4.0
 30
0.0
 11
22.999999999996358
 21
-4.0
 31
0.0
  0
LINE
  5
1C9E
  8
240
  6
CONTINUOUS
 10
64.999999999988816
 20
21.49999999999627
 30
0.0
 11
65.00000000000027
 21
-21.499999999995818
 31
0.0
  0
LINE
  5
1CA2
  8
243
  6
HIDDEN2
 10
32.999999999996369
 20
11.5
 30
0.0
 11
32.999999999996369
 21
-11.500000000000441
 31
0.0
  0
LINE
  5
1CA4
  8
243
  6
HIDDEN2
 10
12.99999999999636
 20
8.4999999999995453
 30
0.0
 11
32.999999999996369
 21
8.4999999999995453
 31
0.0
  0
LINE
  5
1CA5
  8
243
  6
HIDDEN2
 10
12.99999999999636
 20
8.4999999999995453
 30
0.0
 11
12.99999999999636
 21
-8.5000000000004547
 31
0.0
  0
LINE
  5
1CA6
  8
243
  6
HIDDEN2
 10
12.99999999999636
 20
-8.5000000000004547
 30
0.0
 11
32.999999999996369
 21
-8.5000000000004547
 31
0.0
  0
LINE
  5
1CA8
  8
243
  6
HIDDEN2
 10
32.999999999996369
 20
11.5
 30
0.0
 11
64.999999999991488
 21
11.5
 31
0.0
  0
LINE
  5
1CA9
  8
243
  6
HIDDEN2
 10
32.999999999996369
 20
-11.500000000000441
 30
0.0
 11
64.999999999997613
 21
-11.500000000000441
 31
0.0
  0
LINE
  5
1CAA
  8
240
  6
CONTINUOUS
 10
2.241047546342199
 20
21.500000000003858
 30
0.0
 11
64.999999999988816
 21
21.49999999999627
 31
0.0
  0
LINE
  5
1CAC
  8
240
  6
CONTINUOUS
 10
2.2410475463484612
 20
-21.5000000000034
 30
0.0
 11
65.00000000000027
 21
-21.499999999995818
 31
0.0
  0
LINE
  5
1CAF
  8
241
  6
CONTINUOUS
 10
44.999999999956323
 20
21.499999999998181
 30
0.0
 11
44.999999999959982
 21
-21.499999999998181
 31
0.0
  0
LINE
  5
1CB0
  8
241
  6
CONTINUOUS
 10
41.999999999956323
 20
21.499999999998181
 30
0.0
 11
41.999999999956323
 21
-21.499999999998181
 31
0.0
  0
LINE
  5
1CB1
  8
241
  6
CONTINUOUS
 10
40.399999999950523
 20
21.49999999999908
 30
0.0
 11
40.399999999950523
 21
-21.49999999999908
 31
0.0
  0
LINE
  5
1CB3
  8
245
  6
CENTER2
 10
-66.00000000000361
 20
19.999999999979519
 30
0.0
 11
-66.000000000005471
 21
-20.000000000013191
 31
0.0
1001
GENIUS_GENOREF_13
1005
1F2A
  0
LINE
  5
1CB9
  8
240
  6
CONTINUOUS
 10
-8.9668613674821245
 20
26.512061475821159
 30
0.0
 11
-7.6262612902781211
 21
26.999999999977721
 31
0.0
  0
LINE
  5
1CBB
  8
240
  6
CONTINUOUS
 10
-0.0000000000022878
 20
26.999999999977721
 30
0.0
 11
-7.6262612902781211
 21
26.999999999977721
 31
0.0
  0
LINE
  5
1CBE
  8
240
  6
CONTINUOUS
 10
-0.0000000000022878
 20
26.999999999977721
 30
0.0
 11
1.2751217200533269
 21
22.241180954901061
 31
0.0
  0
LINE
  5
1CC5
  8
240
  6
CONTINUOUS
 10
-55.000000000021828
 20
16.499999999983171
 30
0.0
 11
-51.500000000020009
 21
19.999999999983171
 31
0.0
  0
LINE
  5
1CC6
  8
240
  6
CONTINUOUS
 10
-55.000000000021828
 20
16.499999999983171
 30
0.0
 11
-66.000000000005471
 21
16.499999999983171
 31
0.0
  0
LINE
  5
1CC7
  8
240
  6
CONTINUOUS
 10
-76.999999999989086
 20
16.499999999981348
 30
0.0
 11
-66.00000000000361
 21
16.49999999995589
 31
0.0
  0
LINE
  5
1CC8
  8
240
  6
CONTINUOUS
 10
-76.999999999989086
 20
16.499999999981348
 30
0.0
 11
-80.499999999990905
 21
19.999999999981348
 31
0.0
  0
LINE
  5
1CC9
  8
240
  6
CONTINUOUS
 10
-51.500000000020009
 20
19.999999999983171
 30
0.0
 11
-9.0000000000036344
 21
19.999999999985629
 31
0.0
  0
LINE
  5
1CCB
  8
241
  6
CONTINUOUS
 10
-7.6262612902792171
 20
26.999999999977248
 30
0.0
 11
-7.6262612902792171
 21
-27.000000000011369
 31
0.0
  0
LINE
  5
1CD0
  8
241
  6
CONTINUOUS
 10
-9.0000000000036326
 20
19.999999999985612
 30
0.0
 11
-9.0000000000036344
 21
-20.000000000019281
 31
0.0
  0
LINE
  5
1CD2
  8
240
  6
CONTINUOUS
 10
-9.0000000000036344
 20
-26.500000000012712
 30
0.0
 11
-7.6262612902780802
 21
-27.000000000011369
 31
0.0
  0
LINE
  5
1CD4
  8
240
  6
CONTINUOUS
 10
-0.0000000000017568
 20
-27.000000000011369
 30
0.0
 11
-7.6262612902780802
 21
-27.000000000011369
 31
0.0
  0
LINE
  5
1CD7
  8
240
  6
CONTINUOUS
 10
-0.0000000000017568
 20
-27.000000000011369
 30
0.0
 11
1.275121720059416
 21
-22.241180954901239
 31
0.0
  0
LINE
  5
1CE0
  8
240
  6
CONTINUOUS
 10
-55.000000000021828
 20
-16.500000000016819
 30
0.0
 11
-51.500000000020009
 21
-20.000000000016829
 31
0.0
  0
LINE
  5
1CE1
  8
240
  6
CONTINUOUS
 10
-55.000000000021828
 20
-16.500000000016819
 30
0.0
 11
-66.000000000005471
 21
-16.500000000016819
 31
0.0
  0
LINE
  5
1CE2
  8
240
  6
CONTINUOUS
 10
-76.999999999989086
 20
-16.500000000015
 30
0.0
 11
-66.00000000000361
 21
-16.499999999989541
 31
0.0
  0
LINE
  5
1CE3
  8
240
  6
CONTINUOUS
 10
-76.999999999989086
 20
-16.500000000015
 30
0.0
 11
-80.499999999990905
 21
-20.00000000001501
 31
0.0
  0
LINE
  5
1CE4
  8
240
  6
CONTINUOUS
 10
-51.500000000020009
 20
-20.000000000016829
 30
0.0
 11
-9.0000000000036344
 21
-20.000000000019291
 31
0.0
  0
LINE
  5
1CE5
  8
241
  6
CONTINUOUS
 10
-0.000000000001819
 20
-26.641256028065531
 30
0.0
 11
0.000000000001819
 21
26.641256028031421
 31
0.0
  0
LINE
  5
1CE8
  8
241
  6
CONTINUOUS
 10
1.5005154776099501
 20
21.399999999996002
 30
0.0
 11
1.5005154776099501
 21
-21.399999999995991
 31
0.0
  0
POLYLINE
  5
1CE9
  8
242
  6
CONTINUOUS
 66
     1
 10
0.0
 20
0.0
 30
0.0
 70
     8
  0
VERTEX
  5
1CEA
  8
242
  6
CONTINUOUS
 10
56.0
 20
-14.909599999999999
 30
0.0
 70
    32
  0
VERTEX
  5
1CEB
  8
242
  6
CONTINUOUS
 10
55.995199999999997
 20
-15.048400000000001
 30
0.0
 70
    32
  0
VERTEX
  5
1CEC
  8
242
  6
CONTINUOUS
 10
55.980699999999992
 20
-15.1868
 30
0.0
 70
    32
  0
VERTEX
  5
1CED
  8
242
  6
CONTINUOUS
 10
55.956699999999998
 20
-15.3246
 30
0.0
 70
    32
  0
VERTEX
  5
1CEE
  8
242
  6
CONTINUOUS
 10
55.923099999999998
 20
-15.461399999999999
 30
0.0
 70
    32
  0
VERTEX
  5
1CEF
  8
242
  6
CONTINUOUS
 10
55.880099999999999
 20
-15.5968
 30
0.0
 70
    32
  0
VERTEX
  5
1CF0
  8
242
  6
CONTINUOUS
 10
55.827800000000003
 20
-15.730600000000001
 30
0.0
 70
    32
  0
VERTEX
  5
1CF1
  8
242
  6
CONTINUOUS
 10
55.766199999999998
 20
-15.862500000000001
 30
0.0
 70
    32
  0
VERTEX
  5
1CF2
  8
242
  6
CONTINUOUS
 10
55.695500000000003
 20
-15.992000000000001
 30
0.0
 70
    32
  0
VERTEX
  5
1CF3
  8
242
  6
CONTINUOUS
 10
55.616000000000007
 20
-16.1189
 30
0.0
 70
    32
  0
VERTEX
  5
1CF4
  8
242
  6
CONTINUOUS
 10
55.527700000000003
 20
-16.242899999999999
 30
0.0
 70
    32
  0
VERTEX
  5
1CF5
  8
242
  6
CONTINUOUS
 10
55.430900000000001
 20
-16.363700000000001
 30
0.0
 70
    32
  0
VERTEX
  5
1CF6
  8
242
  6
CONTINUOUS
 10
55.32589999999999
 20
-16.481000000000002
 30
0.0
 70
    32
  0
VERTEX
  5
1CF7
  8
242
  6
CONTINUOUS
 10
55.212800000000001
 20
-16.5945
 30
0.0
 70
    32
  0
VERTEX
  5
1CF8
  8
242
  6
CONTINUOUS
 10
55.091999999999992
 20
-16.703900000000001
 30
0.0
 70
    32
  0
VERTEX
  5
1CF9
  8
242
  6
CONTINUOUS
 10
54.963799999999999
 20
-16.809000000000001
 30
0.0
 70
    32
  0
VERTEX
  5
1CFA
  8
242
  6
CONTINUOUS
 10
54.828400000000002
 20
-16.909600000000001
 30
0.0
 70
    32
  0
VERTEX
  5
1CFB
  8
242
  6
CONTINUOUS
 10
54.686199999999999
 20
-17.005299999999998
 30
0.0
 70
    32
  0
VERTEX
  5
1CFC
  8
242
  6
CONTINUOUS
 10
54.537599999999991
 20
-17.096
 30
0.0
 70
    32
  0
VERTEX
  5
1CFD
  8
242
  6
CONTINUOUS
 10
54.382800000000003
 20
-17.1814
 30
0.0
 70
    32
  0
VERTEX
  5
1CFE
  8
242
  6
CONTINUOUS
 10
54.222299999999983
 20
-17.261299999999999
 30
0.0
 70
    32
  0
VERTEX
  5
1CFF
  8
242
  6
CONTINUOUS
 10
54.056399999999996
 20
-17.335599999999999
 30
0.0
 70
    32
  0
VERTEX
  5
1D00
  8
242
  6
CONTINUOUS
 10
53.885599999999997
 20
-17.404
 30
0.0
 70
    32
  0
VERTEX
  5
1D01
  8
242
  6
CONTINUOUS
 10
53.7102
 20
-17.4665
 30
0.0
 70
    32
  0
VERTEX
  5
1D02
  8
242
  6
CONTINUOUS
 10
53.530700000000003
 20
-17.5227
 30
0.0
 70
    32
  0
VERTEX
  5
1D03
  8
242
  6
CONTINUOUS
 10
53.3476
 20
-17.572700000000001
 30
0.0
 70
    32
  0
VERTEX
  5
1D04
  8
242
  6
CONTINUOUS
 10
53.161099999999998
 20
-17.616199999999999
 30
0.0
 70
    32
  0
VERTEX
  5
1D05
  8
242
  6
CONTINUOUS
 10
52.971899999999998
 20
-17.653199999999991
 30
0.0
 70
    32
  0
VERTEX
  5
1D06
  8
242
  6
CONTINUOUS
 10
52.7804
 20
-17.683700000000002
 30
0.0
 70
    32
  0
VERTEX
  5
1D07
  8
242
  6
CONTINUOUS
 10
52.5869
 20
-17.7074
 30
0.0
 70
    32
  0
VERTEX
  5
1D08
  8
242
  6
CONTINUOUS
 10
52.392099999999992
 20
-17.724399999999999
 30
0.0
 70
    32
  0
VERTEX
  5
1D09
  8
242
  6
CONTINUOUS
 10
52.196300000000001
 20
-17.7346
 30
0.0
 70
    32
  0
VERTEX
  5
1D0A
  8
242
  6
CONTINUOUS
 10
52.0
 20
-17.738
 30
0.0
 70
    32
  0
VERTEX
  5
1D0B
  8
242
  6
CONTINUOUS
 10
51.803699999999992
 20
-17.7346
 30
0.0
 70
    32
  0
VERTEX
  5
1D0C
  8
242
  6
CONTINUOUS
 10
51.607900000000001
 20
-17.724399999999999
 30
0.0
 70
    32
  0
VERTEX
  5
1D0D
  8
242
  6
CONTINUOUS
 10
51.4131
 20
-17.7074
 30
0.0
 70
    32
  0
VERTEX
  5
1D0E
  8
242
  6
CONTINUOUS
 10
51.2196
 20
-17.683700000000002
 30
0.0
 70
    32
  0
VERTEX
  5
1D0F
  8
242
  6
CONTINUOUS
 10
51.028100000000002
 20
-17.653199999999991
 30
0.0
 70
    32
  0
VERTEX
  5
1D10
  8
242
  6
CONTINUOUS
 10
50.838900000000002
 20
-17.616199999999999
 30
0.0
 70
    32
  0
VERTEX
  5
1D11
  8
242
  6
CONTINUOUS
 10
50.6524
 20
-17.572700000000001
 30
0.0
 70
    32
  0
VERTEX
  5
1D12
  8
242
  6
CONTINUOUS
 10
50.46929999999999
 20
-17.5227
 30
0.0
 70
    32
  0
VERTEX
  5
1D13
  8
242
  6
CONTINUOUS
 10
50.2898
 20
-17.4665
 30
0.0
 70
    32
  0
VERTEX
  5
1D14
  8
242
  6
CONTINUOUS
 10
50.114400000000003
 20
-17.404
 30
0.0
 70
    32
  0
VERTEX
  5
1D15
  8
242
  6
CONTINUOUS
 10
49.943600000000004
 20
-17.335599999999999
 30
0.0
 70
    32
  0
VERTEX
  5
1D16
  8
242
  6
CONTINUOUS
 10
49.777700000000003
 20
-17.261299999999999
 30
0.0
 70
    32
  0
VERTEX
  5
1D17
  8
242
  6
CONTINUOUS
 10
49.61719999999999
 20
-17.1814
 30
0.0
 70
    32
  0
VERTEX
  5
1D18
  8
242
  6
CONTINUOUS
 10
49.462400000000002
 20
-17.096
 30
0.0
 70
    32
  0
VERTEX
  5
1D19
  8
242
  6
CONTINUOUS
 10
49.313800000000001
 20
-17.005299999999998
 30
0.0
 70
    32
  0
VERTEX
  5
1D1A
  8
242
  6
CONTINUOUS
 10
49.171599999999991
 20
-16.909600000000001
 30
0.0
 70
    32
  0
VERTEX
  5
1D1B
  8
242
  6
CONTINUOUS
 10
49.036200000000001
 20
-16.809000000000001
 30
0.0
 70
    32
  0
VERTEX
  5
1D1C
  8
242
  6
CONTINUOUS
 10
48.908000000000001
 20
-16.703900000000001
 30
0.0
 70
    32
  0
VERTEX
  5
1D1D
  8
242
  6
CONTINUOUS
 10
48.787199999999999
 20
-16.5945
 30
0.0
 70
    32
  0
VERTEX
  5
1D1E
  8
242
  6
CONTINUOUS
 10
48.674100000000003
 20
-16.481000000000002
 30
0.0
 70
    32
  0
VERTEX
  5
1D1F
  8
242
  6
CONTINUOUS
 10
48.569099999999999
 20
-16.363700000000001
 30
0.0
 70
    32
  0
VERTEX
  5
1D20
  8
242
  6
CONTINUOUS
 10
48.47229999999999
 20
-16.242899999999999
 30
0.0
 70
    32
  0
VERTEX
  5
1D21
  8
242
  6
CONTINUOUS
 10
48.384
 20
-16.1189
 30
0.0
 70
    32
  0
VERTEX
  5
1D22
  8
242
  6
CONTINUOUS
 10
48.30449999999999
 20
-15.992000000000001
 30
0.0
 70
    32
  0
VERTEX
  5
1D23
  8
242
  6
CONTINUOUS
 10
48.233800000000002
 20
-15.862500000000001
 30
0.0
 70
    32
  0
VERTEX
  5
1D24
  8
242
  6
CONTINUOUS
 10
48.172199999999982
 20
-15.730600000000001
 30
0.0
 70
    32
  0
VERTEX
  5
1D25
  8
242
  6
CONTINUOUS
 10
48.119900000000001
 20
-15.5968
 30
0.0
 70
    32
  0
VERTEX
  5
1D26
  8
242
  6
CONTINUOUS
 10
48.076900000000002
 20
-15.461399999999999
 30
0.0
 70
    32
  0
VERTEX
  5
1D27
  8
242
  6
CONTINUOUS
 10
48.043300000000002
 20
-15.3246
 30
0.0
 70
    32
  0
VERTEX
  5
1D28
  8
242
  6
CONTINUOUS
 10
48.019300000000001
 20
-15.1868
 30
0.0
 70
    32
  0
VERTEX
  5
1D29
  8
242
  6
CONTINUOUS
 10
48.004800000000003
 20
-15.048400000000001
 30
0.0
 70
    32
  0
VERTEX
  5
1D2A
  8
242
  6
CONTINUOUS
 10
48.0
 20
-14.909599999999999
 30
0.0
 70
    32
  0
VERTEX
  5
1D2B
  8
242
  6
CONTINUOUS
 10
48.004800000000003
 20
-14.770799999999999
 30
0.0
 70
    32
  0
VERTEX
  5
1D2C
  8
242
  6
CONTINUOUS
 10
48.019300000000001
 20
-14.632300000000001
 30
0.0
 70
    32
  0
VERTEX
  5
1D2D
  8
242
  6
CONTINUOUS
 10
48.043300000000002
 20
-14.4946
 30
0.0
 70
    32
  0
VERTEX
  5
1D2E
  8
242
  6
CONTINUOUS
 10
48.076900000000002
 20
-14.357799999999999
 30
0.0
 70
    32
  0
VERTEX
  5
1D2F
  8
242
  6
CONTINUOUS
 10
48.119900000000001
 20
-14.222300000000001
 30
0.0
 70
    32
  0
VERTEX
  5
1D30
  8
242
  6
CONTINUOUS
 10
48.172199999999982
 20
-14.0885
 30
0.0
 70
    32
  0
VERTEX
  5
1D31
  8
242
  6
CONTINUOUS
 10
48.233800000000002
 20
-13.9567
 30
0.0
 70
    32
  0
VERTEX
  5
1D32
  8
242
  6
CONTINUOUS
 10
48.30449999999999
 20
-13.827199999999999
 30
0.0
 70
    32
  0
VERTEX
  5
1D33
  8
242
  6
CONTINUOUS
 10
48.384
 20
-13.7003
 30
0.0
 70
    32
  0
VERTEX
  5
1D34
  8
242
  6
CONTINUOUS
 10
48.47229999999999
 20
-13.5763
 30
0.0
 70
    32
  0
VERTEX
  5
1D35
  8
242
  6
CONTINUOUS
 10
48.569099999999999
 20
-13.455500000000001
 30
0.0
 70
    32
  0
VERTEX
  5
1D36
  8
242
  6
CONTINUOUS
 10
48.674100000000003
 20
-13.338200000000001
 30
0.0
 70
    32
  0
VERTEX
  5
1D37
  8
242
  6
CONTINUOUS
 10
48.787199999999999
 20
-13.2247
 30
0.0
 70
    32
  0
VERTEX
  5
1D38
  8
242
  6
CONTINUOUS
 10
48.908000000000001
 20
-13.1152
 30
0.0
 70
    32
  0
VERTEX
  5
1D39
  8
242
  6
CONTINUOUS
 10
49.036200000000001
 20
-13.0101
 30
0.0
 70
    32
  0
VERTEX
  5
1D3A
  8
242
  6
CONTINUOUS
 10
49.171599999999991
 20
-12.909599999999999
 30
0.0
 70
    32
  0
VERTEX
  5
1D3B
  8
242
  6
CONTINUOUS
 10
49.313800000000001
 20
-12.8139
 30
0.0
 70
    32
  0
VERTEX
  5
1D3C
  8
242
  6
CONTINUOUS
 10
49.462400000000002
 20
-12.7232
 30
0.0
 70
    32
  0
VERTEX
  5
1D3D
  8
242
  6
CONTINUOUS
 10
49.61719999999999
 20
-12.6378
 30
0.0
 70
    32
  0
VERTEX
  5
1D3E
  8
242
  6
CONTINUOUS
 10
49.777700000000003
 20
-12.5578
 30
0.0
 70
    32
  0
VERTEX
  5
1D3F
  8
242
  6
CONTINUOUS
 10
49.943600000000004
 20
-12.483599999999999
 30
0.0
 70
    32
  0
VERTEX
  5
1D40
  8
242
  6
CONTINUOUS
 10
50.114400000000003
 20
-12.415100000000001
 30
0.0
 70
    32
  0
VERTEX
  5
1D41
  8
242
  6
CONTINUOUS
 10
50.2898
 20
-12.3527
 30
0.0
 70
    32
  0
VERTEX
  5
1D42
  8
242
  6
CONTINUOUS
 10
50.46929999999999
 20
-12.2965
 30
0.0
 70
    32
  0
VERTEX
  5
1D43
  8
242
  6
CONTINUOUS
 10
50.6524
 20
-12.246499999999999
 30
0.0
 70
    32
  0
VERTEX
  5
1D44
  8
242
  6
CONTINUOUS
 10
50.838900000000002
 20
-12.2029
 30
0.0
 70
    32
  0
VERTEX
  5
1D45
  8
242
  6
CONTINUOUS
 10
51.028100000000002
 20
-12.165900000000001
 30
0.0
 70
    32
  0
VERTEX
  5
1D46
  8
242
  6
CONTINUOUS
 10
51.2196
 20
-12.1355
 30
0.0
 70
    32
  0
VERTEX
  5
1D47
  8
242
  6
CONTINUOUS
 10
51.4131
 20
-12.111800000000001
 30
0.0
 70
    32
  0
VERTEX
  5
1D48
  8
242
  6
CONTINUOUS
 10
51.607900000000001
 20
-12.094799999999999
 30
0.0
 70
    32
  0
VERTEX
  5
1D49
  8
242
  6
CONTINUOUS
 10
51.803699999999992
 20
-12.0846
 30
0.0
 70
    32
  0
VERTEX
  5
1D4A
  8
242
  6
CONTINUOUS
 10
52.0
 20
-12.081200000000001
 30
0.0
 70
    32
  0
VERTEX
  5
1D4B
  8
242
  6
CONTINUOUS
 10
52.196300000000001
 20
-12.0846
 30
0.0
 70
    32
  0
VERTEX
  5
1D4C
  8
242
  6
CONTINUOUS
 10
52.392099999999992
 20
-12.094799999999999
 30
0.0
 70
    32
  0
VERTEX
  5
1D4D
  8
242
  6
CONTINUOUS
 10
52.5869
 20
-12.111800000000001
 30
0.0
 70
    32
  0
VERTEX
  5
1D4E
  8
242
  6
CONTINUOUS
 10
52.7804
 20
-12.1355
 30
0.0
 70
    32
  0
VERTEX
  5
1D4F
  8
242
  6
CONTINUOUS
 10
52.971899999999998
 20
-12.165900000000001
 30
0.0
 70
    32
  0
VERTEX
  5
1D50
  8
242
  6
CONTINUOUS
 10
53.161099999999998
 20
-12.2029
 30
0.0
 70
    32
  0
VERTEX
  5
1D51
  8
242
  6
CONTINUOUS
 10
53.3476
 20
-12.246499999999999
 30
0.0
 70
    32
  0
VERTEX
  5
1D52
  8
242
  6
CONTINUOUS
 10
53.530700000000003
 20
-12.2965
 30
0.0
 70
    32
  0
VERTEX
  5
1D53
  8
242
  6
CONTINUOUS
 10
53.7102
 20
-12.3527
 30
0.0
 70
    32
  0
VERTEX
  5
1D54
  8
242
  6
CONTINUOUS
 10
53.885599999999997
 20
-12.415100000000001
 30
0.0
 70
    32
  0
VERTEX
  5
1D55
  8
242
  6
CONTINUOUS
 10
54.056399999999996
 20
-12.483599999999999
 30
0.0
 70
    32
  0
VERTEX
  5
1D56
  8
242
  6
CONTINUOUS
 10
54.222299999999983
 20
-12.5578
 30
0.0
 70
    32
  0
VERTEX
  5
1D57
  8
242
  6
CONTINUOUS
 10
54.382800000000003
 20
-12.6378
 30
0.0
 70
    32
  0
VERTEX
  5
1D58
  8
242
  6
CONTINUOUS
 10
54.537599999999991
 20
-12.7232
 30
0.0
 70
    32
  0
VERTEX
  5
1D59
  8
242
  6
CONTINUOUS
 10
54.686199999999999
 20
-12.8139
 30
0.0
 70
    32
  0
VERTEX
  5
1D5A
  8
242
  6
CONTINUOUS
 10
54.828400000000002
 20
-12.909599999999999
 30
0.0
 70
    32
  0
VERTEX
  5
1D5B
  8
242
  6
CONTINUOUS
 10
54.963799999999999
 20
-13.0101
 30
0.0
 70
    32
  0
VERTEX
  5
1D5C
  8
242
  6
CONTINUOUS
 10
55.091999999999992
 20
-13.1152
 30
0.0
 70
    32
  0
VERTEX
  5
1D5D
  8
242
  6
CONTINUOUS
 10
55.212800000000001
 20
-13.2247
 30
0.0
 70
    32
  0
VERTEX
  5
1D5E
  8
242
  6
CONTINUOUS
 10
55.32589999999999
 20
-13.338200000000001
 30
0.0
 70
    32
  0
VERTEX
  5
1D5F
  8
242
  6
CONTINUOUS
 10
55.430900000000001
 20
-13.455500000000001
 30
0.0
 70
    32
  0
VERTEX
  5
1D60
  8
242
  6
CONTINUOUS
 10
55.527700000000003
 20
-13.5763
 30
0.0
 70
    32
  0
VERTEX
  5
1D61
  8
242
  6
CONTINUOUS
 10
55.616000000000007
 20
-13.7003
 30
0.0
 70
    32
  0
VERTEX
  5
1D62
  8
242
  6
CONTINUOUS
 10
55.695500000000003
 20
-13.827199999999999
 30
0.0
 70
    32
  0
VERTEX
  5
1D63
  8
242
  6
CONTINUOUS
 10
55.766199999999998
 20
-13.9567
 30
0.0
 70
    32
  0
VERTEX
  5
1D64
  8
242
  6
CONTINUOUS
 10
55.827800000000003
 20
-14.0885
 30
0.0
 70
    32
  0
VERTEX
  5
1D65
  8
242
  6
CONTINUOUS
 10
55.880099999999999
 20
-14.222300000000001
 30
0.0
 70
    32
  0
VERTEX
  5
1D66
  8
242
  6
CONTINUOUS
 10
55.923099999999998
 20
-14.357799999999999
 30
0.0
 70
    32
  0
VERTEX
  5
1D67
  8
242
  6
CONTINUOUS
 10
55.956699999999998
 20
-14.4946
 30
0.0
 70
    32
  0
VERTEX
  5
1D68
  8
242
  6
CONTINUOUS
 10
55.980699999999992
 20
-14.632300000000001
 30
0.0
 70
    32
  0
VERTEX
  5
1D69
  8
242
  6
CONTINUOUS
 10
55.995199999999997
 20
-14.770799999999999
 30
0.0
 70
    32
  0
VERTEX
  5
1D6A
  8
242
  6
CONTINUOUS
 10
56.0
 20
-14.909599999999999
 30
0.0
 70
    32
  0
SEQEND
  5
1D6B
  8
242
  6
CONTINUOUS
  0
POLYLINE
  5
1D6C
  8
241
  6
CONTINUOUS
 66
     1
 10
0.0
 20
0.0
 30
0.0
 70
     8
  0
VERTEX
  5
1D6D
  8
241
  6
CONTINUOUS
 10
48.625
 20
-14.9947
 30
0.0
 70
    32
  0
VERTEX
  5
1D6E
  8
241
  6
CONTINUOUS
 10
48.629100000000001
 20
-14.877599999999999
 30
0.0
 70
    32
  0
VERTEX
  5
1D6F
  8
241
  6
CONTINUOUS
 10
48.641300000000001
 20
-14.7608
 30
0.0
 70
    32
  0
VERTEX
  5
1D70
  8
241
  6
CONTINUOUS
 10
48.661499999999997
 20
-14.644500000000001
 30
0.0
 70
    32
  0
VERTEX
  5
1D71
  8
241
  6
CONTINUOUS
 10
48.689799999999998
 20
-14.5291
 30
0.0
 70
    32
  0
VERTEX
  5
1D72
  8
241
  6
CONTINUOUS
 10
48.726100000000002
 20
-14.4148
 30
0.0
 70
    32
  0
VERTEX
  5
1D73
  8
241
  6
CONTINUOUS
 10
48.770299999999999
 20
-14.3019
 30
0.0
 70
    32
  0
VERTEX
  5
1D74
  8
241
  6
CONTINUOUS
 10
48.822299999999991
 20
-14.1907
 30
0.0
 70
    32
  0
VERTEX
  5
1D75
  8
241
  6
CONTINUOUS
 10
48.881900000000002
 20
-14.0814
 30
0.0
 70
    32
  0
VERTEX
  5
1D76
  8
241
  6
CONTINUOUS
 10
48.948999999999991
 20
-13.974299999999999
 30
0.0
 70
    32
  0
VERTEX
  5
1D77
  8
241
  6
CONTINUOUS
 10
49.023499999999999
 20
-13.8697
 30
0.0
 70
    32
  0
VERTEX
  5
1D78
  8
241
  6
CONTINUOUS
 10
49.105200000000004
 20
-13.767799999999999
 30
0.0
 70
    32
  0
VERTEX
  5
1D79
  8
241
  6
CONTINUOUS
 10
49.193800000000003
 20
-13.668799999999999
 30
0.0
 70
    32
  0
VERTEX
  5
1D7A
  8
241
  6
CONTINUOUS
 10
49.289200000000001
 20
-13.5731
 30
0.0
 70
    32
  0
VERTEX
  5
1D7B
  8
241
  6
CONTINUOUS
 10
49.391100000000002
 20
-13.480700000000001
 30
0.0
 70
    32
  0
VERTEX
  5
1D7C
  8
241
  6
CONTINUOUS
 10
49.499299999999998
 20
-13.391999999999999
 30
0.0
 70
    32
  0
VERTEX
  5
1D7D
  8
241
  6
CONTINUOUS
 10
49.613500000000002
 20
-13.3072
 30
0.0
 70
    32
  0
VERTEX
  5
1D7E
  8
241
  6
CONTINUOUS
 10
49.733499999999992
 20
-13.2264
 30
0.0
 70
    32
  0
VERTEX
  5
1D7F
  8
241
  6
CONTINUOUS
 10
49.858899999999998
 20
-13.149900000000001
 30
0.0
 70
    32
  0
VERTEX
  5
1D80
  8
241
  6
CONTINUOUS
 10
49.9895
 20
-13.0779
 30
0.0
 70
    32
  0
VERTEX
  5
1D81
  8
241
  6
CONTINUOUS
 10
50.125
 20
-13.010400000000001
 30
0.0
 70
    32
  0
VERTEX
  5
1D82
  8
241
  6
CONTINUOUS
 10
50.26489999999999
 20
-12.947699999999999
 30
0.0
 70
    32
  0
VERTEX
  5
1D83
  8
241
  6
CONTINUOUS
 10
50.408999999999999
 20
-12.890000000000001
 30
0.0
 70
    32
  0
VERTEX
  5
1D84
  8
241
  6
CONTINUOUS
 10
50.557000000000002
 20
-12.837300000000001
 30
0.0
 70
    32
  0
VERTEX
  5
1D85
  8
241
  6
CONTINUOUS
 10
50.708399999999997
 20
-12.789899999999999
 30
0.0
 70
    32
  0
VERTEX
  5
1D86
  8
241
  6
CONTINUOUS
 10
50.863
 20
-12.7477
 30
0.0
 70
    32
  0
VERTEX
  5
1D87
  8
241
  6
CONTINUOUS
 10
51.020299999999999
 20
-12.711
 30
0.0
 70
    32
  0
VERTEX
  5
1D88
  8
241
  6
CONTINUOUS
 10
51.179900000000004
 20
-12.6797
 30
0.0
 70
    32
  0
VERTEX
  5
1D89
  8
241
  6
CONTINUOUS
 10
51.3416
 20
-12.6541
 30
0.0
 70
    32
  0
VERTEX
  5
1D8A
  8
241
  6
CONTINUOUS
 10
51.504800000000003
 20
-12.634
 30
0.0
 70
    32
  0
VERTEX
  5
1D8B
  8
241
  6
CONTINUOUS
 10
51.669199999999996
 20
-12.6197
 30
0.0
 70
    32
  0
VERTEX
  5
1D8C
  8
241
  6
CONTINUOUS
 10
51.834400000000002
 20
-12.6111
 30
0.0
 70
    32
  0
VERTEX
  5
1D8D
  8
241
  6
CONTINUOUS
 10
52.0
 20
-12.6082
 30
0.0
 70
    32
  0
VERTEX
  5
1D8E
  8
241
  6
CONTINUOUS
 10
52.165599999999998
 20
-12.6111
 30
0.0
 70
    32
  0
VERTEX
  5
1D8F
  8
241
  6
CONTINUOUS
 10
52.330800000000011
 20
-12.6197
 30
0.0
 70
    32
  0
VERTEX
  5
1D90
  8
241
  6
CONTINUOUS
 10
52.495199999999997
 20
-12.634
 30
0.0
 70
    32
  0
VERTEX
  5
1D91
  8
241
  6
CONTINUOUS
 10
52.6584
 20
-12.6541
 30
0.0
 70
    32
  0
VERTEX
  5
1D92
  8
241
  6
CONTINUOUS
 10
52.820099999999989
 20
-12.6797
 30
0.0
 70
    32
  0
VERTEX
  5
1D93
  8
241
  6
CONTINUOUS
 10
52.979700000000001
 20
-12.711
 30
0.0
 70
    32
  0
VERTEX
  5
1D94
  8
241
  6
CONTINUOUS
 10
53.137
 20
-12.7477
 30
0.0
 70
    32
  0
VERTEX
  5
1D95
  8
241
  6
CONTINUOUS
 10
53.291600000000003
 20
-12.789899999999999
 30
0.0
 70
    32
  0
VERTEX
  5
1D96
  8
241
  6
CONTINUOUS
 10
53.442999999999998
 20
-12.837300000000001
 30
0.0
 70
    32
  0
VERTEX
  5
1D97
  8
241
  6
CONTINUOUS
 10
53.591000000000001
 20
-12.890000000000001
 30
0.0
 70
    32
  0
VERTEX
  5
1D98
  8
241
  6
CONTINUOUS
 10
53.735100000000003
 20
-12.947699999999999
 30
0.0
 70
    32
  0
VERTEX
  5
1D99
  8
241
  6
CONTINUOUS
 10
53.875
 20
-13.010400000000001
 30
0.0
 70
    32
  0
VERTEX
  5
1D9A
  8
241
  6
CONTINUOUS
 10
54.0105
 20
-13.0779
 30
0.0
 70
    32
  0
VERTEX
  5
1D9B
  8
241
  6
CONTINUOUS
 10
54.141100000000002
 20
-13.149900000000001
 30
0.0
 70
    32
  0
VERTEX
  5
1D9C
  8
241
  6
CONTINUOUS
 10
54.266500000000001
 20
-13.2264
 30
0.0
 70
    32
  0
VERTEX
  5
1D9D
  8
241
  6
CONTINUOUS
 10
54.386499999999991
 20
-13.3072
 30
0.0
 70
    32
  0
VERTEX
  5
1D9E
  8
241
  6
CONTINUOUS
 10
54.500700000000002
 20
-13.391999999999999
 30
0.0
 70
    32
  0
VERTEX
  5
1D9F
  8
241
  6
CONTINUOUS
 10
54.608899999999998
 20
-13.480700000000001
 30
0.0
 70
    32
  0
VERTEX
  5
1DA0
  8
241
  6
CONTINUOUS
 10
54.710799999999999
 20
-13.5731
 30
0.0
 70
    32
  0
VERTEX
  5
1DA1
  8
241
  6
CONTINUOUS
 10
54.806199999999997
 20
-13.668799999999999
 30
0.0
 70
    32
  0
VERTEX
  5
1DA2
  8
241
  6
CONTINUOUS
 10
54.894799999999996
 20
-13.767799999999999
 30
0.0
 70
    32
  0
VERTEX
  5
1DA3
  8
241
  6
CONTINUOUS
 10
54.976500000000001
 20
-13.8697
 30
0.0
 70
    32
  0
VERTEX
  5
1DA4
  8
241
  6
CONTINUOUS
 10
55.051000000000002
 20
-13.974299999999999
 30
0.0
 70
    32
  0
VERTEX
  5
1DA5
  8
241
  6
CONTINUOUS
 10
55.118099999999998
 20
-14.0814
 30
0.0
 70
    32
  0
VERTEX
  5
1DA6
  8
241
  6
CONTINUOUS
 10
55.177700000000002
 20
-14.1907
 30
0.0
 70
    32
  0
VERTEX
  5
1DA7
  8
241
  6
CONTINUOUS
 10
55.229700000000001
 20
-14.3019
 30
0.0
 70
    32
  0
VERTEX
  5
1DA8
  8
241
  6
CONTINUOUS
 10
55.273899999999998
 20
-14.4148
 30
0.0
 70
    32
  0
VERTEX
  5
1DA9
  8
241
  6
CONTINUOUS
 10
55.310200000000002
 20
-14.5291
 30
0.0
 70
    32
  0
VERTEX
  5
1DAA
  8
241
  6
CONTINUOUS
 10
55.33850000000001
 20
-14.644500000000001
 30
0.0
 70
    32
  0
VERTEX
  5
1DAB
  8
241
  6
CONTINUOUS
 10
55.358699999999999
 20
-14.7608
 30
0.0
 70
    32
  0
VERTEX
  5
1DAC
  8
241
  6
CONTINUOUS
 10
55.370899999999999
 20
-14.877599999999999
 30
0.0
 70
    32
  0
VERTEX
  5
1DAD
  8
241
  6
CONTINUOUS
 10
55.375
 20
-14.9947
 30
0.0
 70
    32
  0
VERTEX
  5
1DAE
  8
241
  6
CONTINUOUS
 10
55.370899999999999
 20
-15.111800000000001
 30
0.0
 70
    32
  0
VERTEX
  5
1DAF
  8
241
  6
CONTINUOUS
 10
55.358699999999999
 20
-15.2286
 30
0.0
 70
    32
  0
VERTEX
  5
1DB0
  8
241
  6
CONTINUOUS
 10
55.33850000000001
 20
-15.344900000000001
 30
0.0
 70
    32
  0
VERTEX
  5
1DB1
  8
241
  6
CONTINUOUS
 10
55.310200000000002
 20
-15.4603
 30
0.0
 70
    32
  0
VERTEX
  5
1DB2
  8
241
  6
CONTINUOUS
 10
55.273899999999998
 20
-15.5746
 30
0.0
 70
    32
  0
VERTEX
  5
1DB3
  8
241
  6
CONTINUOUS
 10
55.229700000000001
 20
-15.6875
 30
0.0
 70
    32
  0
VERTEX
  5
1DB4
  8
241
  6
CONTINUOUS
 10
55.177700000000002
 20
-15.7987
 30
0.0
 70
    32
  0
VERTEX
  5
1DB5
  8
241
  6
CONTINUOUS
 10
55.118099999999998
 20
-15.907999999999999
 30
0.0
 70
    32
  0
VERTEX
  5
1DB6
  8
241
  6
CONTINUOUS
 10
55.051000000000002
 20
-16.0151
 30
0.0
 70
    32
  0
VERTEX
  5
1DB7
  8
241
  6
CONTINUOUS
 10
54.976500000000001
 20
-16.119700000000002
 30
0.0
 70
    32
  0
VERTEX
  5
1DB8
  8
241
  6
CONTINUOUS
 10
54.894799999999996
 20
-16.221599999999999
 30
0.0
 70
    32
  0
VERTEX
  5
1DB9
  8
241
  6
CONTINUOUS
 10
54.806199999999997
 20
-16.320599999999999
 30
0.0
 70
    32
  0
VERTEX
  5
1DBA
  8
241
  6
CONTINUOUS
 10
54.710799999999999
 20
-16.4163
 30
0.0
 70
    32
  0
VERTEX
  5
1DBB
  8
241
  6
CONTINUOUS
 10
54.608899999999998
 20
-16.508700000000001
 30
0.0
 70
    32
  0
VERTEX
  5
1DBC
  8
241
  6
CONTINUOUS
 10
54.500700000000002
 20
-16.5974
 30
0.0
 70
    32
  0
VERTEX
  5
1DBD
  8
241
  6
CONTINUOUS
 10
54.386499999999991
 20
-16.682200000000002
 30
0.0
 70
    32
  0
VERTEX
  5
1DBE
  8
241
  6
CONTINUOUS
 10
54.266500000000001
 20
-16.763000000000002
 30
0.0
 70
    32
  0
VERTEX
  5
1DBF
  8
241
  6
CONTINUOUS
 10
54.141100000000002
 20
-16.839500000000001
 30
0.0
 70
    32
  0
VERTEX
  5
1DC0
  8
241
  6
CONTINUOUS
 10
54.0105
 20
-16.9115
 30
0.0
 70
    32
  0
VERTEX
  5
1DC1
  8
241
  6
CONTINUOUS
 10
53.875
 20
-16.978999999999999
 30
0.0
 70
    32
  0
VERTEX
  5
1DC2
  8
241
  6
CONTINUOUS
 10
53.735100000000003
 20
-17.041699999999999
 30
0.0
 70
    32
  0
VERTEX
  5
1DC3
  8
241
  6
CONTINUOUS
 10
53.591000000000001
 20
-17.099399999999999
 30
0.0
 70
    32
  0
VERTEX
  5
1DC4
  8
241
  6
CONTINUOUS
 10
53.442999999999998
 20
-17.152100000000001
 30
0.0
 70
    32
  0
VERTEX
  5
1DC5
  8
241
  6
CONTINUOUS
 10
53.291600000000003
 20
-17.1995
 30
0.0
 70
    32
  0
VERTEX
  5
1DC6
  8
241
  6
CONTINUOUS
 10
53.137
 20
-17.241700000000002
 30
0.0
 70
    32
  0
VERTEX
  5
1DC7
  8
241
  6
CONTINUOUS
 10
52.979700000000001
 20
-17.278400000000001
 30
0.0
 70
    32
  0
VERTEX
  5
1DC8
  8
241
  6
CONTINUOUS
 10
52.820099999999989
 20
-17.309699999999999
 30
0.0
 70
    32
  0
VERTEX
  5
1DC9
  8
241
  6
CONTINUOUS
 10
52.6584
 20
-17.3353
 30
0.0
 70
    32
  0
VERTEX
  5
1DCA
  8
241
  6
CONTINUOUS
 10
52.495199999999997
 20
-17.355399999999999
 30
0.0
 70
    32
  0
VERTEX
  5
1DCB
  8
241
  6
CONTINUOUS
 10
52.330800000000011
 20
-17.369700000000002
 30
0.0
 70
    32
  0
VERTEX
  5
1DCC
  8
241
  6
CONTINUOUS
 10
52.165599999999998
 20
-17.378299999999999
 30
0.0
 70
    32
  0
VERTEX
  5
1DCD
  8
241
  6
CONTINUOUS
 10
52.0
 20
-17.3812
 30
0.0
 70
    32
  0
VERTEX
  5
1DCE
  8
241
  6
CONTINUOUS
 10
51.834400000000002
 20
-17.378299999999999
 30
0.0
 70
    32
  0
VERTEX
  5
1DCF
  8
241
  6
CONTINUOUS
 10
51.669199999999996
 20
-17.369700000000002
 30
0.0
 70
    32
  0
VERTEX
  5
1DD0
  8
241
  6
CONTINUOUS
 10
51.504800000000003
 20
-17.355399999999999
 30
0.0
 70
    32
  0
VERTEX
  5
1DD1
  8
241
  6
CONTINUOUS
 10
51.3416
 20
-17.3353
 30
0.0
 70
    32
  0
VERTEX
  5
1DD2
  8
241
  6
CONTINUOUS
 10
51.179900000000004
 20
-17.309699999999999
 30
0.0
 70
    32
  0
VERTEX
  5
1DD3
  8
241
  6
CONTINUOUS
 10
51.020299999999999
 20
-17.278400000000001
 30
0.0
 70
    32
  0
VERTEX
  5
1DD4
  8
241
  6
CONTINUOUS
 10
50.863
 20
-17.241700000000002
 30
0.0
 70
    32
  0
VERTEX
  5
1DD5
  8
241
  6
CONTINUOUS
 10
50.708399999999997
 20
-17.1995
 30
0.0
 70
    32
  0
VERTEX
  5
1DD6
  8
241
  6
CONTINUOUS
 10
50.557000000000002
 20
-17.152100000000001
 30
0.0
 70
    32
  0
VERTEX
  5
1DD7
  8
241
  6
CONTINUOUS
 10
50.408999999999999
 20
-17.099399999999999
 30
0.0
 70
    32
  0
VERTEX
  5
1DD8
  8
241
  6
CONTINUOUS
 10
50.26489999999999
 20
-17.041699999999999
 30
0.0
 70
    32
  0
VERTEX
  5
1DD9
  8
241
  6
CONTINUOUS
 10
50.125
 20
-16.978999999999999
 30
0.0
 70
    32
  0
VERTEX
  5
1DDA
  8
241
  6
CONTINUOUS
 10
49.9895
 20
-16.9115
 30
0.0
 70
    32
  0
VERTEX
  5
1DDB
  8
241
  6
CONTINUOUS
 10
49.858899999999998
 20
-16.839500000000001
 30
0.0
 70
    32
  0
VERTEX
  5
1DDC
  8
241
  6
CONTINUOUS
 10
49.733499999999992
 20
-16.763000000000002
 30
0.0
 70
    32
  0
VERTEX
  5
1DDD
  8
241
  6
CONTINUOUS
 10
49.613500000000002
 20
-16.682200000000002
 30
0.0
 70
    32
  0
VERTEX
  5
1DDE
  8
241
  6
CONTINUOUS
 10
49.499299999999998
 20
-16.5974
 30
0.0
 70
    32
  0
VERTEX
  5
1DDF
  8
241
  6
CONTINUOUS
 10
49.391100000000002
 20
-16.508700000000001
 30
0.0
 70
    32
  0
VERTEX
  5
1DE0
  8
241
  6
CONTINUOUS
 10
49.289200000000001
 20
-16.4163
 30
0.0
 70
    32
  0
VERTEX
  5
1DE1
  8
241
  6
CONTINUOUS
 10
49.193800000000003
 20
-16.320599999999999
 30
0.0
 70
    32
  0
VERTEX
  5
1DE2
  8
241
  6
CONTINUOUS
 10
49.105200000000004
 20
-16.221599999999999
 30
0.0
 70
    32
  0
VERTEX
  5
1DE3
  8
241
  6
CONTINUOUS
 10
49.023499999999999
 20
-16.119700000000002
 30
0.0
 70
    32
  0
VERTEX
  5
1DE4
  8
241
  6
CONTINUOUS
 10
48.948999999999991
 20
-16.0151
 30
0.0
 70
    32
  0
VERTEX
  5
1DE5
  8
241
  6
CONTINUOUS
 10
48.881900000000002
 20
-15.907999999999999
 30
0.0
 70
    32
  0
VERTEX
  5
1DE6
  8
241
  6
CONTINUOUS
 10
48.822299999999991
 20
-15.7987
 30
0.0
 70
    32
  0
VERTEX
  5
1DE7
  8
241
  6
CONTINUOUS
 10
48.770299999999999
 20
-15.6875
 30
0.0
 70
    32
  0
VERTEX
  5
1DE8
  8
241
  6
CONTINUOUS
 10
48.726100000000002
 20
-15.5746
 30
0.0
 70
    32
  0
VERTEX
  5
1DE9
  8
241
  6
CONTINUOUS
 10
48.689799999999998
 20
-15.4603
 30
0.0
 70
    32
  0
VERTEX
  5
1DEA
  8
241
  6
CONTINUOUS
 10
48.661499999999997
 20
-15.344900000000001
 30
0.0
 70
    32
  0
VERTEX
  5
1DEB
  8
241
  6
CONTINUOUS
 10
48.641300000000001
 20
-15.2286
 30
0.0
 70
    32
  0
VERTEX
  5
1DEC
  8
241
  6
CONTINUOUS
 10
48.629100000000001
 20
-15.111800000000001
 30
0.0
 70
    32
  0
VERTEX
  5
1DED
  8
241
  6
CONTINUOUS
 10
48.625
 20
-14.9947
 30
0.0
 70
    32
  0
SEQEND
  5
1DEE
  8
241
  6
CONTINUOUS
  0
LINE
  5
1DEF
  8
245
  6
CENTER2
 10
47.999999999998181
 20
-15.20279579551015
 30
0.0
 11
55.999999999998181
 21
-15.202795795509701
 31
0.0
  0
LINE
  5
1DF0
  8
245
  6
CENTER2
 10
51.999999999996362
 20
-12.08115601389227
 30
0.0
 11
52.0
 21
-17.738010263384691
 31
0.0
  0
LINE
  5
1DF1
  8
241
  6
CONTINUOUS
 10
43.399999999950523
 20
-21.499999999998639
 30
0.0
 11
43.399999999950523
 21
21.499999999998629
 31
0.0
  0
POLYLINE
  5
1DF3
  8
242
  6
CONTINUOUS
 66
     1
 10
0.0
 20
0.0
 30
0.0
 70
     8
  0
VERTEX
  5
1DF4
  8
242
  6
CONTINUOUS
 10
56.0
 20
14.909599999999999
 30
0.0
 70
    32
  0
VERTEX
  5
1DF5
  8
242
  6
CONTINUOUS
 10
55.995199999999997
 20
15.048400000000001
 30
0.0
 70
    32
  0
VERTEX
  5
1DF6
  8
242
  6
CONTINUOUS
 10
55.980699999999992
 20
15.1868
 30
0.0
 70
    32
  0
VERTEX
  5
1DF7
  8
242
  6
CONTINUOUS
 10
55.956699999999998
 20
15.3246
 30
0.0
 70
    32
  0
VERTEX
  5
1DF8
  8
242
  6
CONTINUOUS
 10
55.923099999999998
 20
15.461399999999999
 30
0.0
 70
    32
  0
VERTEX
  5
1DF9
  8
242
  6
CONTINUOUS
 10
55.880099999999999
 20
15.5968
 30
0.0
 70
    32
  0
VERTEX
  5
1DFA
  8
242
  6
CONTINUOUS
 10
55.827800000000003
 20
15.730600000000001
 30
0.0
 70
    32
  0
VERTEX
  5
1DFB
  8
242
  6
CONTINUOUS
 10
55.766199999999998
 20
15.862500000000001
 30
0.0
 70
    32
  0
VERTEX
  5
1DFC
  8
242
  6
CONTINUOUS
 10
55.695500000000003
 20
15.992000000000001
 30
0.0
 70
    32
  0
VERTEX
  5
1DFD
  8
242
  6
CONTINUOUS
 10
55.616000000000007
 20
16.1189
 30
0.0
 70
    32
  0
VERTEX
  5
1DFE
  8
242
  6
CONTINUOUS
 10
55.527700000000003
 20
16.242899999999999
 30
0.0
 70
    32
  0
VERTEX
  5
1DFF
  8
242
  6
CONTINUOUS
 10
55.430900000000001
 20
16.363700000000001
 30
0.0
 70
    32
  0
VERTEX
  5
1E00
  8
242
  6
CONTINUOUS
 10
55.32589999999999
 20
16.481000000000002
 30
0.0
 70
    32
  0
VERTEX
  5
1E01
  8
242
  6
CONTINUOUS
 10
55.212800000000001
 20
16.5945
 30
0.0
 70
    32
  0
VERTEX
  5
1E02
  8
242
  6
CONTINUOUS
 10
55.091999999999992
 20
16.703900000000001
 30
0.0
 70
    32
  0
VERTEX
  5
1E03
  8
242
  6
CONTINUOUS
 10
54.963799999999999
 20
16.809000000000001
 30
0.0
 70
    32
  0
VERTEX
  5
1E04
  8
242
  6
CONTINUOUS
 10
54.828400000000002
 20
16.909600000000001
 30
0.0
 70
    32
  0
VERTEX
  5
1E05
  8
242
  6
CONTINUOUS
 10
54.686199999999999
 20
17.005299999999998
 30
0.0
 70
    32
  0
VERTEX
  5
1E06
  8
242
  6
CONTINUOUS
 10
54.537599999999991
 20
17.096
 30
0.0
 70
    32
  0
VERTEX
  5
1E07
  8
242
  6
CONTINUOUS
 10
54.382800000000003
 20
17.1814
 30
0.0
 70
    32
  0
VERTEX
  5
1E08
  8
242
  6
CONTINUOUS
 10
54.222299999999983
 20
17.261299999999999
 30
0.0
 70
    32
  0
VERTEX
  5
1E09
  8
242
  6
CONTINUOUS
 10
54.056399999999996
 20
17.335599999999999
 30
0.0
 70
    32
  0
VERTEX
  5
1E0A
  8
242
  6
CONTINUOUS
 10
53.885599999999997
 20
17.404
 30
0.0
 70
    32
  0
VERTEX
  5
1E0B
  8
242
  6
CONTINUOUS
 10
53.7102
 20
17.4665
 30
0.0
 70
    32
  0
VERTEX
  5
1E0C
  8
242
  6
CONTINUOUS
 10
53.530700000000003
 20
17.5227
 30
0.0
 70
    32
  0
VERTEX
  5
1E0D
  8
242
  6
CONTINUOUS
 10
53.3476
 20
17.572700000000001
 30
0.0
 70
    32
  0
VERTEX
  5
1E0E
  8
242
  6
CONTINUOUS
 10
53.161099999999998
 20
17.616199999999999
 30
0.0
 70
    32
  0
VERTEX
  5
1E0F
  8
242
  6
CONTINUOUS
 10
52.971899999999998
 20
17.653199999999991
 30
0.0
 70
    32
  0
VERTEX
  5
1E10
  8
242
  6
CONTINUOUS
 10
52.7804
 20
17.683700000000002
 30
0.0
 70
    32
  0
VERTEX
  5
1E11
  8
242
  6
CONTINUOUS
 10
52.5869
 20
17.7074
 30
0.0
 70
    32
  0
VERTEX
  5
1E12
  8
242
  6
CONTINUOUS
 10
52.392099999999992
 20
17.724399999999999
 30
0.0
 70
    32
  0
VERTEX
  5
1E13
  8
242
  6
CONTINUOUS
 10
52.196300000000001
 20
17.7346
 30
0.0
 70
    32
  0
VERTEX
  5
1E14
  8
242
  6
CONTINUOUS
 10
52.0
 20
17.738
 30
0.0
 70
    32
  0
VERTEX
  5
1E15
  8
242
  6
CONTINUOUS
 10
51.803699999999992
 20
17.7346
 30
0.0
 70
    32
  0
VERTEX
  5
1E16
  8
242
  6
CONTINUOUS
 10
51.607900000000001
 20
17.724399999999999
 30
0.0
 70
    32
  0
VERTEX
  5
1E17
  8
242
  6
CONTINUOUS
 10
51.4131
 20
17.7074
 30
0.0
 70
    32
  0
VERTEX
  5
1E18
  8
242
  6
CONTINUOUS
 10
51.2196
 20
17.683700000000002
 30
0.0
 70
    32
  0
VERTEX
  5
1E19
  8
242
  6
CONTINUOUS
 10
51.028100000000002
 20
17.653199999999991
 30
0.0
 70
    32
  0
VERTEX
  5
1E1A
  8
242
  6
CONTINUOUS
 10
50.838900000000002
 20
17.616199999999999
 30
0.0
 70
    32
  0
VERTEX
  5
1E1B
  8
242
  6
CONTINUOUS
 10
50.6524
 20
17.572700000000001
 30
0.0
 70
    32
  0
VERTEX
  5
1E1C
  8
242
  6
CONTINUOUS
 10
50.46929999999999
 20
17.5227
 30
0.0
 70
    32
  0
VERTEX
  5
1E1D
  8
242
  6
CONTINUOUS
 10
50.2898
 20
17.4665
 30
0.0
 70
    32
  0
VERTEX
  5
1E1E
  8
242
  6
CONTINUOUS
 10
50.114400000000003
 20
17.404
 30
0.0
 70
    32
  0
VERTEX
  5
1E1F
  8
242
  6
CONTINUOUS
 10
49.943600000000004
 20
17.335599999999999
 30
0.0
 70
    32
  0
VERTEX
  5
1E20
  8
242
  6
CONTINUOUS
 10
49.777700000000003
 20
17.261299999999999
 30
0.0
 70
    32
  0
VERTEX
  5
1E21
  8
242
  6
CONTINUOUS
 10
49.61719999999999
 20
17.1814
 30
0.0
 70
    32
  0
VERTEX
  5
1E22
  8
242
  6
CONTINUOUS
 10
49.462400000000002
 20
17.096
 30
0.0
 70
    32
  0
VERTEX
  5
1E23
  8
242
  6
CONTINUOUS
 10
49.313800000000001
 20
17.005299999999998
 30
0.0
 70
    32
  0
VERTEX
  5
1E24
  8
242
  6
CONTINUOUS
 10
49.171599999999991
 20
16.909600000000001
 30
0.0
 70
    32
  0
VERTEX
  5
1E25
  8
242
  6
CONTINUOUS
 10
49.036200000000001
 20
16.809000000000001
 30
0.0
 70
    32
  0
VERTEX
  5
1E26
  8
242
  6
CONTINUOUS
 10
48.908000000000001
 20
16.703900000000001
 30
0.0
 70
    32
  0
VERTEX
  5
1E27
  8
242
  6
CONTINUOUS
 10
48.787199999999999
 20
16.5945
 30
0.0
 70
    32
  0
VERTEX
  5
1E28
  8
242
  6
CONTINUOUS
 10
48.674100000000003
 20
16.481000000000002
 30
0.0
 70
    32
  0
VERTEX
  5
1E29
  8
242
  6
CONTINUOUS
 10
48.569099999999999
 20
16.363700000000001
 30
0.0
 70
    32
  0
VERTEX
  5
1E2A
  8
242
  6
CONTINUOUS
 10
48.47229999999999
 20
16.242899999999999
 30
0.0
 70
    32
  0
VERTEX
  5
1E2B
  8
242
  6
CONTINUOUS
 10
48.384
 20
16.1189
 30
0.0
 70
    32
  0
VERTEX
  5
1E2C
  8
242
  6
CONTINUOUS
 10
48.30449999999999
 20
15.992000000000001
 30
0.0
 70
    32
  0
VERTEX
  5
1E2D
  8
242
  6
CONTINUOUS
 10
48.233800000000002
 20
15.862500000000001
 30
0.0
 70
    32
  0
VERTEX
  5
1E2E
  8
242
  6
CONTINUOUS
 10
48.172199999999982
 20
15.730600000000001
 30
0.0
 70
    32
  0
VERTEX
  5
1E2F
  8
242
  6
CONTINUOUS
 10
48.119900000000001
 20
15.5968
 30
0.0
 70
    32
  0
VERTEX
  5
1E30
  8
242
  6
CONTINUOUS
 10
48.076900000000002
 20
15.461399999999999
 30
0.0
 70
    32
  0
VERTEX
  5
1E31
  8
242
  6
CONTINUOUS
 10
48.043300000000002
 20
15.3246
 30
0.0
 70
    32
  0
VERTEX
  5
1E32
  8
242
  6
CONTINUOUS
 10
48.019300000000001
 20
15.1868
 30
0.0
 70
    32
  0
VERTEX
  5
1E33
  8
242
  6
CONTINUOUS
 10
48.004800000000003
 20
15.048400000000001
 30
0.0
 70
    32
  0
VERTEX
  5
1E34
  8
242
  6
CONTINUOUS
 10
48.0
 20
14.909599999999999
 30
0.0
 70
    32
  0
VERTEX
  5
1E35
  8
242
  6
CONTINUOUS
 10
48.004800000000003
 20
14.770799999999999
 30
0.0
 70
    32
  0
VERTEX
  5
1E36
  8
242
  6
CONTINUOUS
 10
48.019300000000001
 20
14.632300000000001
 30
0.0
 70
    32
  0
VERTEX
  5
1E37
  8
242
  6
CONTINUOUS
 10
48.043300000000002
 20
14.4946
 30
0.0
 70
    32
  0
VERTEX
  5
1E38
  8
242
  6
CONTINUOUS
 10
48.076900000000002
 20
14.357799999999999
 30
0.0
 70
    32
  0
VERTEX
  5
1E39
  8
242
  6
CONTINUOUS
 10
48.119900000000001
 20
14.222300000000001
 30
0.0
 70
    32
  0
VERTEX
  5
1E3A
  8
242
  6
CONTINUOUS
 10
48.172199999999982
 20
14.0885
 30
0.0
 70
    32
  0
VERTEX
  5
1E3B
  8
242
  6
CONTINUOUS
 10
48.233800000000002
 20
13.9567
 30
0.0
 70
    32
  0
VERTEX
  5
1E3C
  8
242
  6
CONTINUOUS
 10
48.30449999999999
 20
13.827199999999999
 30
0.0
 70
    32
  0
VERTEX
  5
1E3D
  8
242
  6
CONTINUOUS
 10
48.384
 20
13.7003
 30
0.0
 70
    32
  0
VERTEX
  5
1E3E
  8
242
  6
CONTINUOUS
 10
48.47229999999999
 20
13.5763
 30
0.0
 70
    32
  0
VERTEX
  5
1E3F
  8
242
  6
CONTINUOUS
 10
48.569099999999999
 20
13.455500000000001
 30
0.0
 70
    32
  0
VERTEX
  5
1E40
  8
242
  6
CONTINUOUS
 10
48.674100000000003
 20
13.338200000000001
 30
0.0
 70
    32
  0
VERTEX
  5
1E41
  8
242
  6
CONTINUOUS
 10
48.787199999999999
 20
13.2247
 30
0.0
 70
    32
  0
VERTEX
  5
1E42
  8
242
  6
CONTINUOUS
 10
48.908000000000001
 20
13.1152
 30
0.0
 70
    32
  0
VERTEX
  5
1E43
  8
242
  6
CONTINUOUS
 10
49.036200000000001
 20
13.0101
 30
0.0
 70
    32
  0
VERTEX
  5
1E44
  8
242
  6
CONTINUOUS
 10
49.171599999999991
 20
12.909599999999999
 30
0.0
 70
    32
  0
VERTEX
  5
1E45
  8
242
  6
CONTINUOUS
 10
49.313800000000001
 20
12.8139
 30
0.0
 70
    32
  0
VERTEX
  5
1E46
  8
242
  6
CONTINUOUS
 10
49.462400000000002
 20
12.7232
 30
0.0
 70
    32
  0
VERTEX
  5
1E47
  8
242
  6
CONTINUOUS
 10
49.61719999999999
 20
12.6378
 30
0.0
 70
    32
  0
VERTEX
  5
1E48
  8
242
  6
CONTINUOUS
 10
49.777700000000003
 20
12.5578
 30
0.0
 70
    32
  0
VERTEX
  5
1E49
  8
242
  6
CONTINUOUS
 10
49.943600000000004
 20
12.483599999999999
 30
0.0
 70
    32
  0
VERTEX
  5
1E4A
  8
242
  6
CONTINUOUS
 10
50.114400000000003
 20
12.415100000000001
 30
0.0
 70
    32
  0
VERTEX
  5
1E4B
  8
242
  6
CONTINUOUS
 10
50.2898
 20
12.3527
 30
0.0
 70
    32
  0
VERTEX
  5
1E4C
  8
242
  6
CONTINUOUS
 10
50.46929999999999
 20
12.2965
 30
0.0
 70
    32
  0
VERTEX
  5
1E4D
  8
242
  6
CONTINUOUS
 10
50.6524
 20
12.246499999999999
 30
0.0
 70
    32
  0
VERTEX
  5
1E4E
  8
242
  6
CONTINUOUS
 10
50.838900000000002
 20
12.2029
 30
0.0
 70
    32
  0
VERTEX
  5
1E4F
  8
242
  6
CONTINUOUS
 10
51.028100000000002
 20
12.165900000000001
 30
0.0
 70
    32
  0
VERTEX
  5
1E50
  8
242
  6
CONTINUOUS
 10
51.2196
 20
12.1355
 30
0.0
 70
    32
  0
VERTEX
  5
1E51
  8
242
  6
CONTINUOUS
 10
51.4131
 20
12.111800000000001
 30
0.0
 70
    32
  0
VERTEX
  5
1E52
  8
242
  6
CONTINUOUS
 10
51.607900000000001
 20
12.094799999999999
 30
0.0
 70
    32
  0
VERTEX
  5
1E53
  8
242
  6
CONTINUOUS
 10
51.803699999999992
 20
12.0846
 30
0.0
 70
    32
  0
VERTEX
  5
1E54
  8
242
  6
CONTINUOUS
 10
52.0
 20
12.081200000000001
 30
0.0
 70
    32
  0
VERTEX
  5
1E55
  8
242
  6
CONTINUOUS
 10
52.196300000000001
 20
12.0846
 30
0.0
 70
    32
  0
VERTEX
  5
1E56
  8
242
  6
CONTINUOUS
 10
52.392099999999992
 20
12.094799999999999
 30
0.0
 70
    32
  0
VERTEX
  5
1E57
  8
242
  6
CONTINUOUS
 10
52.5869
 20
12.111800000000001
 30
0.0
 70
    32
  0
VERTEX
  5
1E58
  8
242
  6
CONTINUOUS
 10
52.7804
 20
12.1355
 30
0.0
 70
    32
  0
VERTEX
  5
1E59
  8
242
  6
CONTINUOUS
 10
52.971899999999998
 20
12.165900000000001
 30
0.0
 70
    32
  0
VERTEX
  5
1E5A
  8
242
  6
CONTINUOUS
 10
53.161099999999998
 20
12.2029
 30
0.0
 70
    32
  0
VERTEX
  5
1E5B
  8
242
  6
CONTINUOUS
 10
53.3476
 20
12.246499999999999
 30
0.0
 70
    32
  0
VERTEX
  5
1E5C
  8
242
  6
CONTINUOUS
 10
53.530700000000003
 20
12.2965
 30
0.0
 70
    32
  0
VERTEX
  5
1E5D
  8
242
  6
CONTINUOUS
 10
53.7102
 20
12.3527
 30
0.0
 70
    32
  0
VERTEX
  5
1E5E
  8
242
  6
CONTINUOUS
 10
53.885599999999997
 20
12.415100000000001
 30
0.0
 70
    32
  0
VERTEX
  5
1E5F
  8
242
  6
CONTINUOUS
 10
54.056399999999996
 20
12.483599999999999
 30
0.0
 70
    32
  0
VERTEX
  5
1E60
  8
242
  6
CONTINUOUS
 10
54.222299999999983
 20
12.5578
 30
0.0
 70
    32
  0
VERTEX
  5
1E61
  8
242
  6
CONTINUOUS
 10
54.382800000000003
 20
12.6378
 30
0.0
 70
    32
  0
VERTEX
  5
1E62
  8
242
  6
CONTINUOUS
 10
54.537599999999991
 20
12.7232
 30
0.0
 70
    32
  0
VERTEX
  5
1E63
  8
242
  6
CONTINUOUS
 10
54.686199999999999
 20
12.8139
 30
0.0
 70
    32
  0
VERTEX
  5
1E64
  8
242
  6
CONTINUOUS
 10
54.828400000000002
 20
12.909599999999999
 30
0.0
 70
    32
  0
VERTEX
  5
1E65
  8
242
  6
CONTINUOUS
 10
54.963799999999999
 20
13.0101
 30
0.0
 70
    32
  0
VERTEX
  5
1E66
  8
242
  6
CONTINUOUS
 10
55.091999999999992
 20
13.1152
 30
0.0
 70
    32
  0
VERTEX
  5
1E67
  8
242
  6
CONTINUOUS
 10
55.212800000000001
 20
13.2247
 30
0.0
 70
    32
  0
VERTEX
  5
1E68
  8
242
  6
CONTINUOUS
 10
55.32589999999999
 20
13.338200000000001
 30
0.0
 70
    32
  0
VERTEX
  5
1E69
  8
242
  6
CONTINUOUS
 10
55.430900000000001
 20
13.455500000000001
 30
0.0
 70
    32
  0
VERTEX
  5
1E6A
  8
242
  6
CONTINUOUS
 10
55.527700000000003
 20
13.5763
 30
0.0
 70
    32
  0
VERTEX
  5
1E6B
  8
242
  6
CONTINUOUS
 10
55.616000000000007
 20
13.7003
 30
0.0
 70
    32
  0
VERTEX
  5
1E6C
  8
242
  6
CONTINUOUS
 10
55.695500000000003
 20
13.827199999999999
 30
0.0
 70
    32
  0
VERTEX
  5
1E6D
  8
242
  6
CONTINUOUS
 10
55.766199999999998
 20
13.9567
 30
0.0
 70
    32
  0
VERTEX
  5
1E6E
  8
242
  6
CONTINUOUS
 10
55.827800000000003
 20
14.0885
 30
0.0
 70
    32
  0
VERTEX
  5
1E6F
  8
242
  6
CONTINUOUS
 10
55.880099999999999
 20
14.222300000000001
 30
0.0
 70
    32
  0
VERTEX
  5
1E70
  8
242
  6
CONTINUOUS
 10
55.923099999999998
 20
14.357799999999999
 30
0.0
 70
    32
  0
VERTEX
  5
1E71
  8
242
  6
CONTINUOUS
 10
55.956699999999998
 20
14.4946
 30
0.0
 70
    32
  0
VERTEX
  5
1E72
  8
242
  6
CONTINUOUS
 10
55.980699999999992
 20
14.632300000000001
 30
0.0
 70
    32
  0
VERTEX
  5
1E73
  8
242
  6
CONTINUOUS
 10
55.995199999999997
 20
14.770799999999999
 30
0.0
 70
    32
  0
VERTEX
  5
1E74
  8
242
  6
CONTINUOUS
 10
56.0
 20
14.909599999999999
 30
0.0
 70
    32
  0
SEQEND
  5
1E75
  8
242
  6
CONTINUOUS
  0
POLYLINE
  5
1E76
  8
241
  6
CONTINUOUS
 66
     1
 10
0.0
 20
0.0
 30
0.0
 70
     8
  0
VERTEX
  5
1E77
  8
241
  6
CONTINUOUS
 10
48.625
 20
14.9947
 30
0.0
 70
    32
  0
VERTEX
  5
1E78
  8
241
  6
CONTINUOUS
 10
48.629100000000001
 20
14.877599999999999
 30
0.0
 70
    32
  0
VERTEX
  5
1E79
  8
241
  6
CONTINUOUS
 10
48.641300000000001
 20
14.7608
 30
0.0
 70
    32
  0
VERTEX
  5
1E7A
  8
241
  6
CONTINUOUS
 10
48.661499999999997
 20
14.644500000000001
 30
0.0
 70
    32
  0
VERTEX
  5
1E7B
  8
241
  6
CONTINUOUS
 10
48.689799999999998
 20
14.5291
 30
0.0
 70
    32
  0
VERTEX
  5
1E7C
  8
241
  6
CONTINUOUS
 10
48.726100000000002
 20
14.4148
 30
0.0
 70
    32
  0
VERTEX
  5
1E7D
  8
241
  6
CONTINUOUS
 10
48.770299999999999
 20
14.3019
 30
0.0
 70
    32
  0
VERTEX
  5
1E7E
  8
241
  6
CONTINUOUS
 10
48.822299999999991
 20
14.1907
 30
0.0
 70
    32
  0
VERTEX
  5
1E7F
  8
241
  6
CONTINUOUS
 10
48.881900000000002
 20
14.0814
 30
0.0
 70
    32
  0
VERTEX
  5
1E80
  8
241
  6
CONTINUOUS
 10
48.948999999999991
 20
13.974299999999999
 30
0.0
 70
    32
  0
VERTEX
  5
1E81
  8
241
  6
CONTINUOUS
 10
49.023499999999999
 20
13.8697
 30
0.0
 70
    32
  0
VERTEX
  5
1E82
  8
241
  6
CONTINUOUS
 10
49.105200000000004
 20
13.767799999999999
 30
0.0
 70
    32
  0
VERTEX
  5
1E83
  8
241
  6
CONTINUOUS
 10
49.193800000000003
 20
13.668799999999999
 30
0.0
 70
    32
  0
VERTEX
  5
1E84
  8
241
  6
CONTINUOUS
 10
49.289200000000001
 20
13.5731
 30
0.0
 70
    32
  0
VERTEX
  5
1E85
  8
241
  6
CONTINUOUS
 10
49.391100000000002
 20
13.480700000000001
 30
0.0
 70
    32
  0
VERTEX
  5
1E86
  8
241
  6
CONTINUOUS
 10
49.499299999999998
 20
13.391999999999999
 30
0.0
 70
    32
  0
VERTEX
  5
1E87
  8
241
  6
CONTINUOUS
 10
49.613500000000002
 20
13.3072
 30
0.0
 70
    32
  0
VERTEX
  5
1E88
  8
241
  6
CONTINUOUS
 10
49.733499999999992
 20
13.2264
 30
0.0
 70
    32
  0
VERTEX
  5
1E89
  8
241
  6
CONTINUOUS
 10
49.858899999999998
 20
13.149900000000001
 30
0.0
 70
    32
  0
VERTEX
  5
1E8A
  8
241
  6
CONTINUOUS
 10
49.9895
 20
13.0779
 30
0.0
 70
    32
  0
VERTEX
  5
1E8B
  8
241
  6
CONTINUOUS
 10
50.125
 20
13.010400000000001
 30
0.0
 70
    32
  0
VERTEX
  5
1E8C
  8
241
  6
CONTINUOUS
 10
50.26489999999999
 20
12.947699999999999
 30
0.0
 70
    32
  0
VERTEX
  5
1E8D
  8
241
  6
CONTINUOUS
 10
50.408999999999999
 20
12.890000000000001
 30
0.0
 70
    32
  0
VERTEX
  5
1E8E
  8
241
  6
CONTINUOUS
 10
50.557000000000002
 20
12.837300000000001
 30
0.0
 70
    32
  0
VERTEX
  5
1E8F
  8
241
  6
CONTINUOUS
 10
50.708399999999997
 20
12.789899999999999
 30
0.0
 70
    32
  0
VERTEX
  5
1E90
  8
241
  6
CONTINUOUS
 10
50.863
 20
12.7477
 30
0.0
 70
    32
  0
VERTEX
  5
1E91
  8
241
  6
CONTINUOUS
 10
51.020299999999999
 20
12.711
 30
0.0
 70
    32
  0
VERTEX
  5
1E92
  8
241
  6
CONTINUOUS
 10
51.179900000000004
 20
12.6797
 30
0.0
 70
    32
  0
VERTEX
  5
1E93
  8
241
  6
CONTINUOUS
 10
51.3416
 20
12.6541
 30
0.0
 70
    32
  0
VERTEX
  5
1E94
  8
241
  6
CONTINUOUS
 10
51.504800000000003
 20
12.634
 30
0.0
 70
    32
  0
VERTEX
  5
1E95
  8
241
  6
CONTINUOUS
 10
51.669199999999996
 20
12.6197
 30
0.0
 70
    32
  0
VERTEX
  5
1E96
  8
241
  6
CONTINUOUS
 10
51.834400000000002
 20
12.6111
 30
0.0
 70
    32
  0
VERTEX
  5
1E97
  8
241
  6
CONTINUOUS
 10
52.0
 20
12.6082
 30
0.0
 70
    32
  0
VERTEX
  5
1E98
  8
241
  6
CONTINUOUS
 10
52.165599999999998
 20
12.6111
 30
0.0
 70
    32
  0
VERTEX
  5
1E99
  8
241
  6
CONTINUOUS
 10
52.330800000000011
 20
12.6197
 30
0.0
 70
    32
  0
VERTEX
  5
1E9A
  8
241
  6
CONTINUOUS
 10
52.495199999999997
 20
12.634
 30
0.0
 70
    32
  0
VERTEX
  5
1E9B
  8
241
  6
CONTINUOUS
 10
52.6584
 20
12.6541
 30
0.0
 70
    32
  0
VERTEX
  5
1E9C
  8
241
  6
CONTINUOUS
 10
52.820099999999989
 20
12.6797
 30
0.0
 70
    32
  0
VERTEX
  5
1E9D
  8
241
  6
CONTINUOUS
 10
52.979700000000001
 20
12.711
 30
0.0
 70
    32
  0
VERTEX
  5
1E9E
  8
241
  6
CONTINUOUS
 10
53.137
 20
12.7477
 30
0.0
 70
    32
  0
VERTEX
  5
1E9F
  8
241
  6
CONTINUOUS
 10
53.291600000000003
 20
12.789899999999999
 30
0.0
 70
    32
  0
VERTEX
  5
1EA0
  8
241
  6
CONTINUOUS
 10
53.442999999999998
 20
12.837300000000001
 30
0.0
 70
    32
  0
VERTEX
  5
1EA1
  8
241
  6
CONTINUOUS
 10
53.591000000000001
 20
12.890000000000001
 30
0.0
 70
    32
  0
VERTEX
  5
1EA2
  8
241
  6
CONTINUOUS
 10
53.735100000000003
 20
12.947699999999999
 30
0.0
 70
    32
  0
VERTEX
  5
1EA3
  8
241
  6
CONTINUOUS
 10
53.875
 20
13.010400000000001
 30
0.0
 70
    32
  0
VERTEX
  5
1EA4
  8
241
  6
CONTINUOUS
 10
54.0105
 20
13.0779
 30
0.0
 70
    32
  0
VERTEX
  5
1EA5
  8
241
  6
CONTINUOUS
 10
54.141100000000002
 20
13.149900000000001
 30
0.0
 70
    32
  0
VERTEX
  5
1EA6
  8
241
  6
CONTINUOUS
 10
54.266500000000001
 20
13.2264
 30
0.0
 70
    32
  0
VERTEX
  5
1EA7
  8
241
  6
CONTINUOUS
 10
54.386499999999991
 20
13.3072
 30
0.0
 70
    32
  0
VERTEX
  5
1EA8
  8
241
  6
CONTINUOUS
 10
54.500700000000002
 20
13.391999999999999
 30
0.0
 70
    32
  0
VERTEX
  5
1EA9
  8
241
  6
CONTINUOUS
 10
54.608899999999998
 20
13.480700000000001
 30
0.0
 70
    32
  0
VERTEX
  5
1EAA
  8
241
  6
CONTINUOUS
 10
54.710799999999999
 20
13.5731
 30
0.0
 70
    32
  0
VERTEX
  5
1EAB
  8
241
  6
CONTINUOUS
 10
54.806199999999997
 20
13.668799999999999
 30
0.0
 70
    32
  0
VERTEX
  5
1EAC
  8
241
  6
CONTINUOUS
 10
54.894799999999996
 20
13.767799999999999
 30
0.0
 70
    32
  0
VERTEX
  5
1EAD
  8
241
  6
CONTINUOUS
 10
54.976500000000001
 20
13.8697
 30
0.0
 70
    32
  0
VERTEX
  5
1EAE
  8
241
  6
CONTINUOUS
 10
55.051000000000002
 20
13.974299999999999
 30
0.0
 70
    32
  0
VERTEX
  5
1EAF
  8
241
  6
CONTINUOUS
 10
55.118099999999998
 20
14.0814
 30
0.0
 70
    32
  0
VERTEX
  5
1EB0
  8
241
  6
CONTINUOUS
 10
55.177700000000002
 20
14.1907
 30
0.0
 70
    32
  0
VERTEX
  5
1EB1
  8
241
  6
CONTINUOUS
 10
55.229700000000001
 20
14.3019
 30
0.0
 70
    32
  0
VERTEX
  5
1EB2
  8
241
  6
CONTINUOUS
 10
55.273899999999998
 20
14.4148
 30
0.0
 70
    32
  0
VERTEX
  5
1EB3
  8
241
  6
CONTINUOUS
 10
55.310200000000002
 20
14.5291
 30
0.0
 70
    32
  0
VERTEX
  5
1EB4
  8
241
  6
CONTINUOUS
 10
55.33850000000001
 20
14.644500000000001
 30
0.0
 70
    32
  0
VERTEX
  5
1EB5
  8
241
  6
CONTINUOUS
 10
55.358699999999999
 20
14.7608
 30
0.0
 70
    32
  0
VERTEX
  5
1EB6
  8
241
  6
CONTINUOUS
 10
55.370899999999999
 20
14.877599999999999
 30
0.0
 70
    32
  0
VERTEX
  5
1EB7
  8
241
  6
CONTINUOUS
 10
55.375
 20
14.9947
 30
0.0
 70
    32
  0
VERTEX
  5
1EB8
  8
241
  6
CONTINUOUS
 10
55.370899999999999
 20
15.111800000000001
 30
0.0
 70
    32
  0
VERTEX
  5
1EB9
  8
241
  6
CONTINUOUS
 10
55.358699999999999
 20
15.2286
 30
0.0
 70
    32
  0
VERTEX
  5
1EBA
  8
241
  6
CONTINUOUS
 10
55.33850000000001
 20
15.344900000000001
 30
0.0
 70
    32
  0
VERTEX
  5
1EBB
  8
241
  6
CONTINUOUS
 10
55.310200000000002
 20
15.4603
 30
0.0
 70
    32
  0
VERTEX
  5
1EBC
  8
241
  6
CONTINUOUS
 10
55.273899999999998
 20
15.5746
 30
0.0
 70
    32
  0
VERTEX
  5
1EBD
  8
241
  6
CONTINUOUS
 10
55.229700000000001
 20
15.6875
 30
0.0
 70
    32
  0
VERTEX
  5
1EBE
  8
241
  6
CONTINUOUS
 10
55.177700000000002
 20
15.7987
 30
0.0
 70
    32
  0
VERTEX
  5
1EBF
  8
241
  6
CONTINUOUS
 10
55.118099999999998
 20
15.907999999999999
 30
0.0
 70
    32
  0
VERTEX
  5
1EC0
  8
241
  6
CONTINUOUS
 10
55.051000000000002
 20
16.0151
 30
0.0
 70
    32
  0
VERTEX
  5
1EC1
  8
241
  6
CONTINUOUS
 10
54.976500000000001
 20
16.119700000000002
 30
0.0
 70
    32
  0
VERTEX
  5
1EC2
  8
241
  6
CONTINUOUS
 10
54.894799999999996
 20
16.221599999999999
 30
0.0
 70
    32
  0
VERTEX
  5
1EC3
  8
241
  6
CONTINUOUS
 10
54.806199999999997
 20
16.320599999999999
 30
0.0
 70
    32
  0
VERTEX
  5
1EC4
  8
241
  6
CONTINUOUS
 10
54.710799999999999
 20
16.4163
 30
0.0
 70
    32
  0
VERTEX
  5
1EC5
  8
241
  6
CONTINUOUS
 10
54.608899999999998
 20
16.508700000000001
 30
0.0
 70
    32
  0
VERTEX
  5
1EC6
  8
241
  6
CONTINUOUS
 10
54.500700000000002
 20
16.5974
 30
0.0
 70
    32
  0
VERTEX
  5
1EC7
  8
241
  6
CONTINUOUS
 10
54.386499999999991
 20
16.682200000000002
 30
0.0
 70
    32
  0
VERTEX
  5
1EC8
  8
241
  6
CONTINUOUS
 10
54.266500000000001
 20
16.763000000000002
 30
0.0
 70
    32
  0
VERTEX
  5
1EC9
  8
241
  6
CONTINUOUS
 10
54.141100000000002
 20
16.839500000000001
 30
0.0
 70
    32
  0
VERTEX
  5
1ECA
  8
241
  6
CONTINUOUS
 10
54.0105
 20
16.9115
 30
0.0
 70
    32
  0
VERTEX
  5
1ECB
  8
241
  6
CONTINUOUS
 10
53.875
 20
16.978999999999999
 30
0.0
 70
    32
  0
VERTEX
  5
1ECC
  8
241
  6
CONTINUOUS
 10
53.735100000000003
 20
17.041699999999999
 30
0.0
 70
    32
  0
VERTEX
  5
1ECD
  8
241
  6
CONTINUOUS
 10
53.591000000000001
 20
17.099399999999999
 30
0.0
 70
    32
  0
VERTEX
  5
1ECE
  8
241
  6
CONTINUOUS
 10
53.442999999999998
 20
17.152100000000001
 30
0.0
 70
    32
  0
VERTEX
  5
1ECF
  8
241
  6
CONTINUOUS
 10
53.291600000000003
 20
17.1995
 30
0.0
 70
    32
  0
VERTEX
  5
1ED0
  8
241
  6
CONTINUOUS
 10
53.137
 20
17.241700000000002
 30
0.0
 70
    32
  0
VERTEX
  5
1ED1
  8
241
  6
CONTINUOUS
 10
52.979700000000001
 20
17.278400000000001
 30
0.0
 70
    32
  0
VERTEX
  5
1ED2
  8
241
  6
CONTINUOUS
 10
52.820099999999989
 20
17.309699999999999
 30
0.0
 70
    32
  0
VERTEX
  5
1ED3
  8
241
  6
CONTINUOUS
 10
52.6584
 20
17.3353
 30
0.0
 70
    32
  0
VERTEX
  5
1ED4
  8
241
  6
CONTINUOUS
 10
52.495199999999997
 20
17.355399999999999
 30
0.0
 70
    32
  0
VERTEX
  5
1ED5
  8
241
  6
CONTINUOUS
 10
52.330800000000011
 20
17.369700000000002
 30
0.0
 70
    32
  0
VERTEX
  5
1ED6
  8
241
  6
CONTINUOUS
 10
52.165599999999998
 20
17.378299999999999
 30
0.0
 70
    32
  0
VERTEX
  5
1ED7
  8
241
  6
CONTINUOUS
 10
52.0
 20
17.3812
 30
0.0
 70
    32
  0
VERTEX
  5
1ED8
  8
241
  6
CONTINUOUS
 10
51.834400000000002
 20
17.378299999999999
 30
0.0
 70
    32
  0
VERTEX
  5
1ED9
  8
241
  6
CONTINUOUS
 10
51.669199999999996
 20
17.369700000000002
 30
0.0
 70
    32
  0
VERTEX
  5
1EDA
  8
241
  6
CONTINUOUS
 10
51.504800000000003
 20
17.355399999999999
 30
0.0
 70
    32
  0
VERTEX
  5
1EDB
  8
241
  6
CONTINUOUS
 10
51.3416
 20
17.3353
 30
0.0
 70
    32
  0
VERTEX
  5
1EDC
  8
241
  6
CONTINUOUS
 10
51.179900000000004
 20
17.309699999999999
 30
0.0
 70
    32
  0
VERTEX
  5
1EDD
  8
241
  6
CONTINUOUS
 10
51.020299999999999
 20
17.278400000000001
 30
0.0
 70
    32
  0
VERTEX
  5
1EDE
  8
241
  6
CONTINUOUS
 10
50.863
 20
17.241700000000002
 30
0.0
 70
    32
  0
VERTEX
  5
1EDF
  8
241
  6
CONTINUOUS
 10
50.708399999999997
 20
17.1995
 30
0.0
 70
    32
  0
VERTEX
  5
1EE0
  8
241
  6
CONTINUOUS
 10
50.557000000000002
 20
17.152100000000001
 30
0.0
 70
    32
  0
VERTEX
  5
1EE1
  8
241
  6
CONTINUOUS
 10
50.408999999999999
 20
17.099399999999999
 30
0.0
 70
    32
  0
VERTEX
  5
1EE2
  8
241
  6
CONTINUOUS
 10
50.26489999999999
 20
17.041699999999999
 30
0.0
 70
    32
  0
VERTEX
  5
1EE3
  8
241
  6
CONTINUOUS
 10
50.125
 20
16.978999999999999
 30
0.0
 70
    32
  0
VERTEX
  5
1EE4
  8
241
  6
CONTINUOUS
 10
49.9895
 20
16.9115
 30
0.0
 70
    32
  0
VERTEX
  5
1EE5
  8
241
  6
CONTINUOUS
 10
49.858899999999998
 20
16.839500000000001
 30
0.0
 70
    32
  0
VERTEX
  5
1EE6
  8
241
  6
CONTINUOUS
 10
49.733499999999992
 20
16.763000000000002
 30
0.0
 70
    32
  0
VERTEX
  5
1EE7
  8
241
  6
CONTINUOUS
 10
49.613500000000002
 20
16.682200000000002
 30
0.0
 70
    32
  0
VERTEX
  5
1EE8
  8
241
  6
CONTINUOUS
 10
49.499299999999998
 20
16.5974
 30
0.0
 70
    32
  0
VERTEX
  5
1EE9
  8
241
  6
CONTINUOUS
 10
49.391100000000002
 20
16.508700000000001
 30
0.0
 70
    32
  0
VERTEX
  5
1EEA
  8
241
  6
CONTINUOUS
 10
49.289200000000001
 20
16.4163
 30
0.0
 70
    32
  0
VERTEX
  5
1EEB
  8
241
  6
CONTINUOUS
 10
49.193800000000003
 20
16.320599999999999
 30
0.0
 70
    32
  0
VERTEX
  5
1EEC
  8
241
  6
CONTINUOUS
 10
49.105200000000004
 20
16.221599999999999
 30
0.0
 70
    32
  0
VERTEX
  5
1EED
  8
241
  6
CONTINUOUS
 10
49.023499999999999
 20
16.119700000000002
 30
0.0
 70
    32
  0
VERTEX
  5
1EEE
  8
241
  6
CONTINUOUS
 10
48.948999999999991
 20
16.0151
 30
0.0
 70
    32
  0
VERTEX
  5
1EEF
  8
241
  6
CONTINUOUS
 10
48.881900000000002
 20
15.907999999999999
 30
0.0
 70
    32
  0
VERTEX
  5
1EF0
  8
241
  6
CONTINUOUS
 10
48.822299999999991
 20
15.7987
 30
0.0
 70
    32
  0
VERTEX
  5
1EF1
  8
241
  6
CONTINUOUS
 10
48.770299999999999
 20
15.6875
 30
0.0
 70
    32
  0
VERTEX
  5
1EF2
  8
241
  6
CONTINUOUS
 10
48.726100000000002
 20
15.5746
 30
0.0
 70
    32
  0
VERTEX
  5
1EF3
  8
241
  6
CONTINUOUS
 10
48.689799999999998
 20
15.4603
 30
0.0
 70
    32
  0
VERTEX
  5
1EF4
  8
241
  6
CONTINUOUS
 10
48.661499999999997
 20
15.344900000000001
 30
0.0
 70
    32
  0
VERTEX
  5
1EF5
  8
241
  6
CONTINUOUS
 10
48.641300000000001
 20
15.2286
 30
0.0
 70
    32
  0
VERTEX
  5
1EF6
  8
241
  6
CONTINUOUS
 10
48.629100000000001
 20
15.111800000000001
 30
0.0
 70
    32
  0
VERTEX
  5
1EF7
  8
241
  6
CONTINUOUS
 10
48.625
 20
14.9947
 30
0.0
 70
    32
  0
SEQEND
  5
1EF8
  8
241
  6
CONTINUOUS
  0
LINE
  5
1EF9
  8
245
  6
CENTER2
 10
47.999999999998181
 20
15.20279579551061
 30
0.0
 11
55.999999999998181
 21
15.202795795509701
 31
0.0
  0
LINE
  5
1EFA
  8
245
  6
CENTER2
 10
51.999999999996362
 20
12.08115601389181
 30
0.0
 11
52.0
 21
17.738010263385149
 31
0.0
  0
LINE
  5
1EFB
  8
240
  6
CONTINUOUS
 10
-90.000000000002686
 20
19.999999999995911
 30
0.0
 11
-90.000000000004576
 21
-20.000000000008178
 31
0.0
  0
LINE
  5
1F02
  8
240
  6
CONTINUOUS
 10
-90.000000000002686
 20
19.999999999995911
 30
0.0
 11
-80.499999999997243
 21
19.999999999995911
 31
0.0
  0
LINE
  5
1F09
  8
240
  6
CONTINUOUS
 10
-90.000000000004576
 20
-20.000000000008178
 30
0.0
 11
-80.499999999997243
 21
-20.000000000008178
 31
0.0
  0
LINE
  5
1F1A
  8
241
  6
CONTINUOUS
 10
-42.500000000007269
 20
-19.800000000011551
 30
0.0
 11
-42.500000000007269
 21
19.799999999997901
 31
0.0
  0
LINE
  5
1F1D
  8
241
  6
CONTINUOUS
 10
-29.00000000000729
 20
-19.800000000010641
 30
0.0
 11
-29.00000000000729
 21
19.79999999999745
 31
0.0
  0
LINE
  5
1F20
  8
241
  6
CONTINUOUS
 10
-45.000000000007269
 20
19.799999999997901
 30
0.0
 11
-45.000000000003652
 21
-19.800000000011551
 31
0.0
  0
LINE
  5
1F23
  8
241
  6
CONTINUOUS
 10
-31.500000000003642
 20
19.79999999999745
 30
0.0
 11
-31.500000000003642
 21
-19.800000000010641
 31
0.0
  0
POINT
  5
1F2A
  8
0
 10
-15041.480041667361
 20
9982.2519074072497
 30
0.0
1001
GENIUS_GENOLIS_13
1002
{
1000
ENT
1005
0
1005
0
1005
1CB3
1005
0
1002
}
1001
GENIUS_GENOENT_13
1002
{
1000
MYREF
1005
1F2A
1002
}
1002
{
1000
GRP
1005
0
1002
}
1001
GENIUS_GENOBJ-N-CRS_13
1002
{
1000
OWNER
1000
GEN
1002
}
1001
GENIUS_GENODEF_13
1002
{
1000
HIER
1070
    10
1002
}
1002
{
1000
MANEDIT
1070
     1
1002
}
1002
{
1000
NOSEL
1070
     0
1002
}
1002
{
1000
BEHIND
1070
     0
1002
}
1002
{
1000
OTHER
1070
     0
1002
}
1002
{
1000
REACTOR
1002
}
  0
TEXT
  5
1F2F
  8
250
  6
CONTINUOUS
 10
16.468728541761831
 20
-42.489004746852487
 30
0.0
 40
6.0
  1
üá
 50
90.0
  0
TEXT
  5
1F30
  8
250
  6
CONTINUOUS
 10
16.468728541761831
 20
-35.346147603995369
 30
0.0
 40
6.0
  1
17
 50
90.0
  0
ARC
  5
1F33
  8
240
  6
CONTINUOUS
 10
2.241047546342319
 20
22.500000000003858
 30
0.0
 40
1.0
 50
195.0000000000166
 51
269.99999999999312
1001
GENIUS_GENODEF_13
1002
{
1000
HIER
1070
     0
1002
}
1002
{
1000
MANEDIT
1070
     0
1002
}
1002
{
1000
NOSEL
1070
     0
1002
}
1002
{
1000
BEHIND
1070
     0
1002
}
1002
{
1000
OTHER
1070
     0
1002
}
1002
{
1000
REACTOR
1002
}
1001
GENIUS_GENOBJ-N-FIL_13
1002
{
1000
OWNER
1000
GEN
1002
}
  0
ARC
  5
1F34
  8
240
  6
CONTINUOUS
 10
2.2410475463485819
 20
-22.500000000003411
 30
0.0
 40
1.0
 50
90.000000000006906
 51
165.00000000002171
1001
GENIUS_GENODEF_13
1002
{
1000
HIER
1070
     0
1002
}
1002
{
1000
MANEDIT
1070
     0
1002
}
1002
{
1000
NOSEL
1070
     0
1002
}
1002
{
1000
BEHIND
1070
     0
1002
}
1002
{
1000
OTHER
1070
     0
1002
}
1002
{
1000
REACTOR
1002
}
1001
GENIUS_GENOBJ-N-FIL_13
1002
{
1000
OWNER
1000
GEN
1002
}
  0
LINE
  5
1F3C
  8
240
  6
CONTINUOUS
 10
-9.0000000000036344
 20
-20.000000000019281
 30
0.0
 11
-9.0000000000036344
 21
-26.500000000012712
 31
0.0
  0
LINE
  5
1FA3
  8
240
  6
CONTINUOUS
 10
-9.0000000000036326
 20
19.999999999985612
 30
0.0
 11
-8.9668613674821245
 21
26.512061475821159
 31
0.0
  0
LINE
  5
1FC1
  8
244
  6
HIDDEN2
 10
12.99999999999636
 20
8.4999999999995453
 30
0.0
 11
32.999999999996369
 21
-8.5000000000004547
 31
0.0
  0
LINE
  5
1FC2
  8
244
  6
HIDDEN2
 10
12.99999999999636
 20
-8.5000000000004547
 30
0.0
 11
32.999999999996369
 21
8.4999999999995453
 31
0.0
  0
LINE
  5
1FC3
  8
247
  6
CONTINUOUS
 10
7.5005154776098939
 20
-11.75000000000356
 30
0.0
 11
7.5005154776099499
 21
-7.1153846156735874
 31
0.0
  0
LINE
  5
1FC4
  8
247
  6
CONTINUOUS
 10
5.0005154776099507
 20
-10.954893499991501
 30
0.0
 11
7.100515477525958
 21
-11.557058810060919
 31
0.0
  0
LINE
  5
1FC5
  8
247
  6
CONTINUOUS
 10
5.9966693237239479
 20
-10.32515140352259
 30
0.0
 11
5.9966693237239479
 21
-11.240536018870589
 31
0.0
  0
ARC
  5
1FC6
  8
247
  6
CONTINUOUS
 10
5.3852345449040513
 20
-10.087263401950359
 30
0.0
 40
0.3876715809326743
 50
72.997889675291972
 51
172.92416621851271
  0
ARC
  5
1FC7
  8
247
  6
CONTINUOUS
 10
5.3057386086379648
 20
-10.382477556807659
 30
0.0
 40
0.693304796535877
 50
4.7429368522013986
 51
73.849226273266481
1001
GENIUS_GENOBJ-N-FIL_13
1002
{
1000
OWNER
1000
GEN
1002
}
1001
GENIUS_GENODEF_13
1002
{
1000
HIER
1070
     0
1002
}
1002
{
1000
MANEDIT
1070
     0
1002
}
1002
{
1000
NOSEL
1070
     0
1002
}
1002
{
1000
BEHIND
1070
     0
1002
}
1002
{
1000
OTHER
1070
     0
1002
}
1002
{
1000
REACTOR
1002
}
  0
LINE
  5
1FC8
  8
247
  6
CONTINUOUS
 10
7.100515477525958
 20
-10.641674194712911
 30
0.0
 11
7.100515477525958
 21
-11.557058810060919
 31
0.0
  0
LINE
  5
1FC9
  8
247
  6
CONTINUOUS
 10
5.0005154776099507
 20
-10.95489349999151
 30
0.0
 11
5.0005154776099507
 21
-10.039508884643499
 31
0.0
  0
ARC
  5
1FCA
  8
247
  6
CONTINUOUS
 10
6.3879324403778242
 20
-10.37830647627039
 30
0.0
 40
0.394857301075386
 50
65.990941652528775
 51
172.2634434590698
  0
ARC
  5
1FCB
  8
247
  6
CONTINUOUS
 10
6.3917158049425211
 20
-10.712446610430471
 30
0.0
 40
0.7123241612361686
 50
5.7019851642581454
 51
77.27733843682222
1001
GENIUS_GENOBJ-N-FIL_13
1002
{
1000
OWNER
1000
GEN
1002
}
1001
GENIUS_GENODEF_13
1002
{
1000
HIER
1070
     0
1002
}
1002
{
1000
MANEDIT
1070
     0
1002
}
1002
{
1000
NOSEL
1070
     0
1002
}
1002
{
1000
BEHIND
1070
     0
1002
}
1002
{
1000
OTHER
1070
     0
1002
}
1002
{
1000
REACTOR
1002
}
  0
LINE
  5
1FCC
  8
247
  6
CONTINUOUS
 10
7.100515477525958
 20
-9.6839818870669312
 30
0.0
 11
5.0005154776099507
 21
-9.0818165769975199
 31
0.0
  0
LINE
  5
1FCD
  8
247
  6
CONTINUOUS
 10
5.0005154776099507
 20
-7.5856627309115181
 30
0.0
 11
5.0005154776099507
 21
-7.981678364307137
 31
0.0
  0
LINE
  5
1FCE
  8
247
  6
CONTINUOUS
 10
7.100515477525958
 20
-8.6087396539475201
 30
0.0
 11
7.100515477525958
 21
-8.1779704231955286
 31
0.0
  0
ARC
  5
1FCF
  8
247
  6
CONTINUOUS
 10
6.4588150726933122
 20
-7.3818165770735158
 30
0.0
 40
1.576855057639547
 50
202.35948814152749
 51
254.99324854284589
  0
ARC
  5
1FD0
  8
247
  6
CONTINUOUS
 10
5.5663343361480884
 20
-7.8475113661367821
 30
0.0
 40
0.6234706797009447
 50
94.994589319075374
 51
155.16632895730319
1001
GENIUS_GENOBJ-N-FIL_13
1002
{
1000
OWNER
1000
GEN
1002
}
1001
GENIUS_GENODEF_13
1002
{
1000
HIER
1070
     0
1002
}
1002
{
1000
MANEDIT
1070
     0
1002
}
1002
{
1000
NOSEL
1070
     0
1002
}
1002
{
1000
BEHIND
1070
     0
1002
}
1002
{
1000
OTHER
1070
     0
1002
}
1002
{
1000
REACTOR
1002
}
  0
ARC
  5
1FD1
  8
247
  6
CONTINUOUS
 10
6.1626175995793906
 20
-8.4441839510363312
 30
0.0
 40
0.9749472149106983
 50
15.846096555779839
 51
82.325137004169122
  0
ARC
  5
1FD2
  8
247
  6
CONTINUOUS
 10
6.3719858795810174
 20
-8.0352116387757722
 30
0.0
 40
0.9271945638692009
 50
249.71360167049701
 51
321.7887456564099
1001
GENIUS_GENOBJ-N-FIL_13
1002
{
1000
OWNER
1000
GEN
1002
}
1001
GENIUS_GENODEF_13
1002
{
1000
HIER
1070
     0
1002
}
1002
{
1000
MANEDIT
1070
     0
1002
}
1002
{
1000
NOSEL
1070
     0
1002
}
1002
{
1000
BEHIND
1070
     0
1002
}
1002
{
1000
OTHER
1070
     0
1002
}
1002
{
1000
REACTOR
1002
}
  0
LINE
  5
1FD3
  8
247
  6
CONTINUOUS
 10
6.2928231698659252
 20
-7.962585807819516
 30
0.0
 11
6.2928231698659252
 21
-7.477970423223522
 31
0.0
  0
ARC
  5
1FD4
  8
247
  6
CONTINUOUS
 10
6.2505154776099507
 20
-11.75000000000356
 30
0.0
 40
1.25
 50
180.0
 51
0.0
  0
LINE
  5
1FD5
  8
247
  6
CONTINUOUS
 10
5.0005154776099507
 20
-11.75000000000356
 30
0.0
 11
5.0005154776099507
 21
-11.30384615391756
 31
0.0
  0
ARC
  5
1FD6
  8
247
  6
CONTINUOUS
 10
6.2505154776099507
 20
-7.1153846156735732
 30
0.0
 40
1.25
 50
0.0
 51
180.0
  0
VIEWPORT
  5
22
 67
     1
  8
0
 10
261.51769911504419
 20
148.5
 30
0.0
 40
523.0353982300885
 41
297.0
 68
     1
 69
     1
1001
ACAD
1000
MVIEW
1002
{
1070
    16
1010
0.0
1020
0.0
1030
0.0
1010
0.0
1020
0.0
1030
1.0
1040
0.0
1040
297.0
1040
261.51769911504419
1040
148.5
1040
50.0
1040
0.0
1040
0.0
1070
     0
1070
   100
1070
     1
1070
     1
1070
     0
1070
     0
1070
     0
1070
     0
1040
0.0
1040
0.0
1040
0.0
1040
1.0
1040
1.0
1040
10.0
1040
10.0
1070
     0
1002
{
1002
}
1002
}
1001
GENIUS_GENODEF_13
1002
{
1000
HIER
1070
     0
1002
}
1002
{
1000
MANEDIT
1070
     0
1002
}
1002
{
1000
NOSEL
1070
     0
1002
}
1002
{
1000
BEHIND
1070
     0
1002
}
1002
{
1000
OTHER
1070
     0
1002
}
1002
{
1000
REACTOR
1002
}
1001
GENIUS_GENOBJ-N-SDF_13
1002
{
1000
OWNER
1000
GEN
1002
}
1001
GENIUS_GENSCREG_15
1000
PF
1040
1.0
1000
DF
1040
1.0
1000
MIN
1011
0.0
1021
0.0
1031
0.0
1021
0.0
1031
0.0
1000
MAX
1011
523.0353982300885
1021
0.0
1031
0.0
1021
297.0
1031
0.0
1000
FLAGS
1070
     4
  0
ENDSEC
  0
EOF
