  0
SECTION
  2
HEADER
  9
$ACADVER
  1
AC1009
  9
$INSBASE
 10
0.0
 20
0.0
 30
0.0
  9
$EXTMIN
 10
-93.593147870413929
 20
-42.344351158271948
 30
0.0
  9
$EXTMAX
 10
92.0
 20
63.500000000000007
 30
0.0
  9
$LIMMIN
 10
0.0
 20
0.0
  9
$LIMMAX
 10
297.0
 20
210.0
  9
$ORTHOMODE
 70
     1
  9
$REGENMODE
 70
     1
  9
$FILLMODE
 70
     1
  9
$QTEXTMODE
 70
     0
  9
$MIRRTEXT
 70
     1
  9
$DRAGMODE
 70
     2
  9
$LTSCALE
 40
10.0
  9
$OSMODE
 70
     0
  9
$ATTMODE
 70
     1
  9
$TEXTSIZE
 40
3.0
  9
$TRACEWID
 40
1.0
  9
$TEXTSTYLE
  7
YOKO
  9
$CLAYER
  8
240
  9
$CELTYPE
  6
BYLAYER
  9
$CECOLOR
 62
   256
  9
$DIMSCALE
 40
1.0
  9
$DIMASZ
 40
2.2299999999999991
  9
$DIMEXO
 40
0.5
  9
$DIMDLI
 40
7.0
  9
$DIMRND
 40
0.0
  9
$DIMDLE
 40
0.0
  9
$DIMEXE
 40
1.0
  9
$DIMTP
 40
0.0
  9
$DIMTM
 40
0.01
  9
$DIMTXT
 40
2.799999999999998
  9
$DIMCEN
 40
0.0
  9
$DIMTSZ
 40
0.0
  9
$DIMTOL
 70
     0
  9
$DIMLIM
 70
     0
  9
$DIMTIH
 70
     0
  9
$DIMTOH
 70
     0
  9
$DIMSE1
 70
     0
  9
$DIMSE2
 70
     0
  9
$DIMTAD
 70
     3
  9
$DIMZIN
 70
     9
  9
$DIMBLK
  1
OPEN
  9
$DIMASO
 70
     1
  9
$DIMSHO
 70
     1
  9
$DIMPOST
  1

  9
$DIMAPOST
  1

  9
$DIMALT
 70
     0
  9
$DIMALTD
 70
     2
  9
$DIMALTF
 40
25.399999999999999
  9
$DIMLFAC
 40
1.0
  9
$DIMTOFL
 70
     1
  9
$DIMTVP
 40
0.0
  9
$DIMTIX
 70
     1
  9
$DIMSOXD
 70
     0
  9
$DIMSAH
 70
     0
  9
$DIMBLK1
  1

  9
$DIMBLK2
  1

  9
$DIMSTYLE
  2
BIGT
  9
$DIMCLRD
 70
   256
  9
$DIMCLRE
 70
   256
  9
$DIMCLRT
 70
    40
  9
$DIMTFAC
 40
1.0
  9
$DIMGAP
 40
1.0
  9
$LUNITS
 70
     2
  9
$LUPREC
 70
     3
  9
$SKETCHINC
 40
1.0
  9
$FILLETRAD
 40
1.0
  9
$AUNITS
 70
     0
  9
$AUPREC
 70
     3
  9
$MENU
  1
.
  9
$ELEVATION
 40
0.0
  9
$PELEVATION
 40
0.0
  9
$THICKNESS
 40
0.0
  9
$LIMCHECK
 70
     0
  9
$BLIPMODE
 70
     0
  9
$CHAMFERA
 40
0.25
  9
$CHAMFERB
 40
0.25
  9
$SKPOLY
 70
     0
  9
$TDCREATE
 40
2455799.6585420021
  9
$TDUPDATE
 40
2457835.668973438
  9
$TDINDWG
 40
0.0183271528
  9
$TDUSRTIMER
 40
0.0183271065
  9
$USRTIMER
 70
     1
  9
$ANGBASE
 50
0.0
  9
$ANGDIR
 70
     0
  9
$PDMODE
 70
     1
  9
$PDSIZE
 40
0.0
  9
$PLINEWID
 40
0.0
  9
$COORDS
 70
     1
  9
$SPLFRAME
 70
     0
  9
$SPLINETYPE
 70
     6
  9
$SPLINESEGS
 70
     4
  9
$ATTDIA
 70
     1
  9
$ATTREQ
 70
     1
  9
$HANDLING
 70
     1
  9
$HANDSEED
  5
2350
  9
$SURFTAB1
 70
     6
  9
$SURFTAB2
 70
     6
  9
$SURFTYPE
 70
     6
  9
$SURFU
 70
     6
  9
$SURFV
 70
     6
  9
$UCSNAME
  2

  9
$UCSORG
 10
0.0
 20
0.0
 30
0.0
  9
$UCSXDIR
 10
1.0
 20
0.0
 30
0.0
  9
$UCSYDIR
 10
0.0
 20
1.0
 30
0.0
  9
$PUCSNAME
  2

  9
$PUCSORG
 10
0.0
 20
0.0
 30
0.0
  9
$PUCSXDIR
 10
1.0
 20
0.0
 30
0.0
  9
$PUCSYDIR
 10
0.0
 20
1.0
 30
0.0
  9
$USERI1
 70
     1
  9
$USERI2
 70
     0
  9
$USERI3
 70
     0
  9
$USERI4
 70
     0
  9
$USERI5
 70
     0
  9
$USERR1
 40
0.0
  9
$USERR2
 40
0.0
  9
$USERR3
 40
0.0
  9
$USERR4
 40
0.0
  9
$USERR5
 40
0.0
  9
$WORLDVIEW
 70
     1
  9
$SHADEDGE
 70
     3
  9
$SHADEDIF
 70
    70
  9
$TILEMODE
 70
     1
  9
$MAXACTVP
 70
    16
  9
$PLIMCHECK
 70
     0
  9
$PEXTMIN
 10
1.0000000000000000E+020
 20
1.0000000000000000E+020
 30
1.0000000000000000E+020
  9
$PEXTMAX
 10
-1.0000000000000000E+020
 20
-1.0000000000000000E+020
 30
-1.0000000000000000E+020
  9
$PLIMMIN
 10
0.0
 20
0.0
  9
$PLIMMAX
 10
420.0
 20
297.0
  9
$UNITMODE
 70
     0
  9
$VISRETAIN
 70
     1
  9
$PLINEGEN
 70
     0
  9
$PSLTSCALE
 70
     1
  0
ENDSEC
  0
SECTION
  2
TABLES
  0
TABLE
  2
VPORT
 70
     1
  0
VPORT
  2
*ACTIVE
 70
     0
 10
0.0
 20
0.0
 11
1.0
 21
1.0
 12
-4.5671762832546667
 22
30.251342376350891
 13
0.0
 23
0.0
 14
7.0
 24
7.0
 15
7.0
 25
7.0
 16
0.0
 26
0.0
 36
1.0
 17
0.0
 27
0.0
 37
0.0
 40
188.90381696459431
 41
1.6795646916565889
 42
50.0
 43
0.0
 44
0.0
 50
0.0
 51
0.0
 71
     0
 72
  2000
 73
     1
 74
     0
 75
     0
 76
     0
 77
     0
 78
     0
  0
ENDTAB
  0
TABLE
  2
LTYPE
 70
    16
  0
LTYPE
  2
CONTINUOUS
 70
     0
  3
Solid line
 72
    65
 73
     0
 40
0.0
  0
LTYPE
  2
CENTER2
 70
     0
  3
___ _ ___ _ ___ _ ___ _ ___ _ ___ _ ___ _ ___ _
 72
    65
 73
     4
 40
1.125
 49
0.75
 49
-0.125
 49
0.125
 49
-0.125
  0
LTYPE
  2
HIDDEN2
 70
     0
  3
_ _ _ _ _ _ _ _ _ _ _ _ _ _ _ _ _ _ _ _ _ _ _ _
 72
    65
 73
     2
 40
0.1875
 49
0.125
 49
-0.0625
  0
LTYPE
  2
PHANTOM2
 70
     0
  3
___ _ _ ___ _ _ ___ _ _ ___ _ _ ___ _ _ ___ _ _
 72
    65
 73
     6
 40
1.25
 49
0.625
 49
-0.125
 49
0.125
 49
-0.125
 49
0.125
 49
-0.125
  0
LTYPE
  2
CENTER
 70
     0
  3
____ _ ____ _ ____ _ ____ _ ____ _ ____ _ ____ 
 72
    65
 73
     4
 40
2.0
 49
1.25
 49
-0.25
 49
0.25
 49
-0.25
  0
LTYPE
  2
AMCONSTR
 70
     0
  3
_______________________
 72
    65
 73
     2
 40
9999.0
 49
9999.0
 49
0.0
  0
LTYPE
  2
HIDDEN
 70
     0
  3
Hidden __ __ __ __ __ __ __ __ __ __ __ __ __ _
 72
    65
 73
     2
 40
9.5249999999999986
 49
6.349999999999997
 49
-3.174999999999998
  0
LTYPE
  2
AMZIGZAG2
 70
     0
  3
/\/-/\/-/\/-/\/-/\/-/\/
 72
    65
 73
     2
 40
0.4401
 49
0.0001
 49
-0.4400000000000002
  0
LTYPE
  2
ACANSTGB
 70
     0
  3
__ . . __ . .
 72
    65
 73
     6
 40
0.35433070866
 49
0.15748031496
 49
-0.03937007874
 49
0.03937007874
 49
-0.03937007874
 49
0.03937007874
 49
-0.03937007874
  0
LTYPE
  2
ACANSTGL
 70
     0
  3
_ _ _ _ _
 72
    65
 73
     2
 40
0.11811023622
 49
0.07874015748
 49
-0.03937007874
  0
ENDTAB
  0
TABLE
  2
LAYER
 70
    11
  0
LAYER
  2
0
 70
     0
 62
     7
  6
CONTINUOUS
  0
LAYER
  2
240
 70
     0
 62
     4
  6
CONTINUOUS
  0
LAYER
  2
DEFPOINTS
 70
     0
 62
     7
  6
CONTINUOUS
  0
LAYER
  2
245
 70
     0
 62
     2
  6
CENTER2
  0
LAYER
  2
241
 70
     0
 62
   211
  6
CONTINUOUS
  0
LAYER
  2
242
 70
     0
 62
     3
  6
CONTINUOUS
  0
LAYER
  2
243
 70
     0
 62
   211
  6
HIDDEN2
  0
LAYER
  2
244
 70
     0
 62
     3
  6
HIDDEN2
  0
LAYER
  2
247
 70
     0
 62
    60
  6
CONTINUOUS
  0
LAYER
  2
250
 70
     0
 62
     3
  6
CONTINUOUS
  0
ENDTAB
  0
TABLE
  2
STYLE
 70
     6
  0
STYLE
  2
STANDARD
 70
     0
 40
0.0
 41
1.0
 50
0.0
 71
     0
 42
3.0
  3
romans.shx
  4
extfont.shx
  0
STYLE
  2
YOKO
 70
     0
 40
0.0
 41
1.0
 50
0.0
 71
     0
 42
3.0
  3
romans.shx
  4
extfont.shx
  0
STYLE
  2
ACANSGDT
 70
     0
 40
0.0
 41
1.0
 50
0.0
 71
     0
 42
3.0
  3
amgdt.shx
  4

  0
ENDTAB
  0
TABLE
  2
VIEW
 70
     0
  0
ENDTAB
  0
TABLE
  2
UCS
 70
     0
  0
ENDTAB
  0
TABLE
  2
APPID
 70
    46
  0
APPID
  2
ACAD
 70
     0
  0
APPID
  2
ACADANNOTATIVE
 70
     0
  0
APPID
  2
GLOBAL
 70
     0
  0
APPID
  2
DETAIL
 70
     0
  0
APPID
  2
GRPNAME
 70
     0
  0
APPID
  2
GPARA
 70
     0
  0
APPID
  2
MCAD_NO_VIS
 70
     0
  0
APPID
  2
ACAD_TEMP_GRAPHIC
 70
     0
  0
APPID
  2
ACATTRIBSERVICES
 70
     0
  0
APPID
  2
GENIUS_GENSCREG_15
 70
     0
  0
APPID
  2
GENIUS_GENODEF_13
 70
     0
  0
APPID
  2
GENIUS_GENOBJ-N-SDF_13
 70
     0
  0
APPID
  2
GENIUS_GENREC_14
 70
     0
  0
APPID
  2
GENIUS_GENOBJ-N-REC_13
 70
     0
  0
APPID
  2
GENIUS_GENDIMSH_14
 70
     0
  0
APPID
  2
GENIUS_GENOBJ-N-DIM_13
 70
     0
  0
APPID
  2
GENIUS_GENDIM_13
 70
     0
  0
APPID
  2
GENIUS_GENDTOL_13
 70
     0
  0
APPID
  2
GENIUS_GENOLIS_13
 70
     0
  0
APPID
  2
GENIUS_GENOENT_13
 70
     0
  0
APPID
  2
GENIUS_GENOBJ-F-FEM_13
 70
     0
  0
APPID
  2
GENIUS_GENOREF_13
 70
     0
  0
APPID
  2
GENIUS_GEFFEM_13
 70
     0
  0
APPID
  2
GENIUS_GEFFEMP_13
 70
     0
  0
APPID
  2
AD_DRAW
 70
     0
  0
APPID
  2
DESIGNERASSEMBLIES
 70
     0
  0
APPID
  2
ACADM_DIM_EDIT
 70
     0
  0
APPID
  2
AMDT_DM_ADJ
 70
     0
  0
APPID
  2
GENIUS_GENOBJ-N-FIL_13
 70
     0
  0
APPID
  2
GENIUS_GENFIL_13
 70
     0
  0
APPID
  2
GENIUS_GENOBJ-N-CHA_13
 70
     0
  0
APPID
  2
GENIUS_GENOBJ-N-CRS_13
 70
     0
  0
APPID
  2
HATCH_TYPE
 70
     0
  0
APPID
  2
HATCH_DISPLAY
 70
     0
  0
APPID
  2
HATCH_DISTANCE
 70
     0
  0
APPID
  2
ACAD_DSTYLE_DIMJAG
 70
     0
  0
APPID
  2
ACAD_DSTYLE_DIMBREAK
 70
     0
  0
APPID
  2
ACAD_NAV_VCDISPLAY
 70
     0
  0
APPID
  2
ACAECLAYERSTANDARD
 70
     0
  0
APPID
  2
ACAD_EXEMPT_FROM_CAD_STANDARDS
 70
     0
  0
APPID
  2
ACAD_DSTYLE_DIMINSPECT
 70
     0
  0
APPID
  2
ACAD_MLEADERVER
 70
     0
  0
APPID
  2
ACAD_DSTYLE_DIMARC_LENGTH_
 70
     0
  0
APPID
  2
ACAD_DSTYLE_DIM_LINETYPE
 70
     0
  0
APPID
  2
ACAD_DSTYLE_DIM_EXT1_LINETYPE
 70
     0
  0
APPID
  2
ACAD_DSTYLE_DIM_EXT2_LINETYPE
 70
     0
  0
ENDTAB
  0
TABLE
  2
DIMSTYLE
 70
     9
  0
DIMSTYLE
  2
STANDARD
 70
     0
  3

  4

  5

  6

  7

 40
1.0
 41
0.18
 42
0.0625
 43
0.38
 44
0.18
 45
0.0
 46
0.0
 47
0.0
 48
0.0
140
0.18
141
0.09
142
0.0
143
25.399999999999999
144
1.0
145
0.0
146
1.0
147
0.09
 71
     0
 72
     0
 73
     1
 74
     1
 75
     0
 76
     0
 77
     0
 78
     0
170
     0
171
     2
172
     0
173
     0
174
     0
175
     0
176
     0
177
     0
178
     0
  0
DIMSTYLE
  2
BIGT
 70
     0
  3

  4

  5

  6

  7

 40
1.0
 41
2.2299999999999991
 42
0.5
 43
7.0
 44
1.0
 45
0.0
 46
0.0
 47
0.0
 48
0.01
140
2.799999999999998
141
0.0
142
0.0
143
25.399999999999999
144
1.0
145
0.0
146
1.0
147
1.0
 71
     0
 72
     0
 73
     0
 74
     0
 75
     0
 76
     0
 77
     3
 78
     9
170
     0
171
     2
172
     1
173
     0
174
     1
175
     0
176
   256
177
   256
178
    40
  0
DIMSTYLE
  2
AM_ANSI
 70
     0
  3

  4
mm
  5

  6

  7

 40
1.0
 41
0.12
 42
0.05
 43
0.5
 44
0.1
 45
0.0
 46
0.0
 47
0.1
 48
0.1
140
0.12
141
0.0
142
0.0
143
25.399999999999999
144
1.0
145
0.0
146
0.71
147
0.06
 71
     0
 72
     0
 73
     1
 74
     1
 75
     0
 76
     0
 77
     0
 78
     7
170
     0
171
     2
172
     0
173
     0
174
     0
175
     0
176
   256
177
   256
178
     2
  0
DIMSTYLE
  2
AM_ANSI$3
 70
     0
  3

  4
mm
  5

  6

  7

 40
1.0
 41
0.12
 42
0.05
 43
0.5
 44
0.1
 45
0.0
 46
0.0
 47
0.1
 48
0.1
140
0.12
141
0.0
142
0.0
143
25.399999999999999
144
1.0
145
0.0
146
0.71
147
0.06
 71
     0
 72
     0
 73
     1
 74
     1
 75
     0
 76
     0
 77
     0
 78
     7
170
     0
171
     2
172
     0
173
     0
174
     0
175
     0
176
   256
177
   256
178
     2
  0
DIMSTYLE
  2
AM_ANSI$4
 70
     0
  3

  4
mm
  5

  6

  7

 40
1.0
 41
0.12
 42
0.05
 43
0.5
 44
0.1
 45
0.0
 46
0.0
 47
0.1
 48
0.1
140
0.12
141
0.0
142
0.0
143
25.399999999999999
144
1.0
145
0.0
146
0.71
147
0.06
 71
     0
 72
     0
 73
     1
 74
     1
 75
     0
 76
     0
 77
     0
 78
     7
170
     0
171
     2
172
     0
173
     0
174
     0
175
     0
176
   256
177
   256
178
     2
  0
DIMSTYLE
  2
AM_ANSI$7
 70
     0
  3

  4
mm
  5

  6

  7

 40
1.0
 41
0.12
 42
0.05
 43
0.5
 44
0.1
 45
0.0
 46
0.0
 47
0.1
 48
0.1
140
0.12
141
0.0
142
0.0
143
25.399999999999999
144
1.0
145
0.0
146
0.71
147
0.06
 71
     0
 72
     0
 73
     1
 74
     1
 75
     0
 76
     0
 77
     0
 78
     7
170
     0
171
     2
172
     0
173
     0
174
     0
175
     0
176
   256
177
   256
178
     2
  0
DIMSTYLE
  2
AM_ANSI$SF
 70
     0
  3

  4
mm
  5

  6

  7

 40
1.0
 41
0.12
 42
0.05
 43
0.5
 44
0.1
 45
0.0
 46
0.0
 47
0.1
 48
0.1
140
0.12
141
0.0
142
0.0
143
25.399999999999999
144
1.0
145
0.0
146
0.71
147
0.06
 71
     0
 72
     0
 73
     1
 74
     1
 75
     1
 76
     1
 77
     0
 78
     7
170
     0
171
     2
172
     0
173
     0
174
     0
175
     0
176
   256
177
   256
178
     2
  0
DIMSTYLE
  2
AM_ANSI$SH
 70
     0
  3

  4
mm
  5

  6

  7

 40
1.0
 41
0.12
 42
0.05
 43
0.5
 44
0.1
 45
0.0
 46
0.0
 47
0.1
 48
0.1
140
0.12
141
0.0
142
0.0
143
25.399999999999999
144
1.0
145
0.0
146
0.71
147
0.06
 71
     0
 72
     0
 73
     1
 74
     1
 75
     1
 76
     1
 77
     0
 78
     7
170
     0
171
     2
172
     0
173
     1
174
     0
175
     0
176
   256
177
   256
178
     2
  0
ENDTAB
  0
ENDSEC
  0
SECTION
  2
BLOCKS
  0
BLOCK
  8
0
  2
$MODEL_SPACE
 70
     0
 10
0.0
 20
0.0
 30
0.0
  3
$MODEL_SPACE
  1

  0
ENDBLK
  5
21A6
  8
0
  0
BLOCK
 67
     1
  8
0
  2
$PAPER_SPACE
 70
     0
 10
0.0
 20
0.0
 30
0.0
  3
$PAPER_SPACE
  1

  0
ENDBLK
  5
21A2
 67
     1
  8
0
  0
BLOCK
  8
0
  2
_OPEN
 70
     0
 10
0.0
 20
0.0
 30
0.0
  3
_OPEN
  1

  0
LINE
  5
18A6
  8
0
  6
BYBLOCK
 62
     0
 10
-1.0
 20
0.1666666666666666
 30
0.0
 11
0.0
 21
0.0
 31
0.0
  0
LINE
  5
18A7
  8
0
  6
BYBLOCK
 62
     0
 10
-1.0
 20
-0.1666666666666666
 30
0.0
 11
0.0
 21
0.0
 31
0.0
  0
LINE
  5
18A8
  8
0
  6
BYBLOCK
 62
     0
 10
0.0
 20
0.0
 30
0.0
 11
-1.0
 21
0.0
 31
0.0
  0
ENDBLK
  5
18A9
  8
0
  0
BLOCK
  8
0
  2
*U4
 70
     1
 10
0.0
 20
0.0
 30
0.0
  3
*U4
  1

  0
TEXT
  5
1911
  8
250
 10
76.0
 20
-8.0000000000013536
 30
0.0
 40
6.0
  1
\U+220519
 50
90.0
  0
ENDBLK
  5
1913
  8
0
  0
BLOCK
  8
0
  2
_ACMFILLEDHALF
 70
     0
 10
0.0
 20
0.0
 30
0.0
  3
_ACMFILLEDHALF
  1

  0
TRACE
  5
1C5A
  8
240
 62
     0
 10
-0.8
 20
0.0
 30
0.0
 11
-1.0
 21
0.166666666
 31
0.0
 12
0.0
 22
0.0
 32
0.0
 13
0.0
 23
0.0
 33
0.0
  0
LINE
  5
1C5B
  8
240
 62
     0
 10
-1.0
 20
0.0
 30
0.0
 11
-0.8
 21
0.0
 31
0.0
  0
ENDBLK
  5
1C59
  8
0
  0
ENDSEC
  0
SECTION
  2
ENTITIES
  0
TEXT
  5
1505
  8
241
  6
CONTINUOUS
 10
-91.0
 20
56.0
 30
0.0
 40
7.5
  1
MGT36-M24-65
  7
YOKO
  0
LINE
  5
174B
  8
250
  6
CONTINUOUS
 10
-0.000000000001819
 20
27.49999999997636
 30
0.0
 11
-0.000000000001818
 21
43.0
 31
0.0
  0
LINE
  5
174C
  8
250
  6
CONTINUOUS
 10
65.000000000001819
 20
19.999999999996231
 30
0.0
 11
65.000000000001819
 21
43.0
 31
0.0
  0
LINE
  5
174D
  8
250
  6
CONTINUOUS
 10
2.2299999999981801
 20
42.0
 30
0.0
 11
62.770000000001822
 21
42.0
 31
0.0
  0
LINE
  5
1752
  8
250
  6
CONTINUOUS
 10
65.500000000002203
 20
19.499999999995001
 30
0.0
 11
92.0
 21
19.499999999994991
 31
0.0
  0
LINE
  5
1753
  8
250
  6
CONTINUOUS
 10
65.499999999986869
 20
-19.499999999997719
 30
0.0
 11
92.0
 21
-19.49999999999773
 31
0.0
  0
LINE
  5
1754
  8
250
  6
CONTINUOUS
 10
91.0
 20
17.26999999999499
 30
0.0
 11
91.0
 21
-17.269999999997719
 31
0.0
  0
LINE
  5
1758
  8
250
  6
CONTINUOUS
 10
65.49999999999828
 20
9.4999999999977884
 30
0.0
 11
78.0
 21
9.4999999999977849
 31
0.0
  0
LINE
  5
1759
  8
250
  6
CONTINUOUS
 10
65.49999999999828
 20
-9.5000000000005151
 30
0.0
 11
78.0
 21
-9.5000000000005205
 31
0.0
  0
LINE
  5
175A
  8
250
  6
CONTINUOUS
 10
77.0
 20
7.2699999999977853
 30
0.0
 11
77.0
 21
-7.2700000000005183
 31
0.0
  0
INSERT
  5
175D
  8
250
  6
CONTINUOUS
  2
*U4
 10
0.0
 20
0.0
 30
0.0
  0
LINE
  5
175E
  8
250
  6
CONTINUOUS
 10
18.499999999998181
 20
7.4999999999986331
 30
0.0
 11
14.02805043293392
 21
7.4999999999986358
 31
0.0
  0
LINE
  5
175F
  8
250
  6
CONTINUOUS
 10
18.499999999998181
 20
-7.5000000000013634
 30
0.0
 11
14.02805043293392
 21
-7.5000000000013634
 31
0.0
  0
LINE
  5
1760
  8
250
  6
CONTINUOUS
 10
15.02805043293392
 20
5.2699999999986371
 30
0.0
 11
15.02805043293392
 21
-5.270000000001362
 31
0.0
  0
LINE
  5
1761
  8
250
  6
CONTINUOUS
 10
15.02805043293391
 20
-42.344351158271948
 30
0.0
 11
15.02805043293392
 21
-7.5000000000013634
 31
0.0
  0
TEXT
  5
1765
  8
250
  6
CONTINUOUS
 10
26.642857142857149
 20
43.0
 30
0.0
 40
6.0
  1
65
  0
LINE
  5
1766
  8
250
  6
CONTINUOUS
 10
62.770000000001822
 20
42.371666666666663
 30
0.0
 11
65.000000000001819
 21
42.0
 31
0.0
  0
LINE
  5
1767
  8
250
  6
CONTINUOUS
 10
62.770000000001822
 20
41.62833333333333
 30
0.0
 11
65.000000000001819
 21
42.0
 31
0.0
  0
LINE
  5
1768
  8
250
  6
CONTINUOUS
 10
65.000000000001819
 20
42.0
 30
0.0
 11
62.770000000001822
 21
42.0
 31
0.0
  0
LINE
  5
1769
  8
250
  6
CONTINUOUS
 10
2.2299999999981801
 20
41.62833333333333
 30
0.0
 11
-0.0000000000018181
 21
42.0
 31
0.0
  0
LINE
  5
176A
  8
250
  6
CONTINUOUS
 10
2.2299999999981801
 20
42.371666666666663
 30
0.0
 11
-0.0000000000018181
 21
42.0
 31
0.0
  0
LINE
  5
176B
  8
250
  6
CONTINUOUS
 10
-0.0000000000018181
 20
42.0
 30
0.0
 11
2.2299999999981801
 21
42.0
 31
0.0
  0
TEXT
  5
176C
  8
250
  6
CONTINUOUS
 10
90.0
 20
-8.0000000000013571
 30
0.0
 40
6.0
  1
\U+220539
 50
90.0
  0
LINE
  5
176D
  8
250
  6
CONTINUOUS
 10
91.371666666666684
 20
-17.269999999997719
 30
0.0
 11
91.0
 21
-19.49999999999773
 31
0.0
  0
LINE
  5
176E
  8
250
  6
CONTINUOUS
 10
90.628333333333316
 20
-17.269999999997719
 30
0.0
 11
91.0
 21
-19.49999999999773
 31
0.0
  0
LINE
  5
176F
  8
250
  6
CONTINUOUS
 10
91.0
 20
-19.49999999999773
 30
0.0
 11
91.0
 21
-17.269999999997719
 31
0.0
  0
LINE
  5
1770
  8
250
  6
CONTINUOUS
 10
90.628333333333316
 20
17.26999999999499
 30
0.0
 11
91.0
 21
19.499999999994991
 31
0.0
  0
LINE
  5
1771
  8
250
  6
CONTINUOUS
 10
91.371666666666684
 20
17.26999999999499
 30
0.0
 11
91.0
 21
19.499999999994991
 31
0.0
  0
LINE
  5
1772
  8
250
  6
CONTINUOUS
 10
91.0
 20
19.499999999994991
 30
0.0
 11
91.0
 21
17.26999999999499
 31
0.0
  0
LINE
  5
1773
  8
250
  6
CONTINUOUS
 10
77.371666666666655
 20
-7.27000000000052
 30
0.0
 11
77.0
 21
-9.5000000000005205
 31
0.0
  0
LINE
  5
1774
  8
250
  6
CONTINUOUS
 10
76.62833333333333
 20
-7.27000000000052
 30
0.0
 11
77.0
 21
-9.5000000000005205
 31
0.0
  0
LINE
  5
1775
  8
250
  6
CONTINUOUS
 10
77.0
 20
-9.5000000000005205
 30
0.0
 11
77.0
 21
-7.27000000000052
 31
0.0
  0
LINE
  5
1776
  8
250
  6
CONTINUOUS
 10
76.62833333333333
 20
7.2699999999977818
 30
0.0
 11
77.0
 21
9.4999999999977849
 31
0.0
  0
LINE
  5
1777
  8
250
  6
CONTINUOUS
 10
77.371666666666655
 20
7.2699999999977818
 30
0.0
 11
77.0
 21
9.4999999999977849
 31
0.0
  0
LINE
  5
1778
  8
250
  6
CONTINUOUS
 10
77.0
 20
9.4999999999977849
 30
0.0
 11
77.0
 21
7.2699999999977818
 31
0.0
  0
LINE
  5
1779
  8
250
  6
CONTINUOUS
 10
14.656383766267259
 20
5.2699999999986371
 30
0.0
 11
15.02805043293392
 21
7.4999999999986358
 31
0.0
  0
LINE
  5
177A
  8
250
  6
CONTINUOUS
 10
15.39971709960059
 20
5.2699999999986371
 30
0.0
 11
15.02805043293392
 21
7.4999999999986358
 31
0.0
  0
LINE
  5
177B
  8
250
  6
CONTINUOUS
 10
15.02805043293392
 20
7.4999999999986358
 30
0.0
 11
15.02805043293392
 21
5.2699999999986371
 31
0.0
  0
LINE
  5
177C
  8
250
  6
CONTINUOUS
 10
15.39971709960059
 20
-5.270000000001362
 30
0.0
 11
15.02805043293392
 21
-7.5000000000013634
 31
0.0
  0
LINE
  5
177D
  8
250
  6
CONTINUOUS
 10
14.65638376626725
 20
-5.270000000001362
 30
0.0
 11
15.02805043293392
 21
-7.5000000000013634
 31
0.0
  0
LINE
  5
177E
  8
250
  6
CONTINUOUS
 10
15.02805043293392
 20
-7.5000000000013634
 30
0.0
 11
15.02805043293392
 21
-5.270000000001362
 31
0.0
  0
LINE
  5
1C79
  8
245
  6
CENTER2
 10
28.999999999998181
 20
4.0
 30
0.0
 11
28.999999999998181
 21
-4.0
 31
0.0
  0
CIRCLE
  5
1C7A
  8
242
  6
CONTINUOUS
 10
28.999999999998181
 20
0.0
 30
0.0
 40
4.0000000000000284
  0
CIRCLE
  5
1C7B
  8
241
  6
CONTINUOUS
 10
28.999999999998181
 20
0.0
 30
0.0
 40
3.3749999999999432
  0
LINE
  5
1C7F
  8
245
  6
CENTER2
 10
-93.593147870413929
 20
0.0
 30
0.0
 11
67.178450232867704
 21
0.0
 31
0.0
  0
LINE
  5
1C80
  8
240
  6
CONTINUOUS
 10
64.999999999986883
 20
-19.499999999996241
 30
0.0
 11
65.000000000002203
 21
19.499999999996241
 31
0.0
  0
LINE
  5
1C83
  8
243
  6
HIDDEN2
 10
18.999999999998181
 20
-7.5
 30
0.0
 11
36.999999999998181
 21
-7.5
 31
0.0
  0
LINE
  5
1C84
  8
243
  6
HIDDEN2
 10
18.999999999998181
 20
7.5
 30
0.0
 11
36.999999999998181
 21
7.5
 31
0.0
  0
LINE
  5
1C85
  8
243
  6
HIDDEN2
 10
18.999999999998181
 20
0.0
 30
0.0
 11
18.999999999998181
 21
-7.5
 31
0.0
  0
LINE
  5
1C86
  8
243
  6
HIDDEN2
 10
18.999999999998181
 20
0.0
 30
0.0
 11
18.999999999998181
 21
7.5
 31
0.0
  0
LINE
  5
1C87
  8
243
  6
HIDDEN2
 10
36.999999999998181
 20
-9.5
 30
0.0
 11
36.999999999998181
 21
0.0
 31
0.0
  0
LINE
  5
1C88
  8
243
  6
HIDDEN2
 10
36.999999999998181
 20
9.5
 30
0.0
 11
36.999999999998181
 21
0.0
 31
0.0
  0
LINE
  5
1C89
  8
243
  6
HIDDEN2
 10
36.999999999998181
 20
9.5
 30
0.0
 11
64.999999999998252
 21
9.5
 31
0.0
  0
LINE
  5
1C8C
  8
243
  6
HIDDEN2
 10
36.999999999998181
 20
-9.5
 30
0.0
 11
64.999999999998252
 21
-9.5
 31
0.0
  0
LINE
  5
1C8D
  8
240
  6
CONTINUOUS
 10
2.776945931207575
 20
19.500000000003791
 30
0.0
 11
65.000000000002203
 21
19.499999999996241
 31
0.0
  0
POLYLINE
  5
1C8E
  8
242
  6
CONTINUOUS
 66
     1
 10
0.0
 20
0.0
 30
0.0
 70
     8
  0
VERTEX
  5
1C8F
  8
242
  6
CONTINUOUS
 10
57.0
 20
13.4954
 30
0.0
 70
    32
  0
VERTEX
  5
1C90
  8
242
  6
CONTINUOUS
 10
56.99519999999999
 20
13.6342
 30
0.0
 70
    32
  0
VERTEX
  5
1C91
  8
242
  6
CONTINUOUS
 10
56.980699999999999
 20
13.772600000000001
 30
0.0
 70
    32
  0
VERTEX
  5
1C92
  8
242
  6
CONTINUOUS
 10
56.956699999999991
 20
13.910399999999999
 30
0.0
 70
    32
  0
VERTEX
  5
1C93
  8
242
  6
CONTINUOUS
 10
56.923099999999991
 20
14.0472
 30
0.0
 70
    32
  0
VERTEX
  5
1C94
  8
242
  6
CONTINUOUS
 10
56.880099999999999
 20
14.182600000000001
 30
0.0
 70
    32
  0
VERTEX
  5
1C95
  8
242
  6
CONTINUOUS
 10
56.827800000000011
 20
14.3164
 30
0.0
 70
    32
  0
VERTEX
  5
1C96
  8
242
  6
CONTINUOUS
 10
56.766199999999991
 20
14.4482
 30
0.0
 70
    32
  0
VERTEX
  5
1C97
  8
242
  6
CONTINUOUS
 10
56.695500000000003
 20
14.5778
 30
0.0
 70
    32
  0
VERTEX
  5
1C98
  8
242
  6
CONTINUOUS
 10
56.615999999999993
 20
14.704700000000001
 30
0.0
 70
    32
  0
VERTEX
  5
1C99
  8
242
  6
CONTINUOUS
 10
56.527700000000003
 20
14.8287
 30
0.0
 70
    32
  0
VERTEX
  5
1C9A
  8
242
  6
CONTINUOUS
 10
56.430900000000001
 20
14.9495
 30
0.0
 70
    32
  0
VERTEX
  5
1C9B
  8
242
  6
CONTINUOUS
 10
56.325899999999997
 20
15.066800000000001
 30
0.0
 70
    32
  0
VERTEX
  5
1C9C
  8
242
  6
CONTINUOUS
 10
56.212800000000001
 20
15.180300000000001
 30
0.0
 70
    32
  0
VERTEX
  5
1C9D
  8
242
  6
CONTINUOUS
 10
56.091999999999999
 20
15.2897
 30
0.0
 70
    32
  0
VERTEX
  5
1C9E
  8
242
  6
CONTINUOUS
 10
55.963799999999992
 20
15.3948
 30
0.0
 70
    32
  0
VERTEX
  5
1C9F
  8
242
  6
CONTINUOUS
 10
55.828400000000002
 20
15.4954
 30
0.0
 70
    32
  0
VERTEX
  5
1CA0
  8
242
  6
CONTINUOUS
 10
55.686199999999999
 20
15.591100000000001
 30
0.0
 70
    32
  0
VERTEX
  5
1CA1
  8
242
  6
CONTINUOUS
 10
55.537599999999998
 20
15.681800000000001
 30
0.0
 70
    32
  0
VERTEX
  5
1CA2
  8
242
  6
CONTINUOUS
 10
55.382800000000003
 20
15.767200000000001
 30
0.0
 70
    32
  0
VERTEX
  5
1CA3
  8
242
  6
CONTINUOUS
 10
55.222299999999997
 20
15.847099999999999
 30
0.0
 70
    32
  0
VERTEX
  5
1CA4
  8
242
  6
CONTINUOUS
 10
55.056399999999989
 20
15.9214
 30
0.0
 70
    32
  0
VERTEX
  5
1CA5
  8
242
  6
CONTINUOUS
 10
54.88559999999999
 20
15.989800000000001
 30
0.0
 70
    32
  0
VERTEX
  5
1CA6
  8
242
  6
CONTINUOUS
 10
54.7102
 20
16.052199999999999
 30
0.0
 70
    32
  0
VERTEX
  5
1CA7
  8
242
  6
CONTINUOUS
 10
54.530700000000003
 20
16.108499999999999
 30
0.0
 70
    32
  0
VERTEX
  5
1CA8
  8
242
  6
CONTINUOUS
 10
54.3476
 20
16.1585
 30
0.0
 70
    32
  0
VERTEX
  5
1CA9
  8
242
  6
CONTINUOUS
 10
54.16109999999999
 20
16.202000000000002
 30
0.0
 70
    32
  0
VERTEX
  5
1CAA
  8
242
  6
CONTINUOUS
 10
53.971899999999998
 20
16.239000000000001
 30
0.0
 70
    32
  0
VERTEX
  5
1CAB
  8
242
  6
CONTINUOUS
 10
53.7804
 20
16.269400000000001
 30
0.0
 70
    32
  0
VERTEX
  5
1CAC
  8
242
  6
CONTINUOUS
 10
53.5869
 20
16.293199999999999
 30
0.0
 70
    32
  0
VERTEX
  5
1CAD
  8
242
  6
CONTINUOUS
 10
53.392099999999999
 20
16.310199999999998
 30
0.0
 70
    32
  0
VERTEX
  5
1CAE
  8
242
  6
CONTINUOUS
 10
53.196300000000001
 20
16.320399999999999
 30
0.0
 70
    32
  0
VERTEX
  5
1CAF
  8
242
  6
CONTINUOUS
 10
53.0
 20
16.323799999999999
 30
0.0
 70
    32
  0
VERTEX
  5
1CB0
  8
242
  6
CONTINUOUS
 10
52.803699999999999
 20
16.320399999999999
 30
0.0
 70
    32
  0
VERTEX
  5
1CB1
  8
242
  6
CONTINUOUS
 10
52.607900000000001
 20
16.310199999999998
 30
0.0
 70
    32
  0
VERTEX
  5
1CB2
  8
242
  6
CONTINUOUS
 10
52.4131
 20
16.293199999999999
 30
0.0
 70
    32
  0
VERTEX
  5
1CB3
  8
242
  6
CONTINUOUS
 10
52.2196
 20
16.269400000000001
 30
0.0
 70
    32
  0
VERTEX
  5
1CB4
  8
242
  6
CONTINUOUS
 10
52.028100000000002
 20
16.239000000000001
 30
0.0
 70
    32
  0
VERTEX
  5
1CB5
  8
242
  6
CONTINUOUS
 10
51.838900000000002
 20
16.202000000000002
 30
0.0
 70
    32
  0
VERTEX
  5
1CB6
  8
242
  6
CONTINUOUS
 10
51.6524
 20
16.1585
 30
0.0
 70
    32
  0
VERTEX
  5
1CB7
  8
242
  6
CONTINUOUS
 10
51.469299999999997
 20
16.108499999999999
 30
0.0
 70
    32
  0
VERTEX
  5
1CB8
  8
242
  6
CONTINUOUS
 10
51.2898
 20
16.052199999999999
 30
0.0
 70
    32
  0
VERTEX
  5
1CB9
  8
242
  6
CONTINUOUS
 10
51.114400000000003
 20
15.989800000000001
 30
0.0
 70
    32
  0
VERTEX
  5
1CBA
  8
242
  6
CONTINUOUS
 10
50.943600000000004
 20
15.9214
 30
0.0
 70
    32
  0
VERTEX
  5
1CBB
  8
242
  6
CONTINUOUS
 10
50.77770000000001
 20
15.847099999999999
 30
0.0
 70
    32
  0
VERTEX
  5
1CBC
  8
242
  6
CONTINUOUS
 10
50.617199999999997
 20
15.767200000000001
 30
0.0
 70
    32
  0
VERTEX
  5
1CBD
  8
242
  6
CONTINUOUS
 10
50.462400000000002
 20
15.681800000000001
 30
0.0
 70
    32
  0
VERTEX
  5
1CBE
  8
242
  6
CONTINUOUS
 10
50.313800000000001
 20
15.591100000000001
 30
0.0
 70
    32
  0
VERTEX
  5
1CBF
  8
242
  6
CONTINUOUS
 10
50.171599999999998
 20
15.4954
 30
0.0
 70
    32
  0
VERTEX
  5
1CC0
  8
242
  6
CONTINUOUS
 10
50.036200000000001
 20
15.3948
 30
0.0
 70
    32
  0
VERTEX
  5
1CC1
  8
242
  6
CONTINUOUS
 10
49.908000000000001
 20
15.2897
 30
0.0
 70
    32
  0
VERTEX
  5
1CC2
  8
242
  6
CONTINUOUS
 10
49.787199999999999
 20
15.180300000000001
 30
0.0
 70
    32
  0
VERTEX
  5
1CC3
  8
242
  6
CONTINUOUS
 10
49.674100000000003
 20
15.066800000000001
 30
0.0
 70
    32
  0
VERTEX
  5
1CC4
  8
242
  6
CONTINUOUS
 10
49.569099999999999
 20
14.9495
 30
0.0
 70
    32
  0
VERTEX
  5
1CC5
  8
242
  6
CONTINUOUS
 10
49.472299999999997
 20
14.8287
 30
0.0
 70
    32
  0
VERTEX
  5
1CC6
  8
242
  6
CONTINUOUS
 10
49.383999999999993
 20
14.704700000000001
 30
0.0
 70
    32
  0
VERTEX
  5
1CC7
  8
242
  6
CONTINUOUS
 10
49.304499999999997
 20
14.5778
 30
0.0
 70
    32
  0
VERTEX
  5
1CC8
  8
242
  6
CONTINUOUS
 10
49.233800000000002
 20
14.4482
 30
0.0
 70
    32
  0
VERTEX
  5
1CC9
  8
242
  6
CONTINUOUS
 10
49.172199999999997
 20
14.3164
 30
0.0
 70
    32
  0
VERTEX
  5
1CCA
  8
242
  6
CONTINUOUS
 10
49.119900000000001
 20
14.182600000000001
 30
0.0
 70
    32
  0
VERTEX
  5
1CCB
  8
242
  6
CONTINUOUS
 10
49.076900000000002
 20
14.0472
 30
0.0
 70
    32
  0
VERTEX
  5
1CCC
  8
242
  6
CONTINUOUS
 10
49.043300000000002
 20
13.910399999999999
 30
0.0
 70
    32
  0
VERTEX
  5
1CCD
  8
242
  6
CONTINUOUS
 10
49.019300000000001
 20
13.772600000000001
 30
0.0
 70
    32
  0
VERTEX
  5
1CCE
  8
242
  6
CONTINUOUS
 10
49.004800000000003
 20
13.6342
 30
0.0
 70
    32
  0
VERTEX
  5
1CCF
  8
242
  6
CONTINUOUS
 10
49.0
 20
13.4954
 30
0.0
 70
    32
  0
VERTEX
  5
1CD0
  8
242
  6
CONTINUOUS
 10
49.004800000000003
 20
13.3566
 30
0.0
 70
    32
  0
VERTEX
  5
1CD1
  8
242
  6
CONTINUOUS
 10
49.019300000000001
 20
13.2181
 30
0.0
 70
    32
  0
VERTEX
  5
1CD2
  8
242
  6
CONTINUOUS
 10
49.043300000000002
 20
13.080399999999999
 30
0.0
 70
    32
  0
VERTEX
  5
1CD3
  8
242
  6
CONTINUOUS
 10
49.076900000000002
 20
12.9436
 30
0.0
 70
    32
  0
VERTEX
  5
1CD4
  8
242
  6
CONTINUOUS
 10
49.119900000000001
 20
12.8081
 30
0.0
 70
    32
  0
VERTEX
  5
1CD5
  8
242
  6
CONTINUOUS
 10
49.172199999999997
 20
12.674300000000001
 30
0.0
 70
    32
  0
VERTEX
  5
1CD6
  8
242
  6
CONTINUOUS
 10
49.233800000000002
 20
12.5425
 30
0.0
 70
    32
  0
VERTEX
  5
1CD7
  8
242
  6
CONTINUOUS
 10
49.304499999999997
 20
12.413
 30
0.0
 70
    32
  0
VERTEX
  5
1CD8
  8
242
  6
CONTINUOUS
 10
49.383999999999993
 20
12.286099999999999
 30
0.0
 70
    32
  0
VERTEX
  5
1CD9
  8
242
  6
CONTINUOUS
 10
49.472299999999997
 20
12.162100000000001
 30
0.0
 70
    32
  0
VERTEX
  5
1CDA
  8
242
  6
CONTINUOUS
 10
49.569099999999999
 20
12.0413
 30
0.0
 70
    32
  0
VERTEX
  5
1CDB
  8
242
  6
CONTINUOUS
 10
49.674100000000003
 20
11.923999999999999
 30
0.0
 70
    32
  0
VERTEX
  5
1CDC
  8
242
  6
CONTINUOUS
 10
49.787199999999999
 20
11.810499999999999
 30
0.0
 70
    32
  0
VERTEX
  5
1CDD
  8
242
  6
CONTINUOUS
 10
49.908000000000001
 20
11.701000000000001
 30
0.0
 70
    32
  0
VERTEX
  5
1CDE
  8
242
  6
CONTINUOUS
 10
50.036200000000001
 20
11.5959
 30
0.0
 70
    32
  0
VERTEX
  5
1CDF
  8
242
  6
CONTINUOUS
 10
50.171599999999998
 20
11.4954
 30
0.0
 70
    32
  0
VERTEX
  5
1CE0
  8
242
  6
CONTINUOUS
 10
50.313800000000001
 20
11.3996
 30
0.0
 70
    32
  0
VERTEX
  5
1CE1
  8
242
  6
CONTINUOUS
 10
50.462400000000002
 20
11.308999999999999
 30
0.0
 70
    32
  0
VERTEX
  5
1CE2
  8
242
  6
CONTINUOUS
 10
50.617199999999997
 20
11.223599999999999
 30
0.0
 70
    32
  0
VERTEX
  5
1CE3
  8
242
  6
CONTINUOUS
 10
50.77770000000001
 20
11.143599999999999
 30
0.0
 70
    32
  0
VERTEX
  5
1CE4
  8
242
  6
CONTINUOUS
 10
50.943600000000004
 20
11.0693
 30
0.0
 70
    32
  0
VERTEX
  5
1CE5
  8
242
  6
CONTINUOUS
 10
51.114400000000003
 20
11.0009
 30
0.0
 70
    32
  0
VERTEX
  5
1CE6
  8
242
  6
CONTINUOUS
 10
51.2898
 20
10.938499999999999
 30
0.0
 70
    32
  0
VERTEX
  5
1CE7
  8
242
  6
CONTINUOUS
 10
51.469299999999997
 20
10.882199999999999
 30
0.0
 70
    32
  0
VERTEX
  5
1CE8
  8
242
  6
CONTINUOUS
 10
51.6524
 20
10.8323
 30
0.0
 70
    32
  0
VERTEX
  5
1CE9
  8
242
  6
CONTINUOUS
 10
51.838900000000002
 20
10.7887
 30
0.0
 70
    32
  0
VERTEX
  5
1CEA
  8
242
  6
CONTINUOUS
 10
52.028100000000002
 20
10.7517
 30
0.0
 70
    32
  0
VERTEX
  5
1CEB
  8
242
  6
CONTINUOUS
 10
52.2196
 20
10.721299999999999
 30
0.0
 70
    32
  0
VERTEX
  5
1CEC
  8
242
  6
CONTINUOUS
 10
52.4131
 20
10.6976
 30
0.0
 70
    32
  0
VERTEX
  5
1CED
  8
242
  6
CONTINUOUS
 10
52.607900000000001
 20
10.6806
 30
0.0
 70
    32
  0
VERTEX
  5
1CEE
  8
242
  6
CONTINUOUS
 10
52.803699999999999
 20
10.670299999999999
 30
0.0
 70
    32
  0
VERTEX
  5
1CEF
  8
242
  6
CONTINUOUS
 10
53.0
 20
10.6669
 30
0.0
 70
    32
  0
VERTEX
  5
1CF0
  8
242
  6
CONTINUOUS
 10
53.196300000000001
 20
10.670299999999999
 30
0.0
 70
    32
  0
VERTEX
  5
1CF1
  8
242
  6
CONTINUOUS
 10
53.392099999999999
 20
10.6806
 30
0.0
 70
    32
  0
VERTEX
  5
1CF2
  8
242
  6
CONTINUOUS
 10
53.5869
 20
10.6976
 30
0.0
 70
    32
  0
VERTEX
  5
1CF3
  8
242
  6
CONTINUOUS
 10
53.7804
 20
10.721299999999999
 30
0.0
 70
    32
  0
VERTEX
  5
1CF4
  8
242
  6
CONTINUOUS
 10
53.971899999999998
 20
10.7517
 30
0.0
 70
    32
  0
VERTEX
  5
1CF5
  8
242
  6
CONTINUOUS
 10
54.16109999999999
 20
10.7887
 30
0.0
 70
    32
  0
VERTEX
  5
1CF6
  8
242
  6
CONTINUOUS
 10
54.3476
 20
10.8323
 30
0.0
 70
    32
  0
VERTEX
  5
1CF7
  8
242
  6
CONTINUOUS
 10
54.530700000000003
 20
10.882199999999999
 30
0.0
 70
    32
  0
VERTEX
  5
1CF8
  8
242
  6
CONTINUOUS
 10
54.7102
 20
10.938499999999999
 30
0.0
 70
    32
  0
VERTEX
  5
1CF9
  8
242
  6
CONTINUOUS
 10
54.88559999999999
 20
11.0009
 30
0.0
 70
    32
  0
VERTEX
  5
1CFA
  8
242
  6
CONTINUOUS
 10
55.056399999999989
 20
11.0693
 30
0.0
 70
    32
  0
VERTEX
  5
1CFB
  8
242
  6
CONTINUOUS
 10
55.222299999999997
 20
11.143599999999999
 30
0.0
 70
    32
  0
VERTEX
  5
1CFC
  8
242
  6
CONTINUOUS
 10
55.382800000000003
 20
11.223599999999999
 30
0.0
 70
    32
  0
VERTEX
  5
1CFD
  8
242
  6
CONTINUOUS
 10
55.537599999999998
 20
11.308999999999999
 30
0.0
 70
    32
  0
VERTEX
  5
1CFE
  8
242
  6
CONTINUOUS
 10
55.686199999999999
 20
11.3996
 30
0.0
 70
    32
  0
VERTEX
  5
1CFF
  8
242
  6
CONTINUOUS
 10
55.828400000000002
 20
11.4954
 30
0.0
 70
    32
  0
VERTEX
  5
1D00
  8
242
  6
CONTINUOUS
 10
55.963799999999992
 20
11.5959
 30
0.0
 70
    32
  0
VERTEX
  5
1D01
  8
242
  6
CONTINUOUS
 10
56.091999999999999
 20
11.701000000000001
 30
0.0
 70
    32
  0
VERTEX
  5
1D02
  8
242
  6
CONTINUOUS
 10
56.212800000000001
 20
11.810499999999999
 30
0.0
 70
    32
  0
VERTEX
  5
1D03
  8
242
  6
CONTINUOUS
 10
56.325899999999997
 20
11.923999999999999
 30
0.0
 70
    32
  0
VERTEX
  5
1D04
  8
242
  6
CONTINUOUS
 10
56.430900000000001
 20
12.0413
 30
0.0
 70
    32
  0
VERTEX
  5
1D05
  8
242
  6
CONTINUOUS
 10
56.527700000000003
 20
12.162100000000001
 30
0.0
 70
    32
  0
VERTEX
  5
1D06
  8
242
  6
CONTINUOUS
 10
56.615999999999993
 20
12.286099999999999
 30
0.0
 70
    32
  0
VERTEX
  5
1D07
  8
242
  6
CONTINUOUS
 10
56.695500000000003
 20
12.413
 30
0.0
 70
    32
  0
VERTEX
  5
1D08
  8
242
  6
CONTINUOUS
 10
56.766199999999991
 20
12.5425
 30
0.0
 70
    32
  0
VERTEX
  5
1D09
  8
242
  6
CONTINUOUS
 10
56.827800000000011
 20
12.674300000000001
 30
0.0
 70
    32
  0
VERTEX
  5
1D0A
  8
242
  6
CONTINUOUS
 10
56.880099999999999
 20
12.8081
 30
0.0
 70
    32
  0
VERTEX
  5
1D0B
  8
242
  6
CONTINUOUS
 10
56.923099999999991
 20
12.9436
 30
0.0
 70
    32
  0
VERTEX
  5
1D0C
  8
242
  6
CONTINUOUS
 10
56.956699999999991
 20
13.080399999999999
 30
0.0
 70
    32
  0
VERTEX
  5
1D0D
  8
242
  6
CONTINUOUS
 10
56.980699999999999
 20
13.2181
 30
0.0
 70
    32
  0
VERTEX
  5
1D0E
  8
242
  6
CONTINUOUS
 10
56.99519999999999
 20
13.3566
 30
0.0
 70
    32
  0
VERTEX
  5
1D0F
  8
242
  6
CONTINUOUS
 10
57.0
 20
13.4954
 30
0.0
 70
    32
  0
SEQEND
  5
1D10
  8
242
  6
CONTINUOUS
  0
POLYLINE
  5
1D11
  8
241
  6
CONTINUOUS
 66
     1
 10
0.0
 20
0.0
 30
0.0
 70
     8
  0
VERTEX
  5
1D12
  8
241
  6
CONTINUOUS
 10
49.625
 20
13.580500000000001
 30
0.0
 70
    32
  0
VERTEX
  5
1D13
  8
241
  6
CONTINUOUS
 10
49.629100000000001
 20
13.4634
 30
0.0
 70
    32
  0
VERTEX
  5
1D14
  8
241
  6
CONTINUOUS
 10
49.641300000000001
 20
13.3466
 30
0.0
 70
    32
  0
VERTEX
  5
1D15
  8
241
  6
CONTINUOUS
 10
49.661499999999982
 20
13.2303
 30
0.0
 70
    32
  0
VERTEX
  5
1D16
  8
241
  6
CONTINUOUS
 10
49.689799999999998
 20
13.1149
 30
0.0
 70
    32
  0
VERTEX
  5
1D17
  8
241
  6
CONTINUOUS
 10
49.726100000000002
 20
13.0006
 30
0.0
 70
    32
  0
VERTEX
  5
1D18
  8
241
  6
CONTINUOUS
 10
49.770299999999999
 20
12.887700000000001
 30
0.0
 70
    32
  0
VERTEX
  5
1D19
  8
241
  6
CONTINUOUS
 10
49.822299999999998
 20
12.7765
 30
0.0
 70
    32
  0
VERTEX
  5
1D1A
  8
241
  6
CONTINUOUS
 10
49.881900000000002
 20
12.667199999999999
 30
0.0
 70
    32
  0
VERTEX
  5
1D1B
  8
241
  6
CONTINUOUS
 10
49.948999999999998
 20
12.5601
 30
0.0
 70
    32
  0
VERTEX
  5
1D1C
  8
241
  6
CONTINUOUS
 10
50.023499999999991
 20
12.455500000000001
 30
0.0
 70
    32
  0
VERTEX
  5
1D1D
  8
241
  6
CONTINUOUS
 10
50.105200000000004
 20
12.3536
 30
0.0
 70
    32
  0
VERTEX
  5
1D1E
  8
241
  6
CONTINUOUS
 10
50.193800000000003
 20
12.2546
 30
0.0
 70
    32
  0
VERTEX
  5
1D1F
  8
241
  6
CONTINUOUS
 10
50.289200000000001
 20
12.158899999999999
 30
0.0
 70
    32
  0
VERTEX
  5
1D20
  8
241
  6
CONTINUOUS
 10
50.391100000000002
 20
12.0665
 30
0.0
 70
    32
  0
VERTEX
  5
1D21
  8
241
  6
CONTINUOUS
 10
50.499299999999991
 20
11.9778
 30
0.0
 70
    32
  0
VERTEX
  5
1D22
  8
241
  6
CONTINUOUS
 10
50.613500000000002
 20
11.893000000000001
 30
0.0
 70
    32
  0
VERTEX
  5
1D23
  8
241
  6
CONTINUOUS
 10
50.733499999999999
 20
11.812200000000001
 30
0.0
 70
    32
  0
VERTEX
  5
1D24
  8
241
  6
CONTINUOUS
 10
50.858899999999998
 20
11.7357
 30
0.0
 70
    32
  0
VERTEX
  5
1D25
  8
241
  6
CONTINUOUS
 10
50.9895
 20
11.663600000000001
 30
0.0
 70
    32
  0
VERTEX
  5
1D26
  8
241
  6
CONTINUOUS
 10
51.125
 20
11.5962
 30
0.0
 70
    32
  0
VERTEX
  5
1D27
  8
241
  6
CONTINUOUS
 10
51.264899999999997
 20
11.5335
 30
0.0
 70
    32
  0
VERTEX
  5
1D28
  8
241
  6
CONTINUOUS
 10
51.408999999999999
 20
11.4758
 30
0.0
 70
    32
  0
VERTEX
  5
1D29
  8
241
  6
CONTINUOUS
 10
51.557000000000002
 20
11.4231
 30
0.0
 70
    32
  0
VERTEX
  5
1D2A
  8
241
  6
CONTINUOUS
 10
51.708399999999997
 20
11.3757
 30
0.0
 70
    32
  0
VERTEX
  5
1D2B
  8
241
  6
CONTINUOUS
 10
51.863
 20
11.333500000000001
 30
0.0
 70
    32
  0
VERTEX
  5
1D2C
  8
241
  6
CONTINUOUS
 10
52.020299999999999
 20
11.296799999999999
 30
0.0
 70
    32
  0
VERTEX
  5
1D2D
  8
241
  6
CONTINUOUS
 10
52.179900000000004
 20
11.265499999999999
 30
0.0
 70
    32
  0
VERTEX
  5
1D2E
  8
241
  6
CONTINUOUS
 10
52.3416
 20
11.2399
 30
0.0
 70
    32
  0
VERTEX
  5
1D2F
  8
241
  6
CONTINUOUS
 10
52.504800000000003
 20
11.219799999999999
 30
0.0
 70
    32
  0
VERTEX
  5
1D30
  8
241
  6
CONTINUOUS
 10
52.669199999999982
 20
11.205500000000001
 30
0.0
 70
    32
  0
VERTEX
  5
1D31
  8
241
  6
CONTINUOUS
 10
52.834400000000002
 20
11.196899999999999
 30
0.0
 70
    32
  0
VERTEX
  5
1D32
  8
241
  6
CONTINUOUS
 10
53.0
 20
11.194000000000001
 30
0.0
 70
    32
  0
VERTEX
  5
1D33
  8
241
  6
CONTINUOUS
 10
53.165599999999991
 20
11.196899999999999
 30
0.0
 70
    32
  0
VERTEX
  5
1D34
  8
241
  6
CONTINUOUS
 10
53.330800000000004
 20
11.205500000000001
 30
0.0
 70
    32
  0
VERTEX
  5
1D35
  8
241
  6
CONTINUOUS
 10
53.495199999999997
 20
11.219799999999999
 30
0.0
 70
    32
  0
VERTEX
  5
1D36
  8
241
  6
CONTINUOUS
 10
53.6584
 20
11.2399
 30
0.0
 70
    32
  0
VERTEX
  5
1D37
  8
241
  6
CONTINUOUS
 10
53.820099999999996
 20
11.265499999999999
 30
0.0
 70
    32
  0
VERTEX
  5
1D38
  8
241
  6
CONTINUOUS
 10
53.979700000000001
 20
11.296799999999999
 30
0.0
 70
    32
  0
VERTEX
  5
1D39
  8
241
  6
CONTINUOUS
 10
54.137
 20
11.333500000000001
 30
0.0
 70
    32
  0
VERTEX
  5
1D3A
  8
241
  6
CONTINUOUS
 10
54.291600000000003
 20
11.3757
 30
0.0
 70
    32
  0
VERTEX
  5
1D3B
  8
241
  6
CONTINUOUS
 10
54.442999999999998
 20
11.4231
 30
0.0
 70
    32
  0
VERTEX
  5
1D3C
  8
241
  6
CONTINUOUS
 10
54.591000000000001
 20
11.4758
 30
0.0
 70
    32
  0
VERTEX
  5
1D3D
  8
241
  6
CONTINUOUS
 10
54.735100000000003
 20
11.5335
 30
0.0
 70
    32
  0
VERTEX
  5
1D3E
  8
241
  6
CONTINUOUS
 10
54.875
 20
11.5962
 30
0.0
 70
    32
  0
VERTEX
  5
1D3F
  8
241
  6
CONTINUOUS
 10
55.0105
 20
11.663600000000001
 30
0.0
 70
    32
  0
VERTEX
  5
1D40
  8
241
  6
CONTINUOUS
 10
55.141100000000002
 20
11.7357
 30
0.0
 70
    32
  0
VERTEX
  5
1D41
  8
241
  6
CONTINUOUS
 10
55.266500000000001
 20
11.812200000000001
 30
0.0
 70
    32
  0
VERTEX
  5
1D42
  8
241
  6
CONTINUOUS
 10
55.386499999999998
 20
11.893000000000001
 30
0.0
 70
    32
  0
VERTEX
  5
1D43
  8
241
  6
CONTINUOUS
 10
55.500700000000002
 20
11.9778
 30
0.0
 70
    32
  0
VERTEX
  5
1D44
  8
241
  6
CONTINUOUS
 10
55.608899999999998
 20
12.0665
 30
0.0
 70
    32
  0
VERTEX
  5
1D45
  8
241
  6
CONTINUOUS
 10
55.710799999999999
 20
12.158899999999999
 30
0.0
 70
    32
  0
VERTEX
  5
1D46
  8
241
  6
CONTINUOUS
 10
55.80619999999999
 20
12.2546
 30
0.0
 70
    32
  0
VERTEX
  5
1D47
  8
241
  6
CONTINUOUS
 10
55.894799999999996
 20
12.3536
 30
0.0
 70
    32
  0
VERTEX
  5
1D48
  8
241
  6
CONTINUOUS
 10
55.976500000000001
 20
12.455500000000001
 30
0.0
 70
    32
  0
VERTEX
  5
1D49
  8
241
  6
CONTINUOUS
 10
56.051000000000002
 20
12.5601
 30
0.0
 70
    32
  0
VERTEX
  5
1D4A
  8
241
  6
CONTINUOUS
 10
56.118099999999998
 20
12.667199999999999
 30
0.0
 70
    32
  0
VERTEX
  5
1D4B
  8
241
  6
CONTINUOUS
 10
56.177700000000002
 20
12.7765
 30
0.0
 70
    32
  0
VERTEX
  5
1D4C
  8
241
  6
CONTINUOUS
 10
56.229700000000001
 20
12.887700000000001
 30
0.0
 70
    32
  0
VERTEX
  5
1D4D
  8
241
  6
CONTINUOUS
 10
56.273899999999998
 20
13.0006
 30
0.0
 70
    32
  0
VERTEX
  5
1D4E
  8
241
  6
CONTINUOUS
 10
56.310200000000002
 20
13.1149
 30
0.0
 70
    32
  0
VERTEX
  5
1D4F
  8
241
  6
CONTINUOUS
 10
56.338500000000003
 20
13.2303
 30
0.0
 70
    32
  0
VERTEX
  5
1D50
  8
241
  6
CONTINUOUS
 10
56.358699999999999
 20
13.3466
 30
0.0
 70
    32
  0
VERTEX
  5
1D51
  8
241
  6
CONTINUOUS
 10
56.370899999999999
 20
13.4634
 30
0.0
 70
    32
  0
VERTEX
  5
1D52
  8
241
  6
CONTINUOUS
 10
56.375
 20
13.580500000000001
 30
0.0
 70
    32
  0
VERTEX
  5
1D53
  8
241
  6
CONTINUOUS
 10
56.370899999999999
 20
13.6976
 30
0.0
 70
    32
  0
VERTEX
  5
1D54
  8
241
  6
CONTINUOUS
 10
56.358699999999999
 20
13.814399999999999
 30
0.0
 70
    32
  0
VERTEX
  5
1D55
  8
241
  6
CONTINUOUS
 10
56.338500000000003
 20
13.9307
 30
0.0
 70
    32
  0
VERTEX
  5
1D56
  8
241
  6
CONTINUOUS
 10
56.310200000000002
 20
14.046099999999999
 30
0.0
 70
    32
  0
VERTEX
  5
1D57
  8
241
  6
CONTINUOUS
 10
56.273899999999998
 20
14.160399999999999
 30
0.0
 70
    32
  0
VERTEX
  5
1D58
  8
241
  6
CONTINUOUS
 10
56.229700000000001
 20
14.273199999999999
 30
0.0
 70
    32
  0
VERTEX
  5
1D59
  8
241
  6
CONTINUOUS
 10
56.177700000000002
 20
14.384499999999999
 30
0.0
 70
    32
  0
VERTEX
  5
1D5A
  8
241
  6
CONTINUOUS
 10
56.118099999999998
 20
14.4938
 30
0.0
 70
    32
  0
VERTEX
  5
1D5B
  8
241
  6
CONTINUOUS
 10
56.051000000000002
 20
14.6008
 30
0.0
 70
    32
  0
VERTEX
  5
1D5C
  8
241
  6
CONTINUOUS
 10
55.976500000000001
 20
14.705500000000001
 30
0.0
 70
    32
  0
VERTEX
  5
1D5D
  8
241
  6
CONTINUOUS
 10
55.894799999999996
 20
14.807399999999999
 30
0.0
 70
    32
  0
VERTEX
  5
1D5E
  8
241
  6
CONTINUOUS
 10
55.80619999999999
 20
14.9063
 30
0.0
 70
    32
  0
VERTEX
  5
1D5F
  8
241
  6
CONTINUOUS
 10
55.710799999999999
 20
15.0021
 30
0.0
 70
    32
  0
VERTEX
  5
1D60
  8
241
  6
CONTINUOUS
 10
55.608899999999998
 20
15.0945
 30
0.0
 70
    32
  0
VERTEX
  5
1D61
  8
241
  6
CONTINUOUS
 10
55.500700000000002
 20
15.183199999999999
 30
0.0
 70
    32
  0
VERTEX
  5
1D62
  8
241
  6
CONTINUOUS
 10
55.386499999999998
 20
15.268000000000001
 30
0.0
 70
    32
  0
VERTEX
  5
1D63
  8
241
  6
CONTINUOUS
 10
55.266500000000001
 20
15.348800000000001
 30
0.0
 70
    32
  0
VERTEX
  5
1D64
  8
241
  6
CONTINUOUS
 10
55.141100000000002
 20
15.4253
 30
0.0
 70
    32
  0
VERTEX
  5
1D65
  8
241
  6
CONTINUOUS
 10
55.0105
 20
15.497299999999999
 30
0.0
 70
    32
  0
VERTEX
  5
1D66
  8
241
  6
CONTINUOUS
 10
54.875
 20
15.5648
 30
0.0
 70
    32
  0
VERTEX
  5
1D67
  8
241
  6
CONTINUOUS
 10
54.735100000000003
 20
15.6274
 30
0.0
 70
    32
  0
VERTEX
  5
1D68
  8
241
  6
CONTINUOUS
 10
54.591000000000001
 20
15.6852
 30
0.0
 70
    32
  0
VERTEX
  5
1D69
  8
241
  6
CONTINUOUS
 10
54.442999999999998
 20
15.7378
 30
0.0
 70
    32
  0
VERTEX
  5
1D6A
  8
241
  6
CONTINUOUS
 10
54.291600000000003
 20
15.785299999999999
 30
0.0
 70
    32
  0
VERTEX
  5
1D6B
  8
241
  6
CONTINUOUS
 10
54.137
 20
15.827500000000001
 30
0.0
 70
    32
  0
VERTEX
  5
1D6C
  8
241
  6
CONTINUOUS
 10
53.979700000000001
 20
15.8642
 30
0.0
 70
    32
  0
VERTEX
  5
1D6D
  8
241
  6
CONTINUOUS
 10
53.820099999999996
 20
15.8955
 30
0.0
 70
    32
  0
VERTEX
  5
1D6E
  8
241
  6
CONTINUOUS
 10
53.6584
 20
15.921099999999999
 30
0.0
 70
    32
  0
VERTEX
  5
1D6F
  8
241
  6
CONTINUOUS
 10
53.495199999999997
 20
15.9411
 30
0.0
 70
    32
  0
VERTEX
  5
1D70
  8
241
  6
CONTINUOUS
 10
53.330800000000004
 20
15.955500000000001
 30
0.0
 70
    32
  0
VERTEX
  5
1D71
  8
241
  6
CONTINUOUS
 10
53.165599999999991
 20
15.9641
 30
0.0
 70
    32
  0
VERTEX
  5
1D72
  8
241
  6
CONTINUOUS
 10
53.0
 20
15.967000000000001
 30
0.0
 70
    32
  0
VERTEX
  5
1D73
  8
241
  6
CONTINUOUS
 10
52.834400000000002
 20
15.9641
 30
0.0
 70
    32
  0
VERTEX
  5
1D74
  8
241
  6
CONTINUOUS
 10
52.669199999999982
 20
15.955500000000001
 30
0.0
 70
    32
  0
VERTEX
  5
1D75
  8
241
  6
CONTINUOUS
 10
52.504800000000003
 20
15.9411
 30
0.0
 70
    32
  0
VERTEX
  5
1D76
  8
241
  6
CONTINUOUS
 10
52.3416
 20
15.921099999999999
 30
0.0
 70
    32
  0
VERTEX
  5
1D77
  8
241
  6
CONTINUOUS
 10
52.179900000000004
 20
15.8955
 30
0.0
 70
    32
  0
VERTEX
  5
1D78
  8
241
  6
CONTINUOUS
 10
52.020299999999999
 20
15.8642
 30
0.0
 70
    32
  0
VERTEX
  5
1D79
  8
241
  6
CONTINUOUS
 10
51.863
 20
15.827500000000001
 30
0.0
 70
    32
  0
VERTEX
  5
1D7A
  8
241
  6
CONTINUOUS
 10
51.708399999999997
 20
15.785299999999999
 30
0.0
 70
    32
  0
VERTEX
  5
1D7B
  8
241
  6
CONTINUOUS
 10
51.557000000000002
 20
15.7378
 30
0.0
 70
    32
  0
VERTEX
  5
1D7C
  8
241
  6
CONTINUOUS
 10
51.408999999999999
 20
15.6852
 30
0.0
 70
    32
  0
VERTEX
  5
1D7D
  8
241
  6
CONTINUOUS
 10
51.264899999999997
 20
15.6274
 30
0.0
 70
    32
  0
VERTEX
  5
1D7E
  8
241
  6
CONTINUOUS
 10
51.125
 20
15.5648
 30
0.0
 70
    32
  0
VERTEX
  5
1D7F
  8
241
  6
CONTINUOUS
 10
50.9895
 20
15.497299999999999
 30
0.0
 70
    32
  0
VERTEX
  5
1D80
  8
241
  6
CONTINUOUS
 10
50.858899999999998
 20
15.4253
 30
0.0
 70
    32
  0
VERTEX
  5
1D81
  8
241
  6
CONTINUOUS
 10
50.733499999999999
 20
15.348800000000001
 30
0.0
 70
    32
  0
VERTEX
  5
1D82
  8
241
  6
CONTINUOUS
 10
50.613500000000002
 20
15.268000000000001
 30
0.0
 70
    32
  0
VERTEX
  5
1D83
  8
241
  6
CONTINUOUS
 10
50.499299999999991
 20
15.183199999999999
 30
0.0
 70
    32
  0
VERTEX
  5
1D84
  8
241
  6
CONTINUOUS
 10
50.391100000000002
 20
15.0945
 30
0.0
 70
    32
  0
VERTEX
  5
1D85
  8
241
  6
CONTINUOUS
 10
50.289200000000001
 20
15.0021
 30
0.0
 70
    32
  0
VERTEX
  5
1D86
  8
241
  6
CONTINUOUS
 10
50.193800000000003
 20
14.9063
 30
0.0
 70
    32
  0
VERTEX
  5
1D87
  8
241
  6
CONTINUOUS
 10
50.105200000000004
 20
14.807399999999999
 30
0.0
 70
    32
  0
VERTEX
  5
1D88
  8
241
  6
CONTINUOUS
 10
50.023499999999991
 20
14.705500000000001
 30
0.0
 70
    32
  0
VERTEX
  5
1D89
  8
241
  6
CONTINUOUS
 10
49.948999999999998
 20
14.6008
 30
0.0
 70
    32
  0
VERTEX
  5
1D8A
  8
241
  6
CONTINUOUS
 10
49.881900000000002
 20
14.4938
 30
0.0
 70
    32
  0
VERTEX
  5
1D8B
  8
241
  6
CONTINUOUS
 10
49.822299999999998
 20
14.384499999999999
 30
0.0
 70
    32
  0
VERTEX
  5
1D8C
  8
241
  6
CONTINUOUS
 10
49.770299999999999
 20
14.273199999999999
 30
0.0
 70
    32
  0
VERTEX
  5
1D8D
  8
241
  6
CONTINUOUS
 10
49.726100000000002
 20
14.160399999999999
 30
0.0
 70
    32
  0
VERTEX
  5
1D8E
  8
241
  6
CONTINUOUS
 10
49.689799999999998
 20
14.046099999999999
 30
0.0
 70
    32
  0
VERTEX
  5
1D8F
  8
241
  6
CONTINUOUS
 10
49.661499999999982
 20
13.9307
 30
0.0
 70
    32
  0
VERTEX
  5
1D90
  8
241
  6
CONTINUOUS
 10
49.641300000000001
 20
13.814399999999999
 30
0.0
 70
    32
  0
VERTEX
  5
1D91
  8
241
  6
CONTINUOUS
 10
49.629100000000001
 20
13.6976
 30
0.0
 70
    32
  0
VERTEX
  5
1D92
  8
241
  6
CONTINUOUS
 10
49.625
 20
13.580500000000001
 30
0.0
 70
    32
  0
SEQEND
  5
1D93
  8
241
  6
CONTINUOUS
  0
LINE
  5
1D94
  8
245
  6
CENTER2
 10
48.999999999998181
 20
13.788582233137721
 30
0.0
 11
56.999999999998181
 21
13.788582233137261
 31
0.0
  0
LINE
  5
1D95
  8
245
  6
CENTER2
 10
52.999999999998181
 20
10.66694245151939
 30
0.0
 11
53.0
 21
16.32379670101227
 31
0.0
  0
LINE
  5
1D9B
  8
240
  6
CONTINUOUS
 10
2.7769459312098661
 20
-19.500000000003791
 30
0.0
 11
64.999999999986883
 21
-19.499999999996241
 31
0.0
  0
LINE
  5
1D9C
  8
241
  6
CONTINUOUS
 10
45.999999999998181
 20
19.499999999998629
 30
0.0
 11
46.000000000001812
 21
-19.499999999998629
 31
0.0
  0
LINE
  5
1D9E
  8
245
  6
CENTER2
 10
-66.000000000001819
 20
19.999999999979991
 30
0.0
 11
-66.000000000005471
 21
-20.000000000012729
 31
0.0
1001
GENIUS_GENOREF_13
1005
1F12
  0
LINE
  5
1DA5
  8
240
  6
CONTINUOUS
 10
-9.0000000000414904
 20
26.499999999965741
 30
0.0
 11
-7.6262612902781131
 21
26.999999999978169
 31
0.0
  0
ARC
  5
1DA6
  8
240
  6
CONTINUOUS
 10
-7.4499343095685582
 20
25.999999999978169
 30
0.0
 40
1.0
 50
90.0
 51
109.9999999999892
1001
GENIUS_GENODEF_13
1002
{
1000
HIER
1070
     0
1002
}
1002
{
1000
MANEDIT
1070
     0
1002
}
1002
{
1000
NOSEL
1070
     0
1002
}
1002
{
1000
BEHIND
1070
     0
1002
}
1002
{
1000
OTHER
1070
     0
1002
}
1002
{
1000
REACTOR
1002
}
1001
GENIUS_GENOBJ-N-FIL_13
1002
{
1000
OWNER
1000
GEN
1002
}
  0
LINE
  5
1DA7
  8
240
  6
CONTINUOUS
 10
-0.000000000002579
 20
26.999999999978169
 30
0.0
 11
-7.6262612902781131
 21
26.999999999978169
 31
0.0
  0
LINE
  5
1DAA
  8
240
  6
CONTINUOUS
 10
-0.000000000002579
 20
26.999999999978169
 30
0.0
 11
1.811020104918788
 21
20.241180954900631
 31
0.0
  0
LINE
  5
1DB0
  8
240
  6
CONTINUOUS
 10
-51.500000000020009
 20
19.999999999983629
 30
0.0
 11
-9.0000000000313172
 21
19.999999999987541
 31
0.0
  0
LINE
  5
1DB2
  8
240
  6
CONTINUOUS
 10
-55.000000000020009
 20
16.499999999983629
 30
0.0
 11
-51.500000000020009
 21
19.999999999983629
 31
0.0
  0
LINE
  5
1DB3
  8
240
  6
CONTINUOUS
 10
-55.000000000020009
 20
16.499999999983629
 30
0.0
 11
-66.000000000005471
 21
16.499999999983629
 31
0.0
  0
LINE
  5
1DB4
  8
240
  6
CONTINUOUS
 10
-76.999999999987267
 20
16.49999999998181
 30
0.0
 11
-66.000000000001819
 21
16.499999999956341
 31
0.0
  0
LINE
  5
1DB5
  8
240
  6
CONTINUOUS
 10
-76.999999999987267
 20
16.49999999998181
 30
0.0
 11
-80.499999999990905
 21
19.99999999998181
 31
0.0
  0
LINE
  5
1DB9
  8
241
  6
CONTINUOUS
 10
-7.6262612902773981
 20
26.999999999978169
 30
0.0
 11
-7.6262612902773981
 21
-26.999999999993971
 31
0.0
  0
LINE
  5
1DBD
  8
240
  6
CONTINUOUS
 10
0.0000000000061045
 20
-26.999999999981501
 30
0.0
 11
1.8110201049208181
 21
-20.241180954901608
 31
0.0
  0
LINE
  5
1DC3
  8
240
  6
CONTINUOUS
 10
-51.500000000020009
 20
-20.000000000016371
 30
0.0
 11
-8.9999999999686846
 21
-20.000000000020279
 31
0.0
  0
LINE
  5
1DC5
  8
240
  6
CONTINUOUS
 10
-55.000000000020009
 20
-16.500000000016371
 30
0.0
 11
-51.500000000020009
 21
-20.000000000016371
 31
0.0
  0
LINE
  5
1DC6
  8
240
  6
CONTINUOUS
 10
-55.000000000020009
 20
-16.500000000016371
 30
0.0
 11
-66.000000000005471
 21
-16.500000000016371
 31
0.0
  0
LINE
  5
1DC7
  8
240
  6
CONTINUOUS
 10
-76.999999999987267
 20
-16.500000000014541
 30
0.0
 11
-66.000000000001819
 21
-16.499999999989079
 31
0.0
  0
LINE
  5
1DC8
  8
240
  6
CONTINUOUS
 10
-76.999999999987267
 20
-16.500000000014541
 30
0.0
 11
-80.499999999990905
 21
-20.000000000014541
 31
0.0
  0
LINE
  5
1DCD
  8
241
  6
CONTINUOUS
 10
44.39999999999236
 20
-19.499999999999069
 30
0.0
 11
44.39999999999236
 21
19.499999999999069
 31
0.0
  0
LINE
  5
1DCE
  8
241
  6
CONTINUOUS
 10
42.999999999998153
 20
-19.499999999998629
 30
0.0
 11
43.000000000005457
 21
19.499999999998629
 31
0.0
  0
LINE
  5
1DCF
  8
241
  6
CONTINUOUS
 10
41.399999999992353
 20
-19.499999999999542
 30
0.0
 11
41.399999999992353
 21
19.499999999999542
 31
0.0
  0
LINE
  5
1DD0
  8
241
  6
CONTINUOUS
 10
2.0364138624736361
 20
-19.399999999995082
 30
0.0
 11
2.0364138624736361
 21
19.39999999999554
 31
0.0
  0
POLYLINE
  5
1DD1
  8
242
  6
CONTINUOUS
 66
     1
 10
0.0
 20
0.0
 30
0.0
 70
     8
  0
VERTEX
  5
1DD2
  8
242
  6
CONTINUOUS
 10
57.0
 20
-13.4954
 30
0.0
 70
    32
  0
VERTEX
  5
1DD3
  8
242
  6
CONTINUOUS
 10
56.99519999999999
 20
-13.6342
 30
0.0
 70
    32
  0
VERTEX
  5
1DD4
  8
242
  6
CONTINUOUS
 10
56.980699999999999
 20
-13.772600000000001
 30
0.0
 70
    32
  0
VERTEX
  5
1DD5
  8
242
  6
CONTINUOUS
 10
56.956699999999991
 20
-13.910399999999999
 30
0.0
 70
    32
  0
VERTEX
  5
1DD6
  8
242
  6
CONTINUOUS
 10
56.923099999999991
 20
-14.0472
 30
0.0
 70
    32
  0
VERTEX
  5
1DD7
  8
242
  6
CONTINUOUS
 10
56.880099999999999
 20
-14.182600000000001
 30
0.0
 70
    32
  0
VERTEX
  5
1DD8
  8
242
  6
CONTINUOUS
 10
56.827800000000011
 20
-14.3164
 30
0.0
 70
    32
  0
VERTEX
  5
1DD9
  8
242
  6
CONTINUOUS
 10
56.766199999999991
 20
-14.4482
 30
0.0
 70
    32
  0
VERTEX
  5
1DDA
  8
242
  6
CONTINUOUS
 10
56.695500000000003
 20
-14.5778
 30
0.0
 70
    32
  0
VERTEX
  5
1DDB
  8
242
  6
CONTINUOUS
 10
56.615999999999993
 20
-14.704700000000001
 30
0.0
 70
    32
  0
VERTEX
  5
1DDC
  8
242
  6
CONTINUOUS
 10
56.527700000000003
 20
-14.8287
 30
0.0
 70
    32
  0
VERTEX
  5
1DDD
  8
242
  6
CONTINUOUS
 10
56.430900000000001
 20
-14.9495
 30
0.0
 70
    32
  0
VERTEX
  5
1DDE
  8
242
  6
CONTINUOUS
 10
56.325899999999997
 20
-15.066800000000001
 30
0.0
 70
    32
  0
VERTEX
  5
1DDF
  8
242
  6
CONTINUOUS
 10
56.212800000000001
 20
-15.180300000000001
 30
0.0
 70
    32
  0
VERTEX
  5
1DE0
  8
242
  6
CONTINUOUS
 10
56.091999999999999
 20
-15.2897
 30
0.0
 70
    32
  0
VERTEX
  5
1DE1
  8
242
  6
CONTINUOUS
 10
55.963799999999992
 20
-15.3948
 30
0.0
 70
    32
  0
VERTEX
  5
1DE2
  8
242
  6
CONTINUOUS
 10
55.828400000000002
 20
-15.4954
 30
0.0
 70
    32
  0
VERTEX
  5
1DE3
  8
242
  6
CONTINUOUS
 10
55.686199999999999
 20
-15.591100000000001
 30
0.0
 70
    32
  0
VERTEX
  5
1DE4
  8
242
  6
CONTINUOUS
 10
55.537599999999998
 20
-15.681800000000001
 30
0.0
 70
    32
  0
VERTEX
  5
1DE5
  8
242
  6
CONTINUOUS
 10
55.382800000000003
 20
-15.767200000000001
 30
0.0
 70
    32
  0
VERTEX
  5
1DE6
  8
242
  6
CONTINUOUS
 10
55.222299999999997
 20
-15.847099999999999
 30
0.0
 70
    32
  0
VERTEX
  5
1DE7
  8
242
  6
CONTINUOUS
 10
55.056399999999989
 20
-15.9214
 30
0.0
 70
    32
  0
VERTEX
  5
1DE8
  8
242
  6
CONTINUOUS
 10
54.88559999999999
 20
-15.989800000000001
 30
0.0
 70
    32
  0
VERTEX
  5
1DE9
  8
242
  6
CONTINUOUS
 10
54.7102
 20
-16.052199999999999
 30
0.0
 70
    32
  0
VERTEX
  5
1DEA
  8
242
  6
CONTINUOUS
 10
54.530700000000003
 20
-16.108499999999999
 30
0.0
 70
    32
  0
VERTEX
  5
1DEB
  8
242
  6
CONTINUOUS
 10
54.3476
 20
-16.1585
 30
0.0
 70
    32
  0
VERTEX
  5
1DEC
  8
242
  6
CONTINUOUS
 10
54.16109999999999
 20
-16.202000000000002
 30
0.0
 70
    32
  0
VERTEX
  5
1DED
  8
242
  6
CONTINUOUS
 10
53.971899999999998
 20
-16.239000000000001
 30
0.0
 70
    32
  0
VERTEX
  5
1DEE
  8
242
  6
CONTINUOUS
 10
53.7804
 20
-16.269400000000001
 30
0.0
 70
    32
  0
VERTEX
  5
1DEF
  8
242
  6
CONTINUOUS
 10
53.5869
 20
-16.293199999999999
 30
0.0
 70
    32
  0
VERTEX
  5
1DF0
  8
242
  6
CONTINUOUS
 10
53.392099999999999
 20
-16.310199999999998
 30
0.0
 70
    32
  0
VERTEX
  5
1DF1
  8
242
  6
CONTINUOUS
 10
53.196300000000001
 20
-16.320399999999999
 30
0.0
 70
    32
  0
VERTEX
  5
1DF2
  8
242
  6
CONTINUOUS
 10
53.0
 20
-16.323799999999999
 30
0.0
 70
    32
  0
VERTEX
  5
1DF3
  8
242
  6
CONTINUOUS
 10
52.803699999999999
 20
-16.320399999999999
 30
0.0
 70
    32
  0
VERTEX
  5
1DF4
  8
242
  6
CONTINUOUS
 10
52.607900000000001
 20
-16.310199999999998
 30
0.0
 70
    32
  0
VERTEX
  5
1DF5
  8
242
  6
CONTINUOUS
 10
52.4131
 20
-16.293199999999999
 30
0.0
 70
    32
  0
VERTEX
  5
1DF6
  8
242
  6
CONTINUOUS
 10
52.2196
 20
-16.269400000000001
 30
0.0
 70
    32
  0
VERTEX
  5
1DF7
  8
242
  6
CONTINUOUS
 10
52.028100000000002
 20
-16.239000000000001
 30
0.0
 70
    32
  0
VERTEX
  5
1DF8
  8
242
  6
CONTINUOUS
 10
51.838900000000002
 20
-16.202000000000002
 30
0.0
 70
    32
  0
VERTEX
  5
1DF9
  8
242
  6
CONTINUOUS
 10
51.6524
 20
-16.1585
 30
0.0
 70
    32
  0
VERTEX
  5
1DFA
  8
242
  6
CONTINUOUS
 10
51.469299999999997
 20
-16.108499999999999
 30
0.0
 70
    32
  0
VERTEX
  5
1DFB
  8
242
  6
CONTINUOUS
 10
51.2898
 20
-16.052199999999999
 30
0.0
 70
    32
  0
VERTEX
  5
1DFC
  8
242
  6
CONTINUOUS
 10
51.114400000000003
 20
-15.989800000000001
 30
0.0
 70
    32
  0
VERTEX
  5
1DFD
  8
242
  6
CONTINUOUS
 10
50.943600000000004
 20
-15.9214
 30
0.0
 70
    32
  0
VERTEX
  5
1DFE
  8
242
  6
CONTINUOUS
 10
50.77770000000001
 20
-15.847099999999999
 30
0.0
 70
    32
  0
VERTEX
  5
1DFF
  8
242
  6
CONTINUOUS
 10
50.617199999999997
 20
-15.767200000000001
 30
0.0
 70
    32
  0
VERTEX
  5
1E00
  8
242
  6
CONTINUOUS
 10
50.462400000000002
 20
-15.681800000000001
 30
0.0
 70
    32
  0
VERTEX
  5
1E01
  8
242
  6
CONTINUOUS
 10
50.313800000000001
 20
-15.591100000000001
 30
0.0
 70
    32
  0
VERTEX
  5
1E02
  8
242
  6
CONTINUOUS
 10
50.171599999999998
 20
-15.4954
 30
0.0
 70
    32
  0
VERTEX
  5
1E03
  8
242
  6
CONTINUOUS
 10
50.036200000000001
 20
-15.3948
 30
0.0
 70
    32
  0
VERTEX
  5
1E04
  8
242
  6
CONTINUOUS
 10
49.908000000000001
 20
-15.2897
 30
0.0
 70
    32
  0
VERTEX
  5
1E05
  8
242
  6
CONTINUOUS
 10
49.787199999999999
 20
-15.180300000000001
 30
0.0
 70
    32
  0
VERTEX
  5
1E06
  8
242
  6
CONTINUOUS
 10
49.674100000000003
 20
-15.066800000000001
 30
0.0
 70
    32
  0
VERTEX
  5
1E07
  8
242
  6
CONTINUOUS
 10
49.569099999999999
 20
-14.9495
 30
0.0
 70
    32
  0
VERTEX
  5
1E08
  8
242
  6
CONTINUOUS
 10
49.472299999999997
 20
-14.8287
 30
0.0
 70
    32
  0
VERTEX
  5
1E09
  8
242
  6
CONTINUOUS
 10
49.383999999999993
 20
-14.704700000000001
 30
0.0
 70
    32
  0
VERTEX
  5
1E0A
  8
242
  6
CONTINUOUS
 10
49.304499999999997
 20
-14.5778
 30
0.0
 70
    32
  0
VERTEX
  5
1E0B
  8
242
  6
CONTINUOUS
 10
49.233800000000002
 20
-14.4482
 30
0.0
 70
    32
  0
VERTEX
  5
1E0C
  8
242
  6
CONTINUOUS
 10
49.172199999999997
 20
-14.3164
 30
0.0
 70
    32
  0
VERTEX
  5
1E0D
  8
242
  6
CONTINUOUS
 10
49.119900000000001
 20
-14.182600000000001
 30
0.0
 70
    32
  0
VERTEX
  5
1E0E
  8
242
  6
CONTINUOUS
 10
49.076900000000002
 20
-14.0472
 30
0.0
 70
    32
  0
VERTEX
  5
1E0F
  8
242
  6
CONTINUOUS
 10
49.043300000000002
 20
-13.910399999999999
 30
0.0
 70
    32
  0
VERTEX
  5
1E10
  8
242
  6
CONTINUOUS
 10
49.019300000000001
 20
-13.772600000000001
 30
0.0
 70
    32
  0
VERTEX
  5
1E11
  8
242
  6
CONTINUOUS
 10
49.004800000000003
 20
-13.6342
 30
0.0
 70
    32
  0
VERTEX
  5
1E12
  8
242
  6
CONTINUOUS
 10
49.0
 20
-13.4954
 30
0.0
 70
    32
  0
VERTEX
  5
1E13
  8
242
  6
CONTINUOUS
 10
49.004800000000003
 20
-13.3566
 30
0.0
 70
    32
  0
VERTEX
  5
1E14
  8
242
  6
CONTINUOUS
 10
49.019300000000001
 20
-13.2181
 30
0.0
 70
    32
  0
VERTEX
  5
1E15
  8
242
  6
CONTINUOUS
 10
49.043300000000002
 20
-13.080399999999999
 30
0.0
 70
    32
  0
VERTEX
  5
1E16
  8
242
  6
CONTINUOUS
 10
49.076900000000002
 20
-12.9436
 30
0.0
 70
    32
  0
VERTEX
  5
1E17
  8
242
  6
CONTINUOUS
 10
49.119900000000001
 20
-12.8081
 30
0.0
 70
    32
  0
VERTEX
  5
1E18
  8
242
  6
CONTINUOUS
 10
49.172199999999997
 20
-12.674300000000001
 30
0.0
 70
    32
  0
VERTEX
  5
1E19
  8
242
  6
CONTINUOUS
 10
49.233800000000002
 20
-12.5425
 30
0.0
 70
    32
  0
VERTEX
  5
1E1A
  8
242
  6
CONTINUOUS
 10
49.304499999999997
 20
-12.413
 30
0.0
 70
    32
  0
VERTEX
  5
1E1B
  8
242
  6
CONTINUOUS
 10
49.383999999999993
 20
-12.286099999999999
 30
0.0
 70
    32
  0
VERTEX
  5
1E1C
  8
242
  6
CONTINUOUS
 10
49.472299999999997
 20
-12.162100000000001
 30
0.0
 70
    32
  0
VERTEX
  5
1E1D
  8
242
  6
CONTINUOUS
 10
49.569099999999999
 20
-12.0413
 30
0.0
 70
    32
  0
VERTEX
  5
1E1E
  8
242
  6
CONTINUOUS
 10
49.674100000000003
 20
-11.923999999999999
 30
0.0
 70
    32
  0
VERTEX
  5
1E1F
  8
242
  6
CONTINUOUS
 10
49.787199999999999
 20
-11.810499999999999
 30
0.0
 70
    32
  0
VERTEX
  5
1E20
  8
242
  6
CONTINUOUS
 10
49.908000000000001
 20
-11.701000000000001
 30
0.0
 70
    32
  0
VERTEX
  5
1E21
  8
242
  6
CONTINUOUS
 10
50.036200000000001
 20
-11.5959
 30
0.0
 70
    32
  0
VERTEX
  5
1E22
  8
242
  6
CONTINUOUS
 10
50.171599999999998
 20
-11.4954
 30
0.0
 70
    32
  0
VERTEX
  5
1E23
  8
242
  6
CONTINUOUS
 10
50.313800000000001
 20
-11.3996
 30
0.0
 70
    32
  0
VERTEX
  5
1E24
  8
242
  6
CONTINUOUS
 10
50.462400000000002
 20
-11.308999999999999
 30
0.0
 70
    32
  0
VERTEX
  5
1E25
  8
242
  6
CONTINUOUS
 10
50.617199999999997
 20
-11.223599999999999
 30
0.0
 70
    32
  0
VERTEX
  5
1E26
  8
242
  6
CONTINUOUS
 10
50.77770000000001
 20
-11.143599999999999
 30
0.0
 70
    32
  0
VERTEX
  5
1E27
  8
242
  6
CONTINUOUS
 10
50.943600000000004
 20
-11.0693
 30
0.0
 70
    32
  0
VERTEX
  5
1E28
  8
242
  6
CONTINUOUS
 10
51.114400000000003
 20
-11.0009
 30
0.0
 70
    32
  0
VERTEX
  5
1E29
  8
242
  6
CONTINUOUS
 10
51.2898
 20
-10.938499999999999
 30
0.0
 70
    32
  0
VERTEX
  5
1E2A
  8
242
  6
CONTINUOUS
 10
51.469299999999997
 20
-10.882199999999999
 30
0.0
 70
    32
  0
VERTEX
  5
1E2B
  8
242
  6
CONTINUOUS
 10
51.6524
 20
-10.8323
 30
0.0
 70
    32
  0
VERTEX
  5
1E2C
  8
242
  6
CONTINUOUS
 10
51.838900000000002
 20
-10.7887
 30
0.0
 70
    32
  0
VERTEX
  5
1E2D
  8
242
  6
CONTINUOUS
 10
52.028100000000002
 20
-10.7517
 30
0.0
 70
    32
  0
VERTEX
  5
1E2E
  8
242
  6
CONTINUOUS
 10
52.2196
 20
-10.721299999999999
 30
0.0
 70
    32
  0
VERTEX
  5
1E2F
  8
242
  6
CONTINUOUS
 10
52.4131
 20
-10.6976
 30
0.0
 70
    32
  0
VERTEX
  5
1E30
  8
242
  6
CONTINUOUS
 10
52.607900000000001
 20
-10.6806
 30
0.0
 70
    32
  0
VERTEX
  5
1E31
  8
242
  6
CONTINUOUS
 10
52.803699999999999
 20
-10.670299999999999
 30
0.0
 70
    32
  0
VERTEX
  5
1E32
  8
242
  6
CONTINUOUS
 10
53.0
 20
-10.6669
 30
0.0
 70
    32
  0
VERTEX
  5
1E33
  8
242
  6
CONTINUOUS
 10
53.196300000000001
 20
-10.670299999999999
 30
0.0
 70
    32
  0
VERTEX
  5
1E34
  8
242
  6
CONTINUOUS
 10
53.392099999999999
 20
-10.6806
 30
0.0
 70
    32
  0
VERTEX
  5
1E35
  8
242
  6
CONTINUOUS
 10
53.5869
 20
-10.6976
 30
0.0
 70
    32
  0
VERTEX
  5
1E36
  8
242
  6
CONTINUOUS
 10
53.7804
 20
-10.721299999999999
 30
0.0
 70
    32
  0
VERTEX
  5
1E37
  8
242
  6
CONTINUOUS
 10
53.971899999999998
 20
-10.7517
 30
0.0
 70
    32
  0
VERTEX
  5
1E38
  8
242
  6
CONTINUOUS
 10
54.16109999999999
 20
-10.7887
 30
0.0
 70
    32
  0
VERTEX
  5
1E39
  8
242
  6
CONTINUOUS
 10
54.3476
 20
-10.8323
 30
0.0
 70
    32
  0
VERTEX
  5
1E3A
  8
242
  6
CONTINUOUS
 10
54.530700000000003
 20
-10.882199999999999
 30
0.0
 70
    32
  0
VERTEX
  5
1E3B
  8
242
  6
CONTINUOUS
 10
54.7102
 20
-10.938499999999999
 30
0.0
 70
    32
  0
VERTEX
  5
1E3C
  8
242
  6
CONTINUOUS
 10
54.88559999999999
 20
-11.0009
 30
0.0
 70
    32
  0
VERTEX
  5
1E3D
  8
242
  6
CONTINUOUS
 10
55.056399999999989
 20
-11.0693
 30
0.0
 70
    32
  0
VERTEX
  5
1E3E
  8
242
  6
CONTINUOUS
 10
55.222299999999997
 20
-11.143599999999999
 30
0.0
 70
    32
  0
VERTEX
  5
1E3F
  8
242
  6
CONTINUOUS
 10
55.382800000000003
 20
-11.223599999999999
 30
0.0
 70
    32
  0
VERTEX
  5
1E40
  8
242
  6
CONTINUOUS
 10
55.537599999999998
 20
-11.308999999999999
 30
0.0
 70
    32
  0
VERTEX
  5
1E41
  8
242
  6
CONTINUOUS
 10
55.686199999999999
 20
-11.3996
 30
0.0
 70
    32
  0
VERTEX
  5
1E42
  8
242
  6
CONTINUOUS
 10
55.828400000000002
 20
-11.4954
 30
0.0
 70
    32
  0
VERTEX
  5
1E43
  8
242
  6
CONTINUOUS
 10
55.963799999999992
 20
-11.5959
 30
0.0
 70
    32
  0
VERTEX
  5
1E44
  8
242
  6
CONTINUOUS
 10
56.091999999999999
 20
-11.701000000000001
 30
0.0
 70
    32
  0
VERTEX
  5
1E45
  8
242
  6
CONTINUOUS
 10
56.212800000000001
 20
-11.810499999999999
 30
0.0
 70
    32
  0
VERTEX
  5
1E46
  8
242
  6
CONTINUOUS
 10
56.325899999999997
 20
-11.923999999999999
 30
0.0
 70
    32
  0
VERTEX
  5
1E47
  8
242
  6
CONTINUOUS
 10
56.430900000000001
 20
-12.0413
 30
0.0
 70
    32
  0
VERTEX
  5
1E48
  8
242
  6
CONTINUOUS
 10
56.527700000000003
 20
-12.162100000000001
 30
0.0
 70
    32
  0
VERTEX
  5
1E49
  8
242
  6
CONTINUOUS
 10
56.615999999999993
 20
-12.286099999999999
 30
0.0
 70
    32
  0
VERTEX
  5
1E4A
  8
242
  6
CONTINUOUS
 10
56.695500000000003
 20
-12.413
 30
0.0
 70
    32
  0
VERTEX
  5
1E4B
  8
242
  6
CONTINUOUS
 10
56.766199999999991
 20
-12.5425
 30
0.0
 70
    32
  0
VERTEX
  5
1E4C
  8
242
  6
CONTINUOUS
 10
56.827800000000011
 20
-12.674300000000001
 30
0.0
 70
    32
  0
VERTEX
  5
1E4D
  8
242
  6
CONTINUOUS
 10
56.880099999999999
 20
-12.8081
 30
0.0
 70
    32
  0
VERTEX
  5
1E4E
  8
242
  6
CONTINUOUS
 10
56.923099999999991
 20
-12.9436
 30
0.0
 70
    32
  0
VERTEX
  5
1E4F
  8
242
  6
CONTINUOUS
 10
56.956699999999991
 20
-13.080399999999999
 30
0.0
 70
    32
  0
VERTEX
  5
1E50
  8
242
  6
CONTINUOUS
 10
56.980699999999999
 20
-13.2181
 30
0.0
 70
    32
  0
VERTEX
  5
1E51
  8
242
  6
CONTINUOUS
 10
56.99519999999999
 20
-13.3566
 30
0.0
 70
    32
  0
VERTEX
  5
1E52
  8
242
  6
CONTINUOUS
 10
57.0
 20
-13.4954
 30
0.0
 70
    32
  0
SEQEND
  5
1E53
  8
242
  6
CONTINUOUS
  0
POLYLINE
  5
1E54
  8
241
  6
CONTINUOUS
 66
     1
 10
0.0
 20
0.0
 30
0.0
 70
     8
  0
VERTEX
  5
1E55
  8
241
  6
CONTINUOUS
 10
49.625
 20
-13.580500000000001
 30
0.0
 70
    32
  0
VERTEX
  5
1E56
  8
241
  6
CONTINUOUS
 10
49.629100000000001
 20
-13.4634
 30
0.0
 70
    32
  0
VERTEX
  5
1E57
  8
241
  6
CONTINUOUS
 10
49.641300000000001
 20
-13.3466
 30
0.0
 70
    32
  0
VERTEX
  5
1E58
  8
241
  6
CONTINUOUS
 10
49.661499999999982
 20
-13.2303
 30
0.0
 70
    32
  0
VERTEX
  5
1E59
  8
241
  6
CONTINUOUS
 10
49.689799999999998
 20
-13.1149
 30
0.0
 70
    32
  0
VERTEX
  5
1E5A
  8
241
  6
CONTINUOUS
 10
49.726100000000002
 20
-13.0006
 30
0.0
 70
    32
  0
VERTEX
  5
1E5B
  8
241
  6
CONTINUOUS
 10
49.770299999999999
 20
-12.887700000000001
 30
0.0
 70
    32
  0
VERTEX
  5
1E5C
  8
241
  6
CONTINUOUS
 10
49.822299999999998
 20
-12.7765
 30
0.0
 70
    32
  0
VERTEX
  5
1E5D
  8
241
  6
CONTINUOUS
 10
49.881900000000002
 20
-12.667199999999999
 30
0.0
 70
    32
  0
VERTEX
  5
1E5E
  8
241
  6
CONTINUOUS
 10
49.948999999999998
 20
-12.5601
 30
0.0
 70
    32
  0
VERTEX
  5
1E5F
  8
241
  6
CONTINUOUS
 10
50.023499999999991
 20
-12.455500000000001
 30
0.0
 70
    32
  0
VERTEX
  5
1E60
  8
241
  6
CONTINUOUS
 10
50.105200000000004
 20
-12.3536
 30
0.0
 70
    32
  0
VERTEX
  5
1E61
  8
241
  6
CONTINUOUS
 10
50.193800000000003
 20
-12.2546
 30
0.0
 70
    32
  0
VERTEX
  5
1E62
  8
241
  6
CONTINUOUS
 10
50.289200000000001
 20
-12.158899999999999
 30
0.0
 70
    32
  0
VERTEX
  5
1E63
  8
241
  6
CONTINUOUS
 10
50.391100000000002
 20
-12.0665
 30
0.0
 70
    32
  0
VERTEX
  5
1E64
  8
241
  6
CONTINUOUS
 10
50.499299999999991
 20
-11.9778
 30
0.0
 70
    32
  0
VERTEX
  5
1E65
  8
241
  6
CONTINUOUS
 10
50.613500000000002
 20
-11.893000000000001
 30
0.0
 70
    32
  0
VERTEX
  5
1E66
  8
241
  6
CONTINUOUS
 10
50.733499999999999
 20
-11.812200000000001
 30
0.0
 70
    32
  0
VERTEX
  5
1E67
  8
241
  6
CONTINUOUS
 10
50.858899999999998
 20
-11.7357
 30
0.0
 70
    32
  0
VERTEX
  5
1E68
  8
241
  6
CONTINUOUS
 10
50.9895
 20
-11.663600000000001
 30
0.0
 70
    32
  0
VERTEX
  5
1E69
  8
241
  6
CONTINUOUS
 10
51.125
 20
-11.5962
 30
0.0
 70
    32
  0
VERTEX
  5
1E6A
  8
241
  6
CONTINUOUS
 10
51.264899999999997
 20
-11.5335
 30
0.0
 70
    32
  0
VERTEX
  5
1E6B
  8
241
  6
CONTINUOUS
 10
51.408999999999999
 20
-11.4758
 30
0.0
 70
    32
  0
VERTEX
  5
1E6C
  8
241
  6
CONTINUOUS
 10
51.557000000000002
 20
-11.4231
 30
0.0
 70
    32
  0
VERTEX
  5
1E6D
  8
241
  6
CONTINUOUS
 10
51.708399999999997
 20
-11.3757
 30
0.0
 70
    32
  0
VERTEX
  5
1E6E
  8
241
  6
CONTINUOUS
 10
51.863
 20
-11.333500000000001
 30
0.0
 70
    32
  0
VERTEX
  5
1E6F
  8
241
  6
CONTINUOUS
 10
52.020299999999999
 20
-11.296799999999999
 30
0.0
 70
    32
  0
VERTEX
  5
1E70
  8
241
  6
CONTINUOUS
 10
52.179900000000004
 20
-11.265499999999999
 30
0.0
 70
    32
  0
VERTEX
  5
1E71
  8
241
  6
CONTINUOUS
 10
52.3416
 20
-11.2399
 30
0.0
 70
    32
  0
VERTEX
  5
1E72
  8
241
  6
CONTINUOUS
 10
52.504800000000003
 20
-11.219799999999999
 30
0.0
 70
    32
  0
VERTEX
  5
1E73
  8
241
  6
CONTINUOUS
 10
52.669199999999982
 20
-11.205500000000001
 30
0.0
 70
    32
  0
VERTEX
  5
1E74
  8
241
  6
CONTINUOUS
 10
52.834400000000002
 20
-11.196899999999999
 30
0.0
 70
    32
  0
VERTEX
  5
1E75
  8
241
  6
CONTINUOUS
 10
53.0
 20
-11.194000000000001
 30
0.0
 70
    32
  0
VERTEX
  5
1E76
  8
241
  6
CONTINUOUS
 10
53.165599999999991
 20
-11.196899999999999
 30
0.0
 70
    32
  0
VERTEX
  5
1E77
  8
241
  6
CONTINUOUS
 10
53.330800000000004
 20
-11.205500000000001
 30
0.0
 70
    32
  0
VERTEX
  5
1E78
  8
241
  6
CONTINUOUS
 10
53.495199999999997
 20
-11.219799999999999
 30
0.0
 70
    32
  0
VERTEX
  5
1E79
  8
241
  6
CONTINUOUS
 10
53.6584
 20
-11.2399
 30
0.0
 70
    32
  0
VERTEX
  5
1E7A
  8
241
  6
CONTINUOUS
 10
53.820099999999996
 20
-11.265499999999999
 30
0.0
 70
    32
  0
VERTEX
  5
1E7B
  8
241
  6
CONTINUOUS
 10
53.979700000000001
 20
-11.296799999999999
 30
0.0
 70
    32
  0
VERTEX
  5
1E7C
  8
241
  6
CONTINUOUS
 10
54.137
 20
-11.333500000000001
 30
0.0
 70
    32
  0
VERTEX
  5
1E7D
  8
241
  6
CONTINUOUS
 10
54.291600000000003
 20
-11.3757
 30
0.0
 70
    32
  0
VERTEX
  5
1E7E
  8
241
  6
CONTINUOUS
 10
54.442999999999998
 20
-11.4231
 30
0.0
 70
    32
  0
VERTEX
  5
1E7F
  8
241
  6
CONTINUOUS
 10
54.591000000000001
 20
-11.4758
 30
0.0
 70
    32
  0
VERTEX
  5
1E80
  8
241
  6
CONTINUOUS
 10
54.735100000000003
 20
-11.5335
 30
0.0
 70
    32
  0
VERTEX
  5
1E81
  8
241
  6
CONTINUOUS
 10
54.875
 20
-11.5962
 30
0.0
 70
    32
  0
VERTEX
  5
1E82
  8
241
  6
CONTINUOUS
 10
55.0105
 20
-11.663600000000001
 30
0.0
 70
    32
  0
VERTEX
  5
1E83
  8
241
  6
CONTINUOUS
 10
55.141100000000002
 20
-11.7357
 30
0.0
 70
    32
  0
VERTEX
  5
1E84
  8
241
  6
CONTINUOUS
 10
55.266500000000001
 20
-11.812200000000001
 30
0.0
 70
    32
  0
VERTEX
  5
1E85
  8
241
  6
CONTINUOUS
 10
55.386499999999998
 20
-11.893000000000001
 30
0.0
 70
    32
  0
VERTEX
  5
1E86
  8
241
  6
CONTINUOUS
 10
55.500700000000002
 20
-11.9778
 30
0.0
 70
    32
  0
VERTEX
  5
1E87
  8
241
  6
CONTINUOUS
 10
55.608899999999998
 20
-12.0665
 30
0.0
 70
    32
  0
VERTEX
  5
1E88
  8
241
  6
CONTINUOUS
 10
55.710799999999999
 20
-12.158899999999999
 30
0.0
 70
    32
  0
VERTEX
  5
1E89
  8
241
  6
CONTINUOUS
 10
55.80619999999999
 20
-12.2546
 30
0.0
 70
    32
  0
VERTEX
  5
1E8A
  8
241
  6
CONTINUOUS
 10
55.894799999999996
 20
-12.3536
 30
0.0
 70
    32
  0
VERTEX
  5
1E8B
  8
241
  6
CONTINUOUS
 10
55.976500000000001
 20
-12.455500000000001
 30
0.0
 70
    32
  0
VERTEX
  5
1E8C
  8
241
  6
CONTINUOUS
 10
56.051000000000002
 20
-12.5601
 30
0.0
 70
    32
  0
VERTEX
  5
1E8D
  8
241
  6
CONTINUOUS
 10
56.118099999999998
 20
-12.667199999999999
 30
0.0
 70
    32
  0
VERTEX
  5
1E8E
  8
241
  6
CONTINUOUS
 10
56.177700000000002
 20
-12.7765
 30
0.0
 70
    32
  0
VERTEX
  5
1E8F
  8
241
  6
CONTINUOUS
 10
56.229700000000001
 20
-12.887700000000001
 30
0.0
 70
    32
  0
VERTEX
  5
1E90
  8
241
  6
CONTINUOUS
 10
56.273899999999998
 20
-13.0006
 30
0.0
 70
    32
  0
VERTEX
  5
1E91
  8
241
  6
CONTINUOUS
 10
56.310200000000002
 20
-13.1149
 30
0.0
 70
    32
  0
VERTEX
  5
1E92
  8
241
  6
CONTINUOUS
 10
56.338500000000003
 20
-13.2303
 30
0.0
 70
    32
  0
VERTEX
  5
1E93
  8
241
  6
CONTINUOUS
 10
56.358699999999999
 20
-13.3466
 30
0.0
 70
    32
  0
VERTEX
  5
1E94
  8
241
  6
CONTINUOUS
 10
56.370899999999999
 20
-13.4634
 30
0.0
 70
    32
  0
VERTEX
  5
1E95
  8
241
  6
CONTINUOUS
 10
56.375
 20
-13.580500000000001
 30
0.0
 70
    32
  0
VERTEX
  5
1E96
  8
241
  6
CONTINUOUS
 10
56.370899999999999
 20
-13.6976
 30
0.0
 70
    32
  0
VERTEX
  5
1E97
  8
241
  6
CONTINUOUS
 10
56.358699999999999
 20
-13.814399999999999
 30
0.0
 70
    32
  0
VERTEX
  5
1E98
  8
241
  6
CONTINUOUS
 10
56.338500000000003
 20
-13.9307
 30
0.0
 70
    32
  0
VERTEX
  5
1E99
  8
241
  6
CONTINUOUS
 10
56.310200000000002
 20
-14.046099999999999
 30
0.0
 70
    32
  0
VERTEX
  5
1E9A
  8
241
  6
CONTINUOUS
 10
56.273899999999998
 20
-14.160399999999999
 30
0.0
 70
    32
  0
VERTEX
  5
1E9B
  8
241
  6
CONTINUOUS
 10
56.229700000000001
 20
-14.273199999999999
 30
0.0
 70
    32
  0
VERTEX
  5
1E9C
  8
241
  6
CONTINUOUS
 10
56.177700000000002
 20
-14.384499999999999
 30
0.0
 70
    32
  0
VERTEX
  5
1E9D
  8
241
  6
CONTINUOUS
 10
56.118099999999998
 20
-14.4938
 30
0.0
 70
    32
  0
VERTEX
  5
1E9E
  8
241
  6
CONTINUOUS
 10
56.051000000000002
 20
-14.6008
 30
0.0
 70
    32
  0
VERTEX
  5
1E9F
  8
241
  6
CONTINUOUS
 10
55.976500000000001
 20
-14.705500000000001
 30
0.0
 70
    32
  0
VERTEX
  5
1EA0
  8
241
  6
CONTINUOUS
 10
55.894799999999996
 20
-14.807399999999999
 30
0.0
 70
    32
  0
VERTEX
  5
1EA1
  8
241
  6
CONTINUOUS
 10
55.80619999999999
 20
-14.9063
 30
0.0
 70
    32
  0
VERTEX
  5
1EA2
  8
241
  6
CONTINUOUS
 10
55.710799999999999
 20
-15.0021
 30
0.0
 70
    32
  0
VERTEX
  5
1EA3
  8
241
  6
CONTINUOUS
 10
55.608899999999998
 20
-15.0945
 30
0.0
 70
    32
  0
VERTEX
  5
1EA4
  8
241
  6
CONTINUOUS
 10
55.500700000000002
 20
-15.183199999999999
 30
0.0
 70
    32
  0
VERTEX
  5
1EA5
  8
241
  6
CONTINUOUS
 10
55.386499999999998
 20
-15.268000000000001
 30
0.0
 70
    32
  0
VERTEX
  5
1EA6
  8
241
  6
CONTINUOUS
 10
55.266500000000001
 20
-15.348800000000001
 30
0.0
 70
    32
  0
VERTEX
  5
1EA7
  8
241
  6
CONTINUOUS
 10
55.141100000000002
 20
-15.4253
 30
0.0
 70
    32
  0
VERTEX
  5
1EA8
  8
241
  6
CONTINUOUS
 10
55.0105
 20
-15.497299999999999
 30
0.0
 70
    32
  0
VERTEX
  5
1EA9
  8
241
  6
CONTINUOUS
 10
54.875
 20
-15.5648
 30
0.0
 70
    32
  0
VERTEX
  5
1EAA
  8
241
  6
CONTINUOUS
 10
54.735100000000003
 20
-15.6274
 30
0.0
 70
    32
  0
VERTEX
  5
1EAB
  8
241
  6
CONTINUOUS
 10
54.591000000000001
 20
-15.6852
 30
0.0
 70
    32
  0
VERTEX
  5
1EAC
  8
241
  6
CONTINUOUS
 10
54.442999999999998
 20
-15.7378
 30
0.0
 70
    32
  0
VERTEX
  5
1EAD
  8
241
  6
CONTINUOUS
 10
54.291600000000003
 20
-15.785299999999999
 30
0.0
 70
    32
  0
VERTEX
  5
1EAE
  8
241
  6
CONTINUOUS
 10
54.137
 20
-15.827500000000001
 30
0.0
 70
    32
  0
VERTEX
  5
1EAF
  8
241
  6
CONTINUOUS
 10
53.979700000000001
 20
-15.8642
 30
0.0
 70
    32
  0
VERTEX
  5
1EB0
  8
241
  6
CONTINUOUS
 10
53.820099999999996
 20
-15.8955
 30
0.0
 70
    32
  0
VERTEX
  5
1EB1
  8
241
  6
CONTINUOUS
 10
53.6584
 20
-15.921099999999999
 30
0.0
 70
    32
  0
VERTEX
  5
1EB2
  8
241
  6
CONTINUOUS
 10
53.495199999999997
 20
-15.9411
 30
0.0
 70
    32
  0
VERTEX
  5
1EB3
  8
241
  6
CONTINUOUS
 10
53.330800000000004
 20
-15.955500000000001
 30
0.0
 70
    32
  0
VERTEX
  5
1EB4
  8
241
  6
CONTINUOUS
 10
53.165599999999991
 20
-15.9641
 30
0.0
 70
    32
  0
VERTEX
  5
1EB5
  8
241
  6
CONTINUOUS
 10
53.0
 20
-15.967000000000001
 30
0.0
 70
    32
  0
VERTEX
  5
1EB6
  8
241
  6
CONTINUOUS
 10
52.834400000000002
 20
-15.9641
 30
0.0
 70
    32
  0
VERTEX
  5
1EB7
  8
241
  6
CONTINUOUS
 10
52.669199999999982
 20
-15.955500000000001
 30
0.0
 70
    32
  0
VERTEX
  5
1EB8
  8
241
  6
CONTINUOUS
 10
52.504800000000003
 20
-15.9411
 30
0.0
 70
    32
  0
VERTEX
  5
1EB9
  8
241
  6
CONTINUOUS
 10
52.3416
 20
-15.921099999999999
 30
0.0
 70
    32
  0
VERTEX
  5
1EBA
  8
241
  6
CONTINUOUS
 10
52.179900000000004
 20
-15.8955
 30
0.0
 70
    32
  0
VERTEX
  5
1EBB
  8
241
  6
CONTINUOUS
 10
52.020299999999999
 20
-15.8642
 30
0.0
 70
    32
  0
VERTEX
  5
1EBC
  8
241
  6
CONTINUOUS
 10
51.863
 20
-15.827500000000001
 30
0.0
 70
    32
  0
VERTEX
  5
1EBD
  8
241
  6
CONTINUOUS
 10
51.708399999999997
 20
-15.785299999999999
 30
0.0
 70
    32
  0
VERTEX
  5
1EBE
  8
241
  6
CONTINUOUS
 10
51.557000000000002
 20
-15.7378
 30
0.0
 70
    32
  0
VERTEX
  5
1EBF
  8
241
  6
CONTINUOUS
 10
51.408999999999999
 20
-15.6852
 30
0.0
 70
    32
  0
VERTEX
  5
1EC0
  8
241
  6
CONTINUOUS
 10
51.264899999999997
 20
-15.6274
 30
0.0
 70
    32
  0
VERTEX
  5
1EC1
  8
241
  6
CONTINUOUS
 10
51.125
 20
-15.5648
 30
0.0
 70
    32
  0
VERTEX
  5
1EC2
  8
241
  6
CONTINUOUS
 10
50.9895
 20
-15.497299999999999
 30
0.0
 70
    32
  0
VERTEX
  5
1EC3
  8
241
  6
CONTINUOUS
 10
50.858899999999998
 20
-15.4253
 30
0.0
 70
    32
  0
VERTEX
  5
1EC4
  8
241
  6
CONTINUOUS
 10
50.733499999999999
 20
-15.348800000000001
 30
0.0
 70
    32
  0
VERTEX
  5
1EC5
  8
241
  6
CONTINUOUS
 10
50.613500000000002
 20
-15.268000000000001
 30
0.0
 70
    32
  0
VERTEX
  5
1EC6
  8
241
  6
CONTINUOUS
 10
50.499299999999991
 20
-15.183199999999999
 30
0.0
 70
    32
  0
VERTEX
  5
1EC7
  8
241
  6
CONTINUOUS
 10
50.391100000000002
 20
-15.0945
 30
0.0
 70
    32
  0
VERTEX
  5
1EC8
  8
241
  6
CONTINUOUS
 10
50.289200000000001
 20
-15.0021
 30
0.0
 70
    32
  0
VERTEX
  5
1EC9
  8
241
  6
CONTINUOUS
 10
50.193800000000003
 20
-14.9063
 30
0.0
 70
    32
  0
VERTEX
  5
1ECA
  8
241
  6
CONTINUOUS
 10
50.105200000000004
 20
-14.807399999999999
 30
0.0
 70
    32
  0
VERTEX
  5
1ECB
  8
241
  6
CONTINUOUS
 10
50.023499999999991
 20
-14.705500000000001
 30
0.0
 70
    32
  0
VERTEX
  5
1ECC
  8
241
  6
CONTINUOUS
 10
49.948999999999998
 20
-14.6008
 30
0.0
 70
    32
  0
VERTEX
  5
1ECD
  8
241
  6
CONTINUOUS
 10
49.881900000000002
 20
-14.4938
 30
0.0
 70
    32
  0
VERTEX
  5
1ECE
  8
241
  6
CONTINUOUS
 10
49.822299999999998
 20
-14.384499999999999
 30
0.0
 70
    32
  0
VERTEX
  5
1ECF
  8
241
  6
CONTINUOUS
 10
49.770299999999999
 20
-14.273199999999999
 30
0.0
 70
    32
  0
VERTEX
  5
1ED0
  8
241
  6
CONTINUOUS
 10
49.726100000000002
 20
-14.160399999999999
 30
0.0
 70
    32
  0
VERTEX
  5
1ED1
  8
241
  6
CONTINUOUS
 10
49.689799999999998
 20
-14.046099999999999
 30
0.0
 70
    32
  0
VERTEX
  5
1ED2
  8
241
  6
CONTINUOUS
 10
49.661499999999982
 20
-13.9307
 30
0.0
 70
    32
  0
VERTEX
  5
1ED3
  8
241
  6
CONTINUOUS
 10
49.641300000000001
 20
-13.814399999999999
 30
0.0
 70
    32
  0
VERTEX
  5
1ED4
  8
241
  6
CONTINUOUS
 10
49.629100000000001
 20
-13.6976
 30
0.0
 70
    32
  0
VERTEX
  5
1ED5
  8
241
  6
CONTINUOUS
 10
49.625
 20
-13.580500000000001
 30
0.0
 70
    32
  0
SEQEND
  5
1ED6
  8
241
  6
CONTINUOUS
  0
LINE
  5
1ED7
  8
245
  6
CENTER2
 10
48.999999999998181
 20
-13.788582233138181
 30
0.0
 11
56.999999999998181
 21
-13.788582233137261
 31
0.0
  0
LINE
  5
1ED8
  8
245
  6
CENTER2
 10
52.999999999998181
 20
-10.666942451519841
 30
0.0
 11
53.0
 21
-16.323796701012721
 31
0.0
  0
LINE
  5
1ED9
  8
240
  6
CONTINUOUS
 10
-90.000000000000853
 20
19.999999999995449
 30
0.0
 11
-90.000000000002771
 21
-20.000000000008651
 31
0.0
  0
LINE
  5
1EE0
  8
240
  6
CONTINUOUS
 10
-90.000000000000853
 20
19.999999999995449
 30
0.0
 11
-80.499999999995453
 21
19.999999999995449
 31
0.0
  0
LINE
  5
1EE8
  8
240
  6
CONTINUOUS
 10
-90.000000000002771
 20
-20.00000000000864
 30
0.0
 11
-80.499999999995453
 21
-20.00000000000864
 31
0.0
  0
LINE
  5
1EFA
  8
240
  6
CONTINUOUS
 10
-8.9999999999585061
 20
-26.499999999998209
 30
0.0
 11
-7.7919544528500371
 21
-26.939692620780679
 31
0.0
  0
ARC
  5
1EFB
  8
240
  6
CONTINUOUS
 10
-7.4499343095260739
 20
-25.99999999999369
 30
0.0
 40
1.0
 50
250.00000000010439
 51
270.00000000009362
1001
GENIUS_GENODEF_13
1002
{
1000
HIER
1070
     0
1002
}
1002
{
1000
MANEDIT
1070
     0
1002
}
1002
{
1000
NOSEL
1070
     0
1002
}
1002
{
1000
BEHIND
1070
     0
1002
}
1002
{
1000
OTHER
1070
     0
1002
}
1002
{
1000
REACTOR
1002
}
1001
GENIUS_GENOBJ-N-FIL_13
1002
{
1000
OWNER
1000
GEN
1002
}
  0
LINE
  5
1EFC
  8
240
  6
CONTINUOUS
 10
0.0000000000061045
 20
-26.999999999981501
 30
0.0
 11
-7.4499343095244379
 21
-26.99999999999369
 31
0.0
  0
LINE
  5
1EFD
  8
241
  6
CONTINUOUS
 10
0.0000000000417159
 20
-26.641256028035659
 30
0.0
 11
-0.0000000000417159
 21
26.641256028032331
 31
0.0
  0
LINE
  5
1F02
  8
241
  6
CONTINUOUS
 10
-45.000000000005457
 20
-19.800000000011998
 30
0.0
 11
-45.000000000001812
 21
19.799999999997461
 31
0.0
  0
LINE
  5
1F05
  8
241
  6
CONTINUOUS
 10
-29.000000000005461
 20
-19.800000000011082
 30
0.0
 11
-29.000000000005461
 21
19.799999999996999
 31
0.0
  0
LINE
  5
1F08
  8
241
  6
CONTINUOUS
 10
-42.500000000005457
 20
19.79999999999745
 30
0.0
 11
-42.500000000005457
 21
-19.800000000011998
 31
0.0
  0
LINE
  5
1F0B
  8
241
  6
CONTINUOUS
 10
-31.500000000001808
 20
19.799999999996992
 30
0.0
 11
-31.500000000001808
 21
-19.800000000011082
 31
0.0
  0
POINT
  5
1F12
  8
0
 10
-15041.480041667361
 20
9982.2519074072497
 30
0.0
1001
GENIUS_GENOLIS_13
1002
{
1000
ENT
1005
0
1005
0
1005
1D9E
1005
0
1002
}
1001
GENIUS_GENOENT_13
1002
{
1000
MYREF
1005
1F12
1002
}
1002
{
1000
GRP
1005
0
1002
}
1001
GENIUS_GENOBJ-N-CRS_13
1002
{
1000
OWNER
1000
GEN
1002
}
1001
GENIUS_GENODEF_13
1002
{
1000
HIER
1070
    10
1002
}
1002
{
1000
MANEDIT
1070
     1
1002
}
1002
{
1000
NOSEL
1070
     0
1002
}
1002
{
1000
BEHIND
1070
     0
1002
}
1002
{
1000
OTHER
1070
     0
1002
}
1002
{
1000
REACTOR
1002
}
  0
LINE
  5
1F30
  8
241
  6
CONTINUOUS
 10
-8.9999999999686846
 20
-20.000000000020279
 30
0.0
 11
-9.0000000000313172
 21
19.999999999987541
 31
0.0
  0
ARC
  5
1F31
  8
240
  6
CONTINUOUS
 10
2.7769459312076861
 20
20.500000000003791
 30
0.0
 40
1.0
 50
195.0000000000376
 51
269.99999999999369
1001
GENIUS_GENOBJ-N-FIL_13
1002
{
1000
OWNER
1000
GEN
1002
}
1001
GENIUS_GENODEF_13
1002
{
1000
HIER
1070
     0
1002
}
1002
{
1000
MANEDIT
1070
     0
1002
}
1002
{
1000
NOSEL
1070
     0
1002
}
1002
{
1000
BEHIND
1070
     0
1002
}
1002
{
1000
OTHER
1070
     0
1002
}
1002
{
1000
REACTOR
1002
}
  0
ARC
  5
1F32
  8
240
  6
CONTINUOUS
 10
2.7769459312099758
 20
-20.500000000003791
 30
0.0
 40
1.0
 50
90.000000000006295
 51
165.00000000002001
1001
GENIUS_GENOBJ-N-FIL_13
1002
{
1000
OWNER
1000
GEN
1002
}
1001
GENIUS_GENODEF_13
1002
{
1000
HIER
1070
     0
1002
}
1002
{
1000
MANEDIT
1070
     0
1002
}
1002
{
1000
NOSEL
1070
     0
1002
}
1002
{
1000
BEHIND
1070
     0
1002
}
1002
{
1000
OTHER
1070
     0
1002
}
1002
{
1000
REACTOR
1002
}
  0
LINE
  5
1F39
  8
240
  6
CONTINUOUS
 10
-9.0000000000313172
 20
19.999999999987541
 30
0.0
 11
-9.0000000000414904
 21
26.499999999965741
 31
0.0
  0
LINE
  5
1F3A
  8
240
  6
CONTINUOUS
 10
-8.9999999999686846
 20
-20.000000000020279
 30
0.0
 11
-8.9999999999585061
 21
-26.499999999998209
 31
0.0
  0
TEXT
  5
1F3D
  8
250
  6
CONTINUOUS
 10
14.02805043293392
 20
-41.915779729700489
 30
0.0
 40
6.0
  1
üá
 50
90.0
  0
TEXT
  5
1F3E
  8
250
  6
CONTINUOUS
 10
14.02805043293392
 20
-34.772922586843379
 30
0.0
 40
6.0
  1
15
 50
90.0
  0
LINE
  5
2002
  8
244
  6
HIDDEN2
 10
18.999999999998181
 20
7.5
 30
0.0
 11
36.999999999998181
 21
-7.5
 31
0.0
  0
LINE
  5
2003
  8
244
  6
HIDDEN2
 10
18.999999999998181
 20
-7.5
 30
0.0
 11
36.999999999998181
 21
7.5
 31
0.0
  0
LINE
  5
2004
  8
247
  6
CONTINUOUS
 10
8.0364138624735801
 20
-11.75000000000356
 30
0.0
 11
8.0364138624736352
 21
-7.1153846156735874
 31
0.0
  0
LINE
  5
2005
  8
247
  6
CONTINUOUS
 10
5.5364138624736361
 20
-10.954893499991501
 30
0.0
 11
7.6364138623896451
 21
-11.557058810060919
 31
0.0
  0
LINE
  5
2006
  8
247
  6
CONTINUOUS
 10
6.5325677085876341
 20
-10.32515140352259
 30
0.0
 11
6.5325677085876341
 21
-11.240536018870589
 31
0.0
  0
ARC
  5
2007
  8
247
  6
CONTINUOUS
 10
5.9211329297677349
 20
-10.087263401950359
 30
0.0
 40
0.3876715809326743
 50
72.997889675291987
 51
172.92416621851271
  0
ARC
  5
2008
  8
247
  6
CONTINUOUS
 10
5.8416369935016501
 20
-10.382477556807659
 30
0.0
 40
0.693304796535877
 50
4.7429368522013968
 51
73.849226273266481
1001
GENIUS_GENOBJ-N-FIL_13
1002
{
1000
OWNER
1000
GEN
1002
}
1001
GENIUS_GENODEF_13
1002
{
1000
HIER
1070
     0
1002
}
1002
{
1000
MANEDIT
1070
     0
1002
}
1002
{
1000
NOSEL
1070
     0
1002
}
1002
{
1000
BEHIND
1070
     0
1002
}
1002
{
1000
OTHER
1070
     0
1002
}
1002
{
1000
REACTOR
1002
}
  0
LINE
  5
2009
  8
247
  6
CONTINUOUS
 10
7.6364138623896451
 20
-10.641674194712911
 30
0.0
 11
7.6364138623896451
 21
-11.557058810060919
 31
0.0
  0
LINE
  5
200A
  8
247
  6
CONTINUOUS
 10
5.5364138624736361
 20
-10.95489349999151
 30
0.0
 11
5.5364138624736361
 21
-10.039508884643499
 31
0.0
  0
ARC
  5
200B
  8
247
  6
CONTINUOUS
 10
6.9238308252415077
 20
-10.37830647627039
 30
0.0
 40
0.394857301075386
 50
65.990941652528775
 51
172.2634434590698
  0
ARC
  5
200C
  8
247
  6
CONTINUOUS
 10
6.9276141898062047
 20
-10.712446610430471
 30
0.0
 40
0.7123241612361686
 50
5.7019851642581454
 51
77.27733843682222
1001
GENIUS_GENOBJ-N-FIL_13
1002
{
1000
OWNER
1000
GEN
1002
}
1001
GENIUS_GENODEF_13
1002
{
1000
HIER
1070
     0
1002
}
1002
{
1000
MANEDIT
1070
     0
1002
}
1002
{
1000
NOSEL
1070
     0
1002
}
1002
{
1000
BEHIND
1070
     0
1002
}
1002
{
1000
OTHER
1070
     0
1002
}
1002
{
1000
REACTOR
1002
}
  0
LINE
  5
200D
  8
247
  6
CONTINUOUS
 10
7.6364138623896451
 20
-9.6839818870669312
 30
0.0
 11
5.5364138624736361
 21
-9.0818165769975199
 31
0.0
  0
LINE
  5
200E
  8
247
  6
CONTINUOUS
 10
5.5364138624736361
 20
-7.5856627309115181
 30
0.0
 11
5.5364138624736361
 21
-7.981678364307137
 31
0.0
  0
LINE
  5
200F
  8
247
  6
CONTINUOUS
 10
7.6364138623896451
 20
-8.6087396539475201
 30
0.0
 11
7.6364138623896451
 21
-8.1779704231955286
 31
0.0
  0
ARC
  5
2010
  8
247
  6
CONTINUOUS
 10
6.9947134575569958
 20
-7.3818165770735158
 30
0.0
 40
1.576855057639547
 50
202.35948814152749
 51
254.99324854284589
  0
ARC
  5
2011
  8
247
  6
CONTINUOUS
 10
6.1022327210117719
 20
-7.8475113661367821
 30
0.0
 40
0.6234706797009447
 50
94.994589319075374
 51
155.16632895730319
1001
GENIUS_GENOBJ-N-FIL_13
1002
{
1000
OWNER
1000
GEN
1002
}
1001
GENIUS_GENODEF_13
1002
{
1000
HIER
1070
     0
1002
}
1002
{
1000
MANEDIT
1070
     0
1002
}
1002
{
1000
NOSEL
1070
     0
1002
}
1002
{
1000
BEHIND
1070
     0
1002
}
1002
{
1000
OTHER
1070
     0
1002
}
1002
{
1000
REACTOR
1002
}
  0
ARC
  5
2012
  8
247
  6
CONTINUOUS
 10
6.6985159844430751
 20
-8.4441839510363312
 30
0.0
 40
0.9749472149106983
 50
15.846096555779839
 51
82.325137004169122
  0
ARC
  5
2013
  8
247
  6
CONTINUOUS
 10
6.9078842644447027
 20
-8.0352116387757722
 30
0.0
 40
0.9271945638692009
 50
249.71360167049701
 51
321.7887456564099
1001
GENIUS_GENOBJ-N-FIL_13
1002
{
1000
OWNER
1000
GEN
1002
}
1001
GENIUS_GENODEF_13
1002
{
1000
HIER
1070
     0
1002
}
1002
{
1000
MANEDIT
1070
     0
1002
}
1002
{
1000
NOSEL
1070
     0
1002
}
1002
{
1000
BEHIND
1070
     0
1002
}
1002
{
1000
OTHER
1070
     0
1002
}
1002
{
1000
REACTOR
1002
}
  0
LINE
  5
2014
  8
247
  6
CONTINUOUS
 10
6.8287215547296114
 20
-7.962585807819516
 30
0.0
 11
6.8287215547296114
 21
-7.477970423223522
 31
0.0
  0
ARC
  5
2015
  8
247
  6
CONTINUOUS
 10
6.7864138624736361
 20
-11.75000000000356
 30
0.0
 40
1.25
 50
180.0
 51
0.0
  0
LINE
  5
2016
  8
247
  6
CONTINUOUS
 10
5.5364138624736361
 20
-11.75000000000356
 30
0.0
 11
5.5364138624736361
 21
-11.30384615391756
 31
0.0
  0
ARC
  5
2017
  8
247
  6
CONTINUOUS
 10
6.7864138624736361
 20
-7.1153846156735732
 30
0.0
 40
1.25
 50
0.0
 51
180.0
  0
VIEWPORT
  5
22
 67
     1
  8
0
 10
261.51769911504419
 20
148.5
 30
0.0
 40
523.0353982300885
 41
297.0
 68
     1
 69
     1
1001
ACAD
1000
MVIEW
1002
{
1070
    16
1010
0.0
1020
0.0
1030
0.0
1010
0.0
1020
0.0
1030
1.0
1040
0.0
1040
297.0
1040
261.51769911504419
1040
148.5
1040
50.0
1040
0.0
1040
0.0
1070
     0
1070
   100
1070
     1
1070
     1
1070
     0
1070
     0
1070
     0
1070
     0
1040
0.0
1040
0.0
1040
0.0
1040
1.0
1040
1.0
1040
10.0
1040
10.0
1070
     0
1002
{
1002
}
1002
}
1001
GENIUS_GENODEF_13
1002
{
1000
HIER
1070
     0
1002
}
1002
{
1000
MANEDIT
1070
     0
1002
}
1002
{
1000
NOSEL
1070
     0
1002
}
1002
{
1000
BEHIND
1070
     0
1002
}
1002
{
1000
OTHER
1070
     0
1002
}
1002
{
1000
REACTOR
1002
}
1001
GENIUS_GENOBJ-N-SDF_13
1002
{
1000
OWNER
1000
GEN
1002
}
1001
GENIUS_GENSCREG_15
1000
PF
1040
1.0
1000
DF
1040
1.0
1000
MIN
1011
0.0
1021
0.0
1031
-7.0705273947395572E+061
1021
0.0
1031
0.0
1000
MAX
1011
523.0353982300885
1021
0.0
1031
-7.0705273947395572E+061
1021
297.0
1031
0.0
1000
FLAGS
1070
     4
  0
ENDSEC
  0
EOF
