ISO-10303-21;
HEADER;
FILE_DESCRIPTION((''),'1');
FILE_NAME('T:/21_DXF\X2\30C730FC30BF4F5C621057FA6E96\X0\/MGT36-M22U7_8-65.stp','2017-03-22T08:44:41',(''),(''),'Spatial Interop R21 SP3','Kubotek KeyCreator 2011 V10.0.2 (22737)',' ');
FILE_SCHEMA(('automotive_design'));
ENDSEC;
DATA;
#1=MECHANICAL_DESIGN_GEOMETRIC_PRESENTATION_REPRESENTATION(' ',(#10,#11,#12,#13,#14,#15,#16,#17,#18,#19,#20,#21,#22,#23,#24,#25),#6);
#2=PRODUCT_DEFINITION_CONTEXT('',#26,'design');
#3=APPLICATION_PROTOCOL_DEFINITION('INTERNATIONAL STANDARD','automotive_design',1994,#26);
#4=PRODUCT_CATEGORY_RELATIONSHIP('NONE','NONE',#27,#28);
#5=SHAPE_DEFINITION_REPRESENTATION(#29,#30);
#6= (GEOMETRIC_REPRESENTATION_CONTEXT(3)GLOBAL_UNCERTAINTY_ASSIGNED_CONTEXT((#33))GLOBAL_UNIT_ASSIGNED_CONTEXT((#35,#36,#37))REPRESENTATION_CONTEXT('NONE','WORKSPACE'));
#10=STYLED_ITEM('',(#39,#40),#41);
#11=STYLED_ITEM('',(#42,#43),#44);
#12=STYLED_ITEM('',(#45,#46),#47);
#13=STYLED_ITEM('',(#48),#49);
#14=STYLED_ITEM('',(#50),#51);
#15=STYLED_ITEM('',(#52,#53),#54);
#16=STYLED_ITEM('',(#55),#56);
#17=STYLED_ITEM('',(#57,#58),#59);
#18=STYLED_ITEM('',(#60),#61);
#19=STYLED_ITEM('',(#62,#63),#64);
#20=STYLED_ITEM('',(#65),#66);
#21=STYLED_ITEM('',(#67,#68),#69);
#22=STYLED_ITEM('',(#70,#71),#72);
#23=STYLED_ITEM('',(#73),#74);
#24=STYLED_ITEM('',(#75,#76),#77);
#25=STYLED_ITEM('',(#78),#79);
#26=APPLICATION_CONTEXT(' ');
#27=PRODUCT_CATEGORY('part','NONE');
#28=PRODUCT_RELATED_PRODUCT_CATEGORY('detail',' ',(#80));
#29=PRODUCT_DEFINITION_SHAPE('NONE','NONE',#81);
#30=ADVANCED_BREP_SHAPE_REPRESENTATION('240[2]',(#64,#82),#6);
#33=UNCERTAINTY_MEASURE_WITH_UNIT(LENGTH_MEASURE(1.0E-006),#35,'','');
#35= (CONVERSION_BASED_UNIT('MILLIMETRE',#85)LENGTH_UNIT()NAMED_UNIT(#88));
#36= (NAMED_UNIT(#90)PLANE_ANGLE_UNIT()SI_UNIT($,.RADIAN.));
#37= (NAMED_UNIT(#90)SOLID_ANGLE_UNIT()SI_UNIT($,.STERADIAN.));
#39=PRESENTATION_STYLE_ASSIGNMENT((#96));
#40=PRESENTATION_STYLE_ASSIGNMENT((#97));
#41=ADVANCED_FACE('240[2]',(#98,#99),#100,.T.);
#42=PRESENTATION_STYLE_ASSIGNMENT((#101));
#43=PRESENTATION_STYLE_ASSIGNMENT((#102));
#44=ADVANCED_FACE('240[2]',(#103,#104),#105,.T.);
#45=PRESENTATION_STYLE_ASSIGNMENT((#106));
#46=PRESENTATION_STYLE_ASSIGNMENT((#107));
#47=ADVANCED_FACE('240[2]',(#108,#109),#110,.T.);
#48=PRESENTATION_STYLE_ASSIGNMENT((#111));
#49=EDGE_CURVE('240[2]',#112,#112,#113,.T.);
#50=PRESENTATION_STYLE_ASSIGNMENT((#114));
#51=EDGE_CURVE('240[2]',#115,#115,#116,.T.);
#52=PRESENTATION_STYLE_ASSIGNMENT((#117));
#53=PRESENTATION_STYLE_ASSIGNMENT((#118));
#54=ADVANCED_FACE('240[2]',(#119,#120),#121,.T.);
#55=PRESENTATION_STYLE_ASSIGNMENT((#122));
#56=EDGE_CURVE('240[2]',#123,#123,#124,.T.);
#57=PRESENTATION_STYLE_ASSIGNMENT((#125));
#58=PRESENTATION_STYLE_ASSIGNMENT((#126));
#59=ADVANCED_FACE('240[2]',(#127),#128,.T.);
#60=PRESENTATION_STYLE_ASSIGNMENT((#129));
#61=EDGE_CURVE('240[2]',#130,#130,#131,.T.);
#62=PRESENTATION_STYLE_ASSIGNMENT((#132));
#63=PRESENTATION_STYLE_ASSIGNMENT((#133));
#64=MANIFOLD_SOLID_BREP('240[2]',#134);
#65=PRESENTATION_STYLE_ASSIGNMENT((#135));
#66=EDGE_CURVE('240[2]',#136,#136,#137,.T.);
#67=PRESENTATION_STYLE_ASSIGNMENT((#138));
#68=PRESENTATION_STYLE_ASSIGNMENT((#139));
#69=ADVANCED_FACE('240[2]',(#140,#141),#142,.T.);
#70=PRESENTATION_STYLE_ASSIGNMENT((#143));
#71=PRESENTATION_STYLE_ASSIGNMENT((#144));
#72=ADVANCED_FACE('240[2]',(#145),#146,.T.);
#73=PRESENTATION_STYLE_ASSIGNMENT((#147));
#74=EDGE_CURVE('240[2]',#148,#148,#149,.T.);
#75=PRESENTATION_STYLE_ASSIGNMENT((#150));
#76=PRESENTATION_STYLE_ASSIGNMENT((#151));
#77=ADVANCED_FACE('240[2]',(#152,#153),#154,.T.);
#78=PRESENTATION_STYLE_ASSIGNMENT((#155));
#79=EDGE_CURVE('240[2]',#156,#156,#157,.T.);
#80=PRODUCT('240[2]','240[2]','PART-240[2]-DESC',(#158));
#81=PRODUCT_DEFINITION('NONE','NONE',#159,#2);
#82=AXIS2_PLACEMENT_3D('',#160,#161,#162);
#85=LENGTH_MEASURE_WITH_UNIT(LENGTH_MEASURE(1.0),#163);
#88=DIMENSIONAL_EXPONENTS(1.0,0.0,0.0,0.0,0.0,0.0,0.0);
#90=DIMENSIONAL_EXPONENTS(0.0,0.0,0.0,0.0,0.0,0.0,0.0);
#96=SURFACE_STYLE_USAGE(.BOTH.,#164);
#97=CURVE_STYLE('',#165,POSITIVE_LENGTH_MEASURE(1000.0),#166);
#98=FACE_BOUND('',#167,.T.);
#99=FACE_BOUND('',#168,.T.);
#100=CYLINDRICAL_SURFACE('',#169,26.9999999999782);
#101=SURFACE_STYLE_USAGE(.BOTH.,#170);
#102=CURVE_STYLE('',#171,POSITIVE_LENGTH_MEASURE(1000.0),#172);
#103=FACE_OUTER_BOUND('',#173,.T.);
#104=FACE_BOUND('',#174,.T.);
#105=PLANE('',#175);
#106=SURFACE_STYLE_USAGE(.BOTH.,#176);
#107=CURVE_STYLE('',#177,POSITIVE_LENGTH_MEASURE(1000.0),#178);
#108=FACE_BOUND('',#179,.T.);
#109=FACE_BOUND('',#180,.T.);
#110=CONICAL_SURFACE('',#181,26.7499999999782,0.349065850398422);
#111=CURVE_STYLE('',#182,POSITIVE_LENGTH_MEASURE(1000.0),#183);
#112=VERTEX_POINT('',#184);
#113=CIRCLE('',#185,19.999999999974);
#114=CURVE_STYLE('',#186,POSITIVE_LENGTH_MEASURE(1000.0),#187);
#115=VERTEX_POINT('',#188);
#116=CIRCLE('',#189,26.4999999999781);
#117=SURFACE_STYLE_USAGE(.BOTH.,#190);
#118=CURVE_STYLE('',#191,POSITIVE_LENGTH_MEASURE(1000.0),#192);
#119=FACE_BOUND('',#193,.T.);
#120=FACE_BOUND('',#194,.T.);
#121=CONICAL_SURFACE('',#195,21.9999999999911,1.30899693899523);
#122=CURVE_STYLE('',#196,POSITIVE_LENGTH_MEASURE(1000.0),#197);
#123=VERTEX_POINT('',#198);
#124=CIRCLE('',#199,19.9999999999947);
#125=SURFACE_STYLE_USAGE(.BOTH.,#200);
#126=CURVE_STYLE('',#201,POSITIVE_LENGTH_MEASURE(1000.0),#202);
#127=FACE_OUTER_BOUND('',#203,.T.);
#128=PLANE('',#204);
#129=CURVE_STYLE('',#205,POSITIVE_LENGTH_MEASURE(1000.0),#206);
#130=VERTEX_POINT('',#207);
#131=CIRCLE('',#208,17.000000000004);
#132=SURFACE_STYLE_USAGE(.BOTH.,#209);
#133=CURVE_STYLE('',#210,POSITIVE_LENGTH_MEASURE(1000.0),#211);
#134=CLOSED_SHELL('',(#44,#59,#69,#47,#41,#54,#77,#72));
#135=CURVE_STYLE('',#212,POSITIVE_LENGTH_MEASURE(1000.0),#213);
#136=VERTEX_POINT('',#214);
#137=CIRCLE('',#215,26.9999999999782);
#138=SURFACE_STYLE_USAGE(.BOTH.,#216);
#139=CURVE_STYLE('',#217,POSITIVE_LENGTH_MEASURE(1000.0),#218);
#140=FACE_BOUND('',#219,.T.);
#141=FACE_BOUND('',#220,.T.);
#142=CYLINDRICAL_SURFACE('',#221,19.9999999999844);
#143=SURFACE_STYLE_USAGE(.BOTH.,#222);
#144=CURVE_STYLE('',#223,POSITIVE_LENGTH_MEASURE(1000.0),#224);
#145=FACE_OUTER_BOUND('',#225,.T.);
#146=PLANE('',#226);
#147=CURVE_STYLE('',#227,POSITIVE_LENGTH_MEASURE(1000.0),#228);
#148=VERTEX_POINT('',#229);
#149=CIRCLE('',#230,16.999999999996);
#150=SURFACE_STYLE_USAGE(.BOTH.,#231);
#151=CURVE_STYLE('',#232,POSITIVE_LENGTH_MEASURE(1000.0),#233);
#152=FACE_BOUND('',#234,.T.);
#153=FACE_BOUND('',#235,.T.);
#154=CYLINDRICAL_SURFACE('',#236,17.0);
#155=CURVE_STYLE('',#237,POSITIVE_LENGTH_MEASURE(1000.0),#238);
#156=VERTEX_POINT('',#239);
#157=CIRCLE('',#240,26.9999999999782);
#158=PRODUCT_CONTEXT('',#26,'mechanical');
#159=PRODUCT_DEFINITION_FORMATION_WITH_SPECIFIED_SOURCE(' ','NONE',#80,.NOT_KNOWN.);
#160=CARTESIAN_POINT('',(0.0,0.0,0.0));
#161=DIRECTION('',(0.0,0.0,1.0));
#162=DIRECTION('',(1.0,0.0,0.0));
#163= (NAMED_UNIT(#88)LENGTH_UNIT()SI_UNIT(.MILLI.,.METRE.));
#164=SURFACE_SIDE_STYLE('',(#242));
#165=DRAUGHTING_PRE_DEFINED_CURVE_FONT('continuous');
#166=COLOUR_RGB('',0.0,1.0,1.0);
#167=EDGE_LOOP('',(#243));
#168=EDGE_LOOP('',(#244));
#169=AXIS2_PLACEMENT_3D('',#245,#246,#247);
#170=SURFACE_SIDE_STYLE('',(#248));
#171=DRAUGHTING_PRE_DEFINED_CURVE_FONT('continuous');
#172=COLOUR_RGB('',0.0,1.0,1.0);
#173=EDGE_LOOP('',(#249));
#174=EDGE_LOOP('',(#250));
#175=AXIS2_PLACEMENT_3D('',#251,#252,#253);
#176=SURFACE_SIDE_STYLE('',(#254));
#177=DRAUGHTING_PRE_DEFINED_CURVE_FONT('continuous');
#178=COLOUR_RGB('',0.0,1.0,1.0);
#179=EDGE_LOOP('',(#255));
#180=EDGE_LOOP('',(#256));
#181=AXIS2_PLACEMENT_3D('',#257,#258,#259);
#182=DRAUGHTING_PRE_DEFINED_CURVE_FONT('continuous');
#183=COLOUR_RGB('',0.0,1.0,1.0);
#184=CARTESIAN_POINT('',(-5.08228421646199E-015,19.999999999974,74.0000000000097));
#185=AXIS2_PLACEMENT_3D('',#260,#261,#262);
#186=DRAUGHTING_PRE_DEFINED_CURVE_FONT('continuous');
#187=COLOUR_RGB('',0.0,1.0,1.0);
#188=CARTESIAN_POINT('',(-4.5311931568458E-015,26.4999999999781,74.0000000000097));
#189=AXIS2_PLACEMENT_3D('',#263,#264,#265);
#190=SURFACE_SIDE_STYLE('',(#266));
#191=DRAUGHTING_PRE_DEFINED_CURVE_FONT('continuous');
#192=COLOUR_RGB('',0.0,1.0,1.0);
#193=EDGE_LOOP('',(#267));
#194=EDGE_LOOP('',(#268));
#195=AXIS2_PLACEMENT_3D('',#269,#270,#271);
#196=DRAUGHTING_PRE_DEFINED_CURVE_FONT('continuous');
#197=COLOUR_RGB('',0.0,1.0,1.0);
#198=CARTESIAN_POINT('',(-9.4910126933923E-015,19.9999999999947,155.000000000005));
#199=AXIS2_PLACEMENT_3D('',#272,#273,#274);
#200=SURFACE_SIDE_STYLE('',(#275));
#201=DRAUGHTING_PRE_DEFINED_CURVE_FONT('continuous');
#202=COLOUR_RGB('',0.0,1.0,1.0);
#203=EDGE_LOOP('',(#276));
#204=AXIS2_PLACEMENT_3D('',#277,#278,#279);
#205=DRAUGHTING_PRE_DEFINED_CURVE_FONT('continuous');
#206=COLOUR_RGB('',0.0,1.0,1.0);
#207=CARTESIAN_POINT('',(-3.81603053680683E-015,17.0000000000039,62.3205080756949));
#208=AXIS2_PLACEMENT_3D('',#280,#281,#282);
#209=SURFACE_SIDE_STYLE('',(#283));
#210=DRAUGHTING_PRE_DEFINED_CURVE_FONT('continuous');
#211=COLOUR_RGB('',0.0,1.0,1.0);
#212=DRAUGHTING_PRE_DEFINED_CURVE_FONT('continuous');
#213=COLOUR_RGB('',0.0,1.0,1.0);
#214=CARTESIAN_POINT('',(-4.44707592115906E-015,26.9999999999782,72.6262612902804));
#215=AXIS2_PLACEMENT_3D('',#284,#285,#286);
#216=SURFACE_SIDE_STYLE('',(#287));
#217=DRAUGHTING_PRE_DEFINED_CURVE_FONT('continuous');
#218=COLOUR_RGB('',0.0,1.0,1.0);
#219=EDGE_LOOP('',(#288));
#220=EDGE_LOOP('',(#289));
#221=AXIS2_PLACEMENT_3D('',#290,#291,#292);
#222=SURFACE_SIDE_STYLE('',(#293));
#223=DRAUGHTING_PRE_DEFINED_CURVE_FONT('continuous');
#224=COLOUR_RGB('',0.0,1.0,1.0);
#225=EDGE_LOOP('',(#294));
#226=AXIS2_PLACEMENT_3D('',#295,#296,#297);
#227=DRAUGHTING_PRE_DEFINED_CURVE_FONT('continuous');
#228=COLOUR_RGB('',0.0,1.0,1.0);
#229=CARTESIAN_POINT('',(0.0,16.999999999996,0.0));
#230=AXIS2_PLACEMENT_3D('',#298,#299,#300);
#231=SURFACE_SIDE_STYLE('',(#301));
#232=DRAUGHTING_PRE_DEFINED_CURVE_FONT('continuous');
#233=COLOUR_RGB('',0.0,1.0,1.0);
#234=EDGE_LOOP('',(#302));
#235=EDGE_LOOP('',(#303));
#236=AXIS2_PLACEMENT_3D('',#304,#305,#306);
#237=DRAUGHTING_PRE_DEFINED_CURVE_FONT('continuous');
#238=COLOUR_RGB('',0.0,1.0,1.0);
#239=CARTESIAN_POINT('',(-3.98010209722919E-015,26.9999999999782,65.0000000000047));
#240=AXIS2_PLACEMENT_3D('',#307,#308,#309);
#242=SURFACE_STYLE_FILL_AREA(#310);
#243=ORIENTED_EDGE('',*,*,#79,.F.);
#244=ORIENTED_EDGE('',*,*,#66,.T.);
#245=CARTESIAN_POINT('',(-4.21358900919412E-015,-8.42717801838825E-015,68.8131306451426));
#246=DIRECTION('',(-6.12323399573677E-017,-1.22464679914735E-016,1.0));
#247=DIRECTION('',(-1.23259516440783E-032,1.0,1.22464679914735E-016));
#248=SURFACE_STYLE_FILL_AREA(#311);
#249=ORIENTED_EDGE('',*,*,#51,.F.);
#250=ORIENTED_EDGE('',*,*,#49,.T.);
#251=CARTESIAN_POINT('',(-19.6836970095126,3.54289035064104,74.0000000000097));
#252=DIRECTION('',(0.0,0.0,1.0));
#253=DIRECTION('',(1.0,-0.0,0.0));
#254=SURFACE_STYLE_FILL_AREA(#312);
#255=ORIENTED_EDGE('',*,*,#66,.F.);
#256=ORIENTED_EDGE('',*,*,#51,.T.);
#257=CARTESIAN_POINT('',(-4.48913453900243E-015,-8.97826907800486E-015,73.313130645145));
#258=DIRECTION('',(6.12323399573677E-017,1.22464679914735E-016,-1.0));
#259=DIRECTION('',(-1.23259516440783E-032,1.0,1.22464679914735E-016));
#260=CARTESIAN_POINT('',(-5.08228421646199E-015,-1.0164568432924E-014,74.0000000000097));
#261=DIRECTION('',(6.12323399573676E-017,1.22464679914735E-016,-1.0));
#262=DIRECTION('',(-1.23259516440783E-032,1.0,1.22464679914735E-016));
#263=CARTESIAN_POINT('',(-4.5311931568458E-015,-9.0623863136916E-015,74.0000000000097));
#264=DIRECTION('',(6.12323399573677E-017,1.22464679914735E-016,-1.0));
#265=DIRECTION('',(-1.23259516440783E-032,1.0,1.22464679914735E-016));
#266=SURFACE_STYLE_FILL_AREA(#313);
#267=ORIENTED_EDGE('',*,*,#61,.F.);
#268=ORIENTED_EDGE('',*,*,#79,.T.);
#269=CARTESIAN_POINT('',(-3.89806631701801E-015,-7.79613263403601E-015,63.6602540378498));
#270=DIRECTION('',(-6.12323399573676E-017,-1.22464679914735E-016,1.0));
#271=DIRECTION('',(-1.23259516440783E-032,1.0,1.22464679914735E-016));
#272=CARTESIAN_POINT('',(-9.4910126933923E-015,-1.89820253867846E-014,155.000000000005));
#273=DIRECTION('',(6.12323399573676E-017,1.22464679914735E-016,-1.0));
#274=DIRECTION('',(-1.23259516440783E-032,1.0,1.22464679914735E-016));
#275=SURFACE_STYLE_FILL_AREA(#314);
#276=ORIENTED_EDGE('',*,*,#56,.F.);
#277=CARTESIAN_POINT('',(-9.49101269339227E-015,9.99999999999736,155.000000000005));
#278=DIRECTION('',(-1.39489782170325E-043,-4.7728827975854E-014,1.0));
#279=DIRECTION('',(1.0,-2.92254782038421E-030,0.0));
#280=CARTESIAN_POINT('',(-3.81603053680683E-015,-7.63206107361365E-015,62.3205080756949));
#281=DIRECTION('',(6.12323399573677E-017,1.22464679914735E-016,-1.0));
#282=DIRECTION('',(-1.23259516440783E-032,1.0,1.22464679914735E-016));
#283=SURFACE_STYLE_FILL_AREA(#315);
#284=CARTESIAN_POINT('',(-4.44707592115906E-015,-8.89415184231812E-015,72.6262612902804));
#285=DIRECTION('',(6.12323399573677E-017,1.22464679914735E-016,-1.0));
#286=DIRECTION('',(-1.23259516440783E-032,1.0,1.22464679914735E-016));
#287=SURFACE_STYLE_FILL_AREA(#316);
#288=ORIENTED_EDGE('',*,*,#49,.F.);
#289=ORIENTED_EDGE('',*,*,#56,.T.);
#290=CARTESIAN_POINT('',(-7.28664845492714E-015,-1.45732969098543E-014,119.000000000006));
#291=DIRECTION('',(-6.12323399573677E-017,-1.22464679914735E-016,1.0));
#292=DIRECTION('',(-1.23259516440783E-032,1.0,1.22464679914735E-016));
#293=SURFACE_STYLE_FILL_AREA(#317);
#294=ORIENTED_EDGE('',*,*,#74,.T.);
#295=CARTESIAN_POINT('',(-2.36658271566304E-028,8.499999999998,3.86535248253495E-012));
#296=DIRECTION('',(6.12323399573677E-017,-4.54624886206656E-013,-1.0));
#297=DIRECTION('',(0.0,-1.0,4.54624886206656E-013));
#298=CARTESIAN_POINT('',(0.0,0.0,0.0));
#299=DIRECTION('',(6.12323399573677E-017,1.22464679914735E-016,-1.0));
#300=DIRECTION('',(-1.23259516440783E-032,1.0,1.22464679914735E-016));
#301=SURFACE_STYLE_FILL_AREA(#318);
#302=ORIENTED_EDGE('',*,*,#74,.F.);
#303=ORIENTED_EDGE('',*,*,#61,.T.);
#304=CARTESIAN_POINT('',(-1.90801526840341E-015,-3.81603053680683E-015,31.1602540378474));
#305=DIRECTION('',(-6.12323399573677E-017,-1.22464679914735E-016,1.0));
#306=DIRECTION('',(-1.23259516440783E-032,1.0,1.22464679914735E-016));
#307=CARTESIAN_POINT('',(-3.98010209722919E-015,-7.96020419445837E-015,65.0000000000047));
#308=DIRECTION('',(6.12323399573677E-017,1.22464679914735E-016,-1.0));
#309=DIRECTION('',(-1.23259516440783E-032,1.0,1.22464679914735E-016));
#310=FILL_AREA_STYLE('',(#319));
#311=FILL_AREA_STYLE('',(#320));
#312=FILL_AREA_STYLE('',(#321));
#313=FILL_AREA_STYLE('',(#322));
#314=FILL_AREA_STYLE('',(#323));
#315=FILL_AREA_STYLE('',(#324));
#316=FILL_AREA_STYLE('',(#325));
#317=FILL_AREA_STYLE('',(#326));
#318=FILL_AREA_STYLE('',(#327));
#319=FILL_AREA_STYLE_COLOUR('',#328);
#320=FILL_AREA_STYLE_COLOUR('',#329);
#321=FILL_AREA_STYLE_COLOUR('',#330);
#322=FILL_AREA_STYLE_COLOUR('',#331);
#323=FILL_AREA_STYLE_COLOUR('',#332);
#324=FILL_AREA_STYLE_COLOUR('',#333);
#325=FILL_AREA_STYLE_COLOUR('',#334);
#326=FILL_AREA_STYLE_COLOUR('',#335);
#327=FILL_AREA_STYLE_COLOUR('',#336);
#328=COLOUR_RGB('',0.0,1.0,1.0);
#329=COLOUR_RGB('',0.0,1.0,1.0);
#330=COLOUR_RGB('',0.0,1.0,1.0);
#331=COLOUR_RGB('',0.0,1.0,1.0);
#332=COLOUR_RGB('',0.0,1.0,1.0);
#333=COLOUR_RGB('',0.0,1.0,1.0);
#334=COLOUR_RGB('',0.0,1.0,1.0);
#335=COLOUR_RGB('',0.0,1.0,1.0);
#336=COLOUR_RGB('',0.0,1.0,1.0);
ENDSEC;
END-ISO-10303-21;
