  0
SECTION
  2
HEADER
  9
$ACADVER
  1
AC1009
  9
$INSBASE
 10
0.0
 20
0.0
 30
0.0
  9
$EXTMIN
 10
-92.220854310484356
 20
-39.136982186025563
 30
0.0
  9
$EXTMAX
 10
92.0
 20
66.707299286452553
 30
0.0
  9
$LIMMIN
 10
0.0
 20
0.0
  9
$LIMMAX
 10
297.0
 20
210.0
  9
$ORTHOMODE
 70
     1
  9
$REGENMODE
 70
     1
  9
$FILLMODE
 70
     1
  9
$QTEXTMODE
 70
     0
  9
$MIRRTEXT
 70
     1
  9
$DRAGMODE
 70
     2
  9
$LTSCALE
 40
10.0
  9
$OSMODE
 70
     0
  9
$ATTMODE
 70
     1
  9
$TEXTSIZE
 40
3.0
  9
$TRACEWID
 40
1.0
  9
$TEXTSTYLE
  7
YOKO
  9
$CLAYER
  8
240
  9
$CELTYPE
  6
BYLAYER
  9
$CECOLOR
 62
   256
  9
$DIMSCALE
 40
1.0
  9
$DIMASZ
 40
2.2299999999999991
  9
$DIMEXO
 40
0.5
  9
$DIMDLI
 40
7.0
  9
$DIMRND
 40
0.0
  9
$DIMDLE
 40
0.0
  9
$DIMEXE
 40
1.0
  9
$DIMTP
 40
0.0
  9
$DIMTM
 40
0.01
  9
$DIMTXT
 40
2.799999999999998
  9
$DIMCEN
 40
0.0
  9
$DIMTSZ
 40
0.0
  9
$DIMTOL
 70
     0
  9
$DIMLIM
 70
     0
  9
$DIMTIH
 70
     0
  9
$DIMTOH
 70
     0
  9
$DIMSE1
 70
     0
  9
$DIMSE2
 70
     0
  9
$DIMTAD
 70
     3
  9
$DIMZIN
 70
     9
  9
$DIMBLK
  1
OPEN
  9
$DIMASO
 70
     1
  9
$DIMSHO
 70
     1
  9
$DIMPOST
  1

  9
$DIMAPOST
  1

  9
$DIMALT
 70
     0
  9
$DIMALTD
 70
     2
  9
$DIMALTF
 40
25.399999999999999
  9
$DIMLFAC
 40
1.0
  9
$DIMTOFL
 70
     1
  9
$DIMTVP
 40
0.0
  9
$DIMTIX
 70
     1
  9
$DIMSOXD
 70
     0
  9
$DIMSAH
 70
     0
  9
$DIMBLK1
  1

  9
$DIMBLK2
  1

  9
$DIMSTYLE
  2
BIGT
  9
$DIMCLRD
 70
   256
  9
$DIMCLRE
 70
   256
  9
$DIMCLRT
 70
    40
  9
$DIMTFAC
 40
1.0
  9
$DIMGAP
 40
1.0
  9
$LUNITS
 70
     2
  9
$LUPREC
 70
     3
  9
$SKETCHINC
 40
1.0
  9
$FILLETRAD
 40
1.0
  9
$AUNITS
 70
     0
  9
$AUPREC
 70
     3
  9
$MENU
  1
.
  9
$ELEVATION
 40
0.0
  9
$PELEVATION
 40
0.0
  9
$THICKNESS
 40
0.0
  9
$LIMCHECK
 70
     0
  9
$BLIPMODE
 70
     0
  9
$CHAMFERA
 40
0.25
  9
$CHAMFERB
 40
0.25
  9
$SKPOLY
 70
     0
  9
$TDCREATE
 40
2455799.6430202778
  9
$TDUPDATE
 40
2457835.6642767009
  9
$TDINDWG
 40
0.079216088
  9
$TDUSRTIMER
 40
0.0792160532
  9
$USRTIMER
 70
     1
  9
$ANGBASE
 50
0.0
  9
$ANGDIR
 70
     0
  9
$PDMODE
 70
     1
  9
$PDSIZE
 40
0.0
  9
$PLINEWID
 40
0.0
  9
$COORDS
 70
     1
  9
$SPLFRAME
 70
     0
  9
$SPLINETYPE
 70
     6
  9
$SPLINESEGS
 70
     4
  9
$ATTDIA
 70
     1
  9
$ATTREQ
 70
     1
  9
$HANDLING
 70
     1
  9
$HANDSEED
  5
25A4
  9
$SURFTAB1
 70
     6
  9
$SURFTAB2
 70
     6
  9
$SURFTYPE
 70
     6
  9
$SURFU
 70
     6
  9
$SURFV
 70
     6
  9
$UCSNAME
  2

  9
$UCSORG
 10
0.0
 20
0.0
 30
0.0
  9
$UCSXDIR
 10
1.0
 20
0.0
 30
0.0
  9
$UCSYDIR
 10
0.0
 20
1.0
 30
0.0
  9
$PUCSNAME
  2

  9
$PUCSORG
 10
0.0
 20
0.0
 30
0.0
  9
$PUCSXDIR
 10
1.0
 20
0.0
 30
0.0
  9
$PUCSYDIR
 10
0.0
 20
1.0
 30
0.0
  9
$USERI1
 70
     1
  9
$USERI2
 70
     0
  9
$USERI3
 70
     0
  9
$USERI4
 70
     0
  9
$USERI5
 70
     0
  9
$USERR1
 40
0.0
  9
$USERR2
 40
0.0
  9
$USERR3
 40
0.0
  9
$USERR4
 40
0.0
  9
$USERR5
 40
0.0
  9
$WORLDVIEW
 70
     1
  9
$SHADEDGE
 70
     3
  9
$SHADEDIF
 70
    70
  9
$TILEMODE
 70
     1
  9
$MAXACTVP
 70
    16
  9
$PLIMCHECK
 70
     0
  9
$PEXTMIN
 10
1.0000000000000000E+020
 20
1.0000000000000000E+020
 30
1.0000000000000000E+020
  9
$PEXTMAX
 10
-1.0000000000000000E+020
 20
-1.0000000000000000E+020
 30
-1.0000000000000000E+020
  9
$PLIMMIN
 10
0.0
 20
0.0
  9
$PLIMMAX
 10
420.0
 20
297.0
  9
$UNITMODE
 70
     0
  9
$VISRETAIN
 70
     1
  9
$PLINEGEN
 70
     0
  9
$PSLTSCALE
 70
     1
  0
ENDSEC
  0
SECTION
  2
TABLES
  0
TABLE
  2
VPORT
 70
     1
  0
VPORT
  2
*ACTIVE
 70
     0
 10
0.0
 20
0.0
 11
1.0
 21
1.0
 12
-17.699822208785971
 22
15.54637948585969
 13
0.0
 23
0.0
 14
7.0
 24
7.0
 15
7.0
 25
7.0
 16
0.0
 26
0.0
 36
1.0
 17
0.0
 27
0.0
 37
0.0
 40
175.904885883166
 41
1.6795646916565901
 42
50.0
 43
0.0
 44
0.0
 50
0.0
 51
0.0
 71
     0
 72
  2000
 73
     1
 74
     0
 75
     0
 76
     1
 77
     0
 78
     0
  0
ENDTAB
  0
TABLE
  2
LTYPE
 70
    17
  0
LTYPE
  2
CONTINUOUS
 70
     0
  3
Solid line
 72
    65
 73
     0
 40
0.0
  0
LTYPE
  2
CENTER2
 70
     0
  3
___ _ ___ _ ___ _ ___ _ ___ _ ___ _ ___ _ ___ _
 72
    65
 73
     4
 40
1.125
 49
0.75
 49
-0.125
 49
0.125
 49
-0.125
  0
LTYPE
  2
HIDDEN2
 70
     0
  3
_ _ _ _ _ _ _ _ _ _ _ _ _ _ _ _ _ _ _ _ _ _ _ _
 72
    65
 73
     2
 40
0.1875
 49
0.125
 49
-0.0625
  0
LTYPE
  2
PHANTOM2
 70
     0
  3
___ _ _ ___ _ _ ___ _ _ ___ _ _ ___ _ _ ___ _ _
 72
    65
 73
     6
 40
1.25
 49
0.625
 49
-0.125
 49
0.125
 49
-0.125
 49
0.125
 49
-0.125
  0
LTYPE
  2
CENTER
 70
     0
  3
____ _ ____ _ ____ _ ____ _ ____ _ ____ _ ____ 
 72
    65
 73
     4
 40
2.0
 49
1.25
 49
-0.25
 49
0.25
 49
-0.25
  0
LTYPE
  2
AMCONSTR
 70
     0
  3
_______________________
 72
    65
 73
     2
 40
9999.0
 49
9999.0
 49
0.0
  0
LTYPE
  2
HIDDEN
 70
     0
  3
Hidden __ __ __ __ __ __ __ __ __ __ __ __ __ _
 72
    65
 73
     2
 40
9.5249999999999986
 49
6.349999999999997
 49
-3.174999999999998
  0
LTYPE
  2
AMZIGZAG2
 70
     0
  3
/\/-/\/-/\/-/\/-/\/-/\/
 72
    65
 73
     2
 40
0.4401
 49
0.0001
 49
-0.4400000000000002
  0
LTYPE
  2
ACANSTGB
 70
     0
  3
__ . . __ . .
 72
    65
 73
     6
 40
0.35433070866
 49
0.15748031496
 49
-0.03937007874
 49
0.03937007874
 49
-0.03937007874
 49
0.03937007874
 49
-0.03937007874
  0
LTYPE
  2
ACANSTGL
 70
     0
  3
_ _ _ _ _
 72
    65
 73
     2
 40
0.11811023622
 49
0.07874015748
 49
-0.03937007874
  0
ENDTAB
  0
TABLE
  2
LAYER
 70
    11
  0
LAYER
  2
0
 70
     0
 62
     7
  6
CONTINUOUS
  0
LAYER
  2
250
 70
     0
 62
     3
  6
CONTINUOUS
  0
LAYER
  2
240
 70
     0
 62
     4
  6
CONTINUOUS
  0
LAYER
  2
DEFPOINTS
 70
     0
 62
     7
  6
CONTINUOUS
  0
LAYER
  2
245
 70
     0
 62
     2
  6
CENTER2
  0
LAYER
  2
241
 70
     0
 62
   211
  6
CONTINUOUS
  0
LAYER
  2
242
 70
     0
 62
     3
  6
CONTINUOUS
  0
LAYER
  2
243
 70
     0
 62
   211
  6
HIDDEN2
  0
LAYER
  2
244
 70
     0
 62
     3
  6
HIDDEN2
  0
LAYER
  2
247
 70
     0
 62
    60
  6
CONTINUOUS
  0
ENDTAB
  0
TABLE
  2
STYLE
 70
     6
  0
STYLE
  2
STANDARD
 70
     0
 40
0.0
 41
1.0
 50
0.0
 71
     0
 42
3.0
  3
romans.shx
  4
extfont.shx
  0
STYLE
  2
YOKO
 70
     0
 40
0.0
 41
1.0
 50
0.0
 71
     0
 42
3.0
  3
romans.shx
  4
extfont.shx
  0
STYLE
  2
ACANSGDT
 70
     0
 40
0.0
 41
1.0
 50
0.0
 71
     0
 42
3.0
  3
amgdt.shx
  4

  0
ENDTAB
  0
TABLE
  2
VIEW
 70
     0
  0
ENDTAB
  0
TABLE
  2
UCS
 70
     0
  0
ENDTAB
  0
TABLE
  2
APPID
 70
    46
  0
APPID
  2
ACAD
 70
     0
  0
APPID
  2
ACADANNOTATIVE
 70
     0
  0
APPID
  2
GLOBAL
 70
     0
  0
APPID
  2
DETAIL
 70
     0
  0
APPID
  2
GRPNAME
 70
     0
  0
APPID
  2
GPARA
 70
     0
  0
APPID
  2
MCAD_NO_VIS
 70
     0
  0
APPID
  2
ACAD_TEMP_GRAPHIC
 70
     0
  0
APPID
  2
ACATTRIBSERVICES
 70
     0
  0
APPID
  2
GENIUS_GENSCREG_15
 70
     0
  0
APPID
  2
GENIUS_GENODEF_13
 70
     0
  0
APPID
  2
GENIUS_GENOBJ-N-SDF_13
 70
     0
  0
APPID
  2
GENIUS_GENREC_14
 70
     0
  0
APPID
  2
GENIUS_GENOBJ-N-REC_13
 70
     0
  0
APPID
  2
GENIUS_GENDIMSH_14
 70
     0
  0
APPID
  2
GENIUS_GENOBJ-N-DIM_13
 70
     0
  0
APPID
  2
GENIUS_GENDIM_13
 70
     0
  0
APPID
  2
GENIUS_GENDTOL_13
 70
     0
  0
APPID
  2
GENIUS_GENOLIS_13
 70
     0
  0
APPID
  2
GENIUS_GENOENT_13
 70
     0
  0
APPID
  2
GENIUS_GENOBJ-F-FEM_13
 70
     0
  0
APPID
  2
GENIUS_GENOREF_13
 70
     0
  0
APPID
  2
GENIUS_GEFFEM_13
 70
     0
  0
APPID
  2
GENIUS_GEFFEMP_13
 70
     0
  0
APPID
  2
AD_DRAW
 70
     0
  0
APPID
  2
DESIGNERASSEMBLIES
 70
     0
  0
APPID
  2
ACADM_DIM_EDIT
 70
     0
  0
APPID
  2
AMDT_DM_ADJ
 70
     0
  0
APPID
  2
GENIUS_GENOBJ-N-FIL_13
 70
     0
  0
APPID
  2
GENIUS_GENFIL_13
 70
     0
  0
APPID
  2
GENIUS_GENOBJ-N-CHA_13
 70
     0
  0
APPID
  2
GENIUS_GENOBJ-N-CRS_13
 70
     0
  0
APPID
  2
HATCH_TYPE
 70
     0
  0
APPID
  2
HATCH_DISPLAY
 70
     0
  0
APPID
  2
HATCH_DISTANCE
 70
     0
  0
APPID
  2
ACAD_DSTYLE_DIMJAG
 70
     0
  0
APPID
  2
ACAD_DSTYLE_DIMBREAK
 70
     0
  0
APPID
  2
ACAD_NAV_VCDISPLAY
 70
     0
  0
APPID
  2
ACAECLAYERSTANDARD
 70
     0
  0
APPID
  2
ACAD_EXEMPT_FROM_CAD_STANDARDS
 70
     0
  0
APPID
  2
ACAD_DSTYLE_DIMINSPECT
 70
     0
  0
APPID
  2
ACAD_MLEADERVER
 70
     0
  0
APPID
  2
ACAD_DSTYLE_DIMARC_LENGTH_
 70
     0
  0
APPID
  2
ACAD_DSTYLE_DIM_LINETYPE
 70
     0
  0
APPID
  2
ACAD_DSTYLE_DIM_EXT1_LINETYPE
 70
     0
  0
APPID
  2
ACAD_DSTYLE_DIM_EXT2_LINETYPE
 70
     0
  0
ENDTAB
  0
TABLE
  2
DIMSTYLE
 70
    11
  0
DIMSTYLE
  2
STANDARD
 70
     0
  3

  4

  5

  6

  7

 40
1.0
 41
0.18
 42
0.0625
 43
0.38
 44
0.18
 45
0.0
 46
0.0
 47
0.0
 48
0.0
140
0.18
141
0.09
142
0.0
143
25.399999999999999
144
1.0
145
0.0
146
1.0
147
0.09
 71
     0
 72
     0
 73
     1
 74
     1
 75
     0
 76
     0
 77
     0
 78
     0
170
     0
171
     2
172
     0
173
     0
174
     0
175
     0
176
     0
177
     0
178
     0
  0
DIMSTYLE
  2
BIGT
 70
     0
  3

  4

  5

  6

  7

 40
1.0
 41
2.2299999999999991
 42
0.5
 43
7.0
 44
1.0
 45
0.0
 46
0.0
 47
0.0
 48
0.01
140
2.799999999999998
141
0.0
142
0.0
143
25.399999999999999
144
1.0
145
0.0
146
1.0
147
1.0
 71
     0
 72
     0
 73
     0
 74
     0
 75
     0
 76
     0
 77
     3
 78
     9
170
     0
171
     2
172
     1
173
     0
174
     1
175
     0
176
   256
177
   256
178
    40
  0
DIMSTYLE
  2
AM_ANSI
 70
     0
  3

  4
mm
  5

  6

  7

 40
1.0
 41
0.12
 42
0.05
 43
0.5
 44
0.1
 45
0.0
 46
0.0
 47
0.1
 48
0.1
140
0.12
141
0.0
142
0.0
143
25.399999999999999
144
1.0
145
0.0
146
0.71
147
0.06
 71
     0
 72
     0
 73
     1
 74
     1
 75
     0
 76
     0
 77
     0
 78
     7
170
     0
171
     2
172
     0
173
     0
174
     0
175
     0
176
   256
177
   256
178
     2
  0
DIMSTYLE
  2
AM_ANSI$3
 70
     0
  3

  4
mm
  5

  6

  7

 40
1.0
 41
0.12
 42
0.05
 43
0.5
 44
0.1
 45
0.0
 46
0.0
 47
0.1
 48
0.1
140
0.12
141
0.0
142
0.0
143
25.399999999999999
144
1.0
145
0.0
146
0.71
147
0.06
 71
     0
 72
     0
 73
     1
 74
     1
 75
     0
 76
     0
 77
     0
 78
     7
170
     0
171
     2
172
     0
173
     0
174
     0
175
     0
176
   256
177
   256
178
     2
  0
DIMSTYLE
  2
AM_ANSI$4
 70
     0
  3

  4
mm
  5

  6

  7

 40
1.0
 41
0.12
 42
0.05
 43
0.5
 44
0.1
 45
0.0
 46
0.0
 47
0.1
 48
0.1
140
0.12
141
0.0
142
0.0
143
25.399999999999999
144
1.0
145
0.0
146
0.71
147
0.06
 71
     0
 72
     0
 73
     1
 74
     1
 75
     0
 76
     0
 77
     0
 78
     7
170
     0
171
     2
172
     0
173
     0
174
     0
175
     0
176
   256
177
   256
178
     2
  0
DIMSTYLE
  2
AM_ANSI$7
 70
     0
  3

  4
mm
  5

  6

  7

 40
1.0
 41
0.12
 42
0.05
 43
0.5
 44
0.1
 45
0.0
 46
0.0
 47
0.1
 48
0.1
140
0.12
141
0.0
142
0.0
143
25.399999999999999
144
1.0
145
0.0
146
0.71
147
0.06
 71
     0
 72
     0
 73
     1
 74
     1
 75
     0
 76
     0
 77
     0
 78
     7
170
     0
171
     2
172
     0
173
     0
174
     0
175
     0
176
   256
177
   256
178
     2
  0
DIMSTYLE
  2
AM_ANSI$SF
 70
     0
  3

  4
mm
  5

  6

  7

 40
1.0
 41
0.12
 42
0.05
 43
0.5
 44
0.1
 45
0.0
 46
0.0
 47
0.1
 48
0.1
140
0.12
141
0.0
142
0.0
143
25.399999999999999
144
1.0
145
0.0
146
0.71
147
0.06
 71
     0
 72
     0
 73
     1
 74
     1
 75
     1
 76
     1
 77
     0
 78
     7
170
     0
171
     2
172
     0
173
     0
174
     0
175
     0
176
   256
177
   256
178
     2
  0
DIMSTYLE
  2
AM_ANSI$SH
 70
     0
  3

  4
mm
  5

  6

  7

 40
1.0
 41
0.12
 42
0.05
 43
0.5
 44
0.1
 45
0.0
 46
0.0
 47
0.1
 48
0.1
140
0.12
141
0.0
142
0.0
143
25.399999999999999
144
1.0
145
0.0
146
0.71
147
0.06
 71
     0
 72
     0
 73
     1
 74
     1
 75
     1
 76
     1
 77
     0
 78
     7
170
     0
171
     2
172
     0
173
     1
174
     0
175
     0
176
   256
177
   256
178
     2
  0
ENDTAB
  0
ENDSEC
  0
SECTION
  2
BLOCKS
  0
BLOCK
  8
0
  2
$MODEL_SPACE
 70
     0
 10
0.0
 20
0.0
 30
0.0
  3
$MODEL_SPACE
  1

  0
ENDBLK
  5
2443
  8
0
  0
BLOCK
 67
     1
  8
0
  2
$PAPER_SPACE
 70
     0
 10
0.0
 20
0.0
 30
0.0
  3
$PAPER_SPACE
  1

  0
ENDBLK
  5
243F
 67
     1
  8
0
  0
BLOCK
  8
0
  2
_OPEN
 70
     0
 10
0.0
 20
0.0
 30
0.0
  3
_OPEN
  1

  0
LINE
  5
1835
  8
0
  6
BYBLOCK
 62
     0
 10
-1.0
 20
0.1666666666666666
 30
0.0
 11
0.0
 21
0.0
 31
0.0
  0
LINE
  5
1836
  8
0
  6
BYBLOCK
 62
     0
 10
-1.0
 20
-0.1666666666666666
 30
0.0
 11
0.0
 21
0.0
 31
0.0
  0
LINE
  5
1837
  8
0
  6
BYBLOCK
 62
     0
 10
0.0
 20
0.0
 30
0.0
 11
-1.0
 21
0.0
 31
0.0
  0
ENDBLK
  5
1838
  8
0
  0
BLOCK
  8
0
  2
*U4
 70
     1
 10
0.0
 20
0.0
 30
0.0
  3
*U4
  1

  0
TEXT
  5
18A0
  8
250
 10
76.0
 20
-36.160558595496092
 30
0.0
 40
6.0
  1
\U+220515
 50
90.0
  0
ENDBLK
  5
18A2
  8
0
  0
BLOCK
  8
0
  2
_ACMFILLEDHALF
 70
     0
 10
0.0
 20
0.0
 30
0.0
  3
_ACMFILLEDHALF
  1

  0
TRACE
  5
1BE9
  8
240
 62
     0
 10
-0.8
 20
0.0
 30
0.0
 11
-1.0
 21
0.166666666
 31
0.0
 12
0.0
 22
0.0
 32
0.0
 13
0.0
 23
0.0
 33
0.0
  0
LINE
  5
1BEA
  8
240
 62
     0
 10
-1.0
 20
0.0
 30
0.0
 11
-0.8
 21
0.0
 31
0.0
  0
ENDBLK
  5
1BE8
  8
0
  0
ENDSEC
  0
SECTION
  2
ENTITIES
  0
TEXT
  5
152B
  8
241
  6
CONTINUOUS
 10
-90.706710985125014
 20
59.207299286452553
 30
0.0
 40
7.5
  1
MGT36-M20-65
  7
YOKO
  0
LINE
  5
16C8
  8
250
  6
CONTINUOUS
 10
-0.000000000001819
 20
27.499999999992269
 30
0.0
 11
-0.000000000001818
 21
43.0
 31
0.0
  0
LINE
  5
16C9
  8
250
  6
CONTINUOUS
 10
65.000000000001819
 20
16.499999999997659
 30
0.0
 11
65.000000000001819
 21
43.0
 31
0.0
  0
LINE
  5
16CA
  8
250
  6
CONTINUOUS
 10
2.2299999999981801
 20
42.0
 30
0.0
 11
62.770000000001822
 21
42.0
 31
0.0
  0
LINE
  5
16CF
  8
250
  6
CONTINUOUS
 10
65.500000000002302
 20
15.99999999999636
 30
0.0
 11
92.0
 21
15.99999999999635
 31
0.0
  0
LINE
  5
16D0
  8
250
  6
CONTINUOUS
 10
65.499999999986755
 20
-15.999999999999091
 30
0.0
 11
92.0
 21
-15.999999999999099
 31
0.0
  0
LINE
  5
16D1
  8
250
  6
CONTINUOUS
 10
91.0
 20
13.76999999999634
 30
0.0
 11
91.0
 21
-13.769999999999101
 31
0.0
  0
LINE
  5
16D5
  8
250
  6
CONTINUOUS
 10
65.499999999998181
 20
7.499999999997268
 30
0.0
 11
78.0
 21
7.4999999999972671
 31
0.0
  0
LINE
  5
16D6
  8
250
  6
CONTINUOUS
 10
65.499999999990891
 20
-7.5000000000013634
 30
0.0
 11
78.0
 21
-7.5000000000013669
 31
0.0
  0
LINE
  5
16D7
  8
250
  6
CONTINUOUS
 10
77.0
 20
5.2699999999972684
 30
0.0
 11
77.0
 21
-5.2700000000013683
 31
0.0
  0
LINE
  5
16D8
  8
250
  6
CONTINUOUS
 10
76.999999999999986
 20
-36.589130024067529
 30
0.0
 11
77.0
 21
-7.5000000000013669
 31
0.0
  0
INSERT
  5
16D9
  8
250
  6
CONTINUOUS
  2
*U4
 10
0.0
 20
0.0
 30
0.0
  0
LINE
  5
16DC
  8
250
  6
CONTINUOUS
 10
24.499999999998181
 20
5.9999999999972706
 30
0.0
 11
17.211951921361099
 21
5.9999999999972724
 31
0.0
  0
LINE
  5
16DD
  8
250
  6
CONTINUOUS
 10
24.499999999998181
 20
-5.999999999998181
 30
0.0
 11
17.211951921361099
 21
-5.9999999999981757
 31
0.0
  0
LINE
  5
16DE
  8
250
  6
CONTINUOUS
 10
18.211951921361091
 20
3.7699999999972711
 30
0.0
 11
18.211951921361091
 21
-3.769999999998177
 31
0.0
  0
LINE
  5
16DF
  8
250
  6
CONTINUOUS
 10
18.211951921361091
 20
-39.136982186025563
 30
0.0
 11
18.211951921361091
 21
-5.9999999999981801
 31
0.0
  0
LINE
  5
16E3
  8
250
  6
CONTINUOUS
 10
18.583618588027761
 20
-3.7699999999981801
 30
0.0
 11
18.211951921361091
 21
-5.9999999999981801
 31
0.0
  0
LINE
  5
16E4
  8
250
  6
CONTINUOUS
 10
17.840285254694439
 20
-3.7699999999981801
 30
0.0
 11
18.211951921361091
 21
-5.9999999999981801
 31
0.0
  0
LINE
  5
16E5
  8
250
  6
CONTINUOUS
 10
18.211951921361091
 20
-5.9999999999981801
 30
0.0
 11
18.211951921361091
 21
-3.7699999999981801
 31
0.0
  0
LINE
  5
16E6
  8
250
  6
CONTINUOUS
 10
17.840285254694439
 20
3.7699999999972711
 30
0.0
 11
18.211951921361091
 21
5.9999999999972724
 31
0.0
  0
LINE
  5
16E7
  8
250
  6
CONTINUOUS
 10
18.583618588027761
 20
3.7699999999972711
 30
0.0
 11
18.211951921361091
 21
5.9999999999972724
 31
0.0
  0
LINE
  5
16E8
  8
250
  6
CONTINUOUS
 10
18.211951921361091
 20
5.9999999999972724
 30
0.0
 11
18.211951921361091
 21
3.7699999999972711
 31
0.0
  0
TEXT
  5
16E9
  8
250
  6
CONTINUOUS
 10
90.0
 20
-8.1428571428584977
 30
0.0
 40
6.0
  1
\U+220532
 50
90.0
  0
LINE
  5
16EA
  8
250
  6
CONTINUOUS
 10
91.371666666666684
 20
-13.769999999999101
 30
0.0
 11
91.0
 21
-15.999999999999099
 31
0.0
  0
LINE
  5
16EB
  8
250
  6
CONTINUOUS
 10
90.628333333333316
 20
-13.769999999999101
 30
0.0
 11
91.0
 21
-15.999999999999099
 31
0.0
  0
LINE
  5
16EC
  8
250
  6
CONTINUOUS
 10
91.0
 20
-15.999999999999099
 30
0.0
 11
91.0
 21
-13.769999999999101
 31
0.0
  0
LINE
  5
16ED
  8
250
  6
CONTINUOUS
 10
90.628333333333316
 20
13.76999999999634
 30
0.0
 11
91.0
 21
15.99999999999635
 31
0.0
  0
LINE
  5
16EE
  8
250
  6
CONTINUOUS
 10
91.371666666666684
 20
13.76999999999634
 30
0.0
 11
91.0
 21
15.99999999999635
 31
0.0
  0
LINE
  5
16EF
  8
250
  6
CONTINUOUS
 10
91.0
 20
15.99999999999635
 30
0.0
 11
91.0
 21
13.76999999999634
 31
0.0
  0
LINE
  5
16F0
  8
250
  6
CONTINUOUS
 10
77.371666666666655
 20
-5.2700000000013683
 30
0.0
 11
77.0
 21
-7.5000000000013669
 31
0.0
  0
LINE
  5
16F1
  8
250
  6
CONTINUOUS
 10
76.62833333333333
 20
-5.2700000000013683
 30
0.0
 11
77.0
 21
-7.5000000000013669
 31
0.0
  0
LINE
  5
16F2
  8
250
  6
CONTINUOUS
 10
77.0
 20
-7.5000000000013669
 30
0.0
 11
77.0
 21
-5.2700000000013683
 31
0.0
  0
LINE
  5
16F3
  8
250
  6
CONTINUOUS
 10
76.62833333333333
 20
5.2699999999972649
 30
0.0
 11
77.0
 21
7.4999999999972671
 31
0.0
  0
LINE
  5
16F4
  8
250
  6
CONTINUOUS
 10
77.371666666666655
 20
5.2699999999972649
 30
0.0
 11
77.0
 21
7.4999999999972671
 31
0.0
  0
LINE
  5
16F5
  8
250
  6
CONTINUOUS
 10
77.0
 20
7.4999999999972671
 30
0.0
 11
77.0
 21
5.2699999999972649
 31
0.0
  0
TEXT
  5
16F6
  8
250
  6
CONTINUOUS
 10
26.642857142857149
 20
43.0
 30
0.0
 40
6.0
  1
65
  0
LINE
  5
16F7
  8
250
  6
CONTINUOUS
 10
62.770000000001822
 20
42.371666666666663
 30
0.0
 11
65.000000000001819
 21
42.0
 31
0.0
  0
LINE
  5
16F8
  8
250
  6
CONTINUOUS
 10
62.770000000001822
 20
41.62833333333333
 30
0.0
 11
65.000000000001819
 21
42.0
 31
0.0
  0
LINE
  5
16F9
  8
250
  6
CONTINUOUS
 10
65.000000000001819
 20
42.0
 30
0.0
 11
62.770000000001822
 21
42.0
 31
0.0
  0
LINE
  5
16FA
  8
250
  6
CONTINUOUS
 10
2.2299999999981801
 20
41.62833333333333
 30
0.0
 11
-0.0000000000018181
 21
42.0
 31
0.0
  0
LINE
  5
16FB
  8
250
  6
CONTINUOUS
 10
2.2299999999981801
 20
42.371666666666663
 30
0.0
 11
-0.0000000000018181
 21
42.0
 31
0.0
  0
LINE
  5
16FC
  8
250
  6
CONTINUOUS
 10
-0.0000000000018181
 20
42.0
 30
0.0
 11
2.2299999999981801
 21
42.0
 31
0.0
  0
LINE
  5
1C09
  8
245
  6
CENTER2
 10
33.999999999998181
 20
3.0
 30
0.0
 11
33.999999999998181
 21
-3.0
 31
0.0
  0
LINE
  5
1C0B
  8
245
  6
CENTER2
 10
-66.000000000001819
 20
19.999999999996358
 30
0.0
 11
-66.000000000005471
 21
-19.999999999996358
 31
0.0
1001
GENIUS_GENOREF_13
1005
1EB2
  0
LINE
  5
1C0E
  8
241
  6
CONTINUOUS
 10
-42.500000000005457
 20
-19.800000000004719
 30
0.0
 11
-42.500000000005457
 21
19.800000000004719
 31
0.0
  0
LINE
  5
1C0F
  8
241
  6
CONTINUOUS
 10
-45.000000000005471
 20
-19.800000000004719
 30
0.0
 11
-45.000000000001812
 21
19.800000000004719
 31
0.0
  0
LINE
  5
1C14
  8
241
  6
CONTINUOUS
 10
-9.0000000000018172
 20
-20.000000000002451
 30
0.0
 11
-9.0000000000018172
 21
20.000000000002451
 31
0.0
  0
LINE
  5
1C16
  8
240
  6
CONTINUOUS
 10
-9.0000000000018172
 20
26.49999999999654
 30
0.0
 11
-7.6262612902781219
 21
26.999999999994539
 31
0.0
  0
LINE
  5
1C18
  8
240
  6
CONTINUOUS
 10
-0.0000000000021299
 20
26.999999999994539
 30
0.0
 11
-7.6262612902781219
 21
26.999999999994539
 31
0.0
  0
LINE
  5
1C1D
  8
240
  6
CONTINUOUS
 10
-0.0000000000021299
 20
26.999999999994539
 30
0.0
 11
2.7488422784283282
 21
16.74118095490255
 31
0.0
  0
LINE
  5
1C23
  8
240
  6
CONTINUOUS
 10
-51.500000000020009
 20
20.0
 30
0.0
 11
-9.0000000000018172
 21
20.000000000002451
 31
0.0
  0
LINE
  5
1C26
  8
240
  6
CONTINUOUS
 10
-55.000000000020009
 20
16.5
 30
0.0
 11
-51.500000000020009
 21
20.0
 31
0.0
  0
LINE
  5
1C27
  8
240
  6
CONTINUOUS
 10
-55.000000000020009
 20
16.5
 30
0.0
 11
-66.000000000005471
 21
16.5
 31
0.0
  0
LINE
  5
1C28
  8
240
  6
CONTINUOUS
 10
-76.999999999987267
 20
16.499999999998181
 30
0.0
 11
-66.000000000001819
 21
16.499999999972712
 31
0.0
  0
LINE
  5
1C29
  8
240
  6
CONTINUOUS
 10
-76.999999999987267
 20
16.499999999998181
 30
0.0
 11
-80.499999999995453
 21
20.000000000002728
 31
0.0
  0
LINE
  5
1C2A
  8
245
  6
CENTER2
 10
-92.220854310484356
 20
0.0
 30
0.0
 11
68.112823223807155
 21
0.0
 31
0.0
  0
LINE
  5
1C2B
  8
240
  6
CONTINUOUS
 10
64.999999999986755
 20
-15.999999999997691
 30
0.0
 11
65.000000000002302
 21
15.999999999997661
 31
0.0
  0
LINE
  5
1C2C
  8
245
  6
CENTER2
 10
54.999999999998181
 20
13.234375729006381
 30
0.0
 11
54.999999999998181
 21
8.9917350418868391
 31
0.0
  0
CIRCLE
  5
1C30
  8
242
 10
33.999999999998181
 20
0.0
 30
0.0
 40
3.0
  0
CIRCLE
  5
1C31
  8
241
  6
CONTINUOUS
 10
33.999999999998181
 20
0.0
 30
0.0
 40
2.5
  0
LINE
  5
1C35
  8
243
  6
HIDDEN2
 10
24.999999999998181
 20
5.9999999999990878
 30
0.0
 11
39.999999999998167
 21
5.9999999999990878
 31
0.0
1001
GRPNAME
1000
0000002L
  0
LINE
  5
1C36
  8
243
  6
HIDDEN2
 10
24.999999999998181
 20
-6.0000000000009068
 30
0.0
 11
39.999999999998167
 21
-6.0000000000009068
 31
0.0
1001
GRPNAME
1000
0000002L
  0
LINE
  5
1C37
  8
243
  6
HIDDEN2
 10
24.999999999998181
 20
-0.0000000000009095
 30
0.0
 11
24.999999999998181
 21
-6.0000000000009068
 31
0.0
1001
GRPNAME
1000
0000002L
  0
LINE
  5
1C38
  8
243
  6
HIDDEN2
 10
24.999999999998181
 20
-0.0000000000009095
 30
0.0
 11
24.999999999998181
 21
5.9999999999990878
 31
0.0
1001
GRPNAME
1000
0000002L
  0
LINE
  5
1C39
  8
243
  6
HIDDEN2
 10
39.999999999998167
 20
7.499999999999087
 30
0.0
 11
39.999999999998167
 21
-7.5000000000009059
 31
0.0
1001
GRPNAME
1000
0000002L
  0
LINE
  5
1C3B
  8
243
  6
HIDDEN2
 10
39.999999999998167
 20
7.499999999999087
 30
0.0
 11
64.999999999998181
 21
7.4999999999990914
 31
0.0
1001
GRPNAME
1000
0000002L
  0
LINE
  5
1C3D
  8
243
  6
HIDDEN2
 10
39.999999999998167
 20
-7.5000000000009059
 30
0.0
 11
64.999999999998181
 21
-7.5000000000009059
 31
0.0
1001
GRPNAME
1000
0000002L
  0
LINE
  5
1C3E
  8
240
  6
CONTINUOUS
 10
3.7147681047172489
 20
16.000000000005169
 30
0.0
 11
65.000000000002302
 21
15.999999999997661
 31
0.0
  0
LINE
  5
1C3F
  8
240
  6
CONTINUOUS
 10
3.7147681047172512
 20
-16.000000000005169
 30
0.0
 11
64.999999999986755
 21
-15.999999999997691
 31
0.0
  0
LINE
  5
1C41
  8
245
  6
CENTER2
 10
51.999999999998181
 20
11.31370849898485
 30
0.0
 11
57.999999999998181
 21
11.31370849898485
 31
0.0
  0
POLYLINE
  5
1C42
  8
241
  6
CONTINUOUS
 66
     1
 10
0.0
 20
0.0
 30
0.0
 70
     8
  0
VERTEX
  5
1C43
  8
241
  6
CONTINUOUS
 10
52.5
 20
11.1747
 30
0.0
 70
    32
  0
VERTEX
  5
1C44
  8
241
  6
CONTINUOUS
 10
52.503
 20
11.087999999999999
 30
0.0
 70
    32
  0
VERTEX
  5
1C45
  8
241
  6
CONTINUOUS
 10
52.512
 20
11.0015
 30
0.0
 70
    32
  0
VERTEX
  5
1C46
  8
241
  6
CONTINUOUS
 10
52.527099999999997
 20
10.9154
 30
0.0
 70
    32
  0
VERTEX
  5
1C47
  8
241
  6
CONTINUOUS
 10
52.548000000000002
 20
10.8299
 30
0.0
 70
    32
  0
VERTEX
  5
1C48
  8
241
  6
CONTINUOUS
 10
52.5749
 20
10.745200000000001
 30
0.0
 70
    32
  0
VERTEX
  5
1C49
  8
241
  6
CONTINUOUS
 10
52.607599999999998
 20
10.6616
 30
0.0
 70
    32
  0
VERTEX
  5
1C4A
  8
241
  6
CONTINUOUS
 10
52.646099999999997
 20
10.5792
 30
0.0
 70
    32
  0
VERTEX
  5
1C4B
  8
241
  6
CONTINUOUS
 10
52.690300000000001
 20
10.4983
 30
0.0
 70
    32
  0
VERTEX
  5
1C4C
  8
241
  6
CONTINUOUS
 10
52.740000000000002
 20
10.418900000000001
 30
0.0
 70
    32
  0
VERTEX
  5
1C4D
  8
241
  6
CONTINUOUS
 10
52.795200000000001
 20
10.3414
 30
0.0
 70
    32
  0
VERTEX
  5
1C4E
  8
241
  6
CONTINUOUS
 10
52.855699999999992
 20
10.2659
 30
0.0
 70
    32
  0
VERTEX
  5
1C4F
  8
241
  6
CONTINUOUS
 10
52.921300000000002
 20
10.192600000000001
 30
0.0
 70
    32
  0
VERTEX
  5
1C50
  8
241
  6
CONTINUOUS
 10
52.99199999999999
 20
10.121700000000001
 30
0.0
 70
    32
  0
VERTEX
  5
1C51
  8
241
  6
CONTINUOUS
 10
53.067500000000003
 20
10.0533
 30
0.0
 70
    32
  0
VERTEX
  5
1C52
  8
241
  6
CONTINUOUS
 10
53.14759999999999
 20
9.9875900000000009
 30
0.0
 70
    32
  0
VERTEX
  5
1C53
  8
241
  6
CONTINUOUS
 10
53.232199999999999
 20
9.9247499999999995
 30
0.0
 70
    32
  0
VERTEX
  5
1C54
  8
241
  6
CONTINUOUS
 10
53.321100000000001
 20
9.8649199999999997
 30
0.0
 70
    32
  0
VERTEX
  5
1C55
  8
241
  6
CONTINUOUS
 10
53.414000000000001
 20
9.8082499999999992
 30
0.0
 70
    32
  0
VERTEX
  5
1C56
  8
241
  6
CONTINUOUS
 10
53.510800000000003
 20
9.7548600000000008
 30
0.0
 70
    32
  0
VERTEX
  5
1C57
  8
241
  6
CONTINUOUS
 10
53.6111
 20
9.7049000000000003
 30
0.0
 70
    32
  0
VERTEX
  5
1C58
  8
241
  6
CONTINUOUS
 10
53.714700000000001
 20
9.6584800000000008
 30
0.0
 70
    32
  0
VERTEX
  5
1C59
  8
241
  6
CONTINUOUS
 10
53.8215
 20
9.6157199999999996
 30
0.0
 70
    32
  0
VERTEX
  5
1C5A
  8
241
  6
CONTINUOUS
 10
53.931100000000001
 20
9.5767100000000003
 30
0.0
 70
    32
  0
VERTEX
  5
1C5B
  8
241
  6
CONTINUOUS
 10
54.043300000000002
 20
9.5415399999999995
 30
0.0
 70
    32
  0
VERTEX
  5
1C5C
  8
241
  6
CONTINUOUS
 10
54.157800000000002
 20
9.5103200000000001
 30
0.0
 70
    32
  0
VERTEX
  5
1C5D
  8
241
  6
CONTINUOUS
 10
54.274299999999997
 20
9.4831000000000003
 30
0.0
 70
    32
  0
VERTEX
  5
1C5E
  8
241
  6
CONTINUOUS
 10
54.392499999999998
 20
9.4599600000000006
 30
0.0
 70
    32
  0
VERTEX
  5
1C5F
  8
241
  6
CONTINUOUS
 10
54.512300000000003
 20
9.4409500000000008
 30
0.0
 70
    32
  0
VERTEX
  5
1C60
  8
241
  6
CONTINUOUS
 10
54.633200000000002
 20
9.4261099999999995
 30
0.0
 70
    32
  0
VERTEX
  5
1C61
  8
241
  6
CONTINUOUS
 10
54.755000000000003
 20
9.4154900000000001
 30
0.0
 70
    32
  0
VERTEX
  5
1C62
  8
241
  6
CONTINUOUS
 10
54.877299999999991
 20
9.4091100000000001
 30
0.0
 70
    32
  0
VERTEX
  5
1C63
  8
241
  6
CONTINUOUS
 10
55.0
 20
9.4069800000000008
 30
0.0
 70
    32
  0
VERTEX
  5
1C64
  8
241
  6
CONTINUOUS
 10
55.122700000000002
 20
9.4091100000000001
 30
0.0
 70
    32
  0
VERTEX
  5
1C65
  8
241
  6
CONTINUOUS
 10
55.24499999999999
 20
9.4154900000000001
 30
0.0
 70
    32
  0
VERTEX
  5
1C66
  8
241
  6
CONTINUOUS
 10
55.366799999999998
 20
9.4261099999999995
 30
0.0
 70
    32
  0
VERTEX
  5
1C67
  8
241
  6
CONTINUOUS
 10
55.487699999999997
 20
9.4409500000000008
 30
0.0
 70
    32
  0
VERTEX
  5
1C68
  8
241
  6
CONTINUOUS
 10
55.607500000000002
 20
9.4599600000000006
 30
0.0
 70
    32
  0
VERTEX
  5
1C69
  8
241
  6
CONTINUOUS
 10
55.725700000000003
 20
9.4831000000000003
 30
0.0
 70
    32
  0
VERTEX
  5
1C6A
  8
241
  6
CONTINUOUS
 10
55.842199999999998
 20
9.5103200000000001
 30
0.0
 70
    32
  0
VERTEX
  5
1C6B
  8
241
  6
CONTINUOUS
 10
55.956699999999998
 20
9.5415399999999995
 30
0.0
 70
    32
  0
VERTEX
  5
1C6C
  8
241
  6
CONTINUOUS
 10
56.068899999999992
 20
9.5767100000000003
 30
0.0
 70
    32
  0
VERTEX
  5
1C6D
  8
241
  6
CONTINUOUS
 10
56.1785
 20
9.6157199999999996
 30
0.0
 70
    32
  0
VERTEX
  5
1C6E
  8
241
  6
CONTINUOUS
 10
56.285299999999999
 20
9.6584800000000008
 30
0.0
 70
    32
  0
VERTEX
  5
1C6F
  8
241
  6
CONTINUOUS
 10
56.388899999999992
 20
9.7049000000000003
 30
0.0
 70
    32
  0
VERTEX
  5
1C70
  8
241
  6
CONTINUOUS
 10
56.489199999999997
 20
9.7548600000000008
 30
0.0
 70
    32
  0
VERTEX
  5
1C71
  8
241
  6
CONTINUOUS
 10
56.585999999999991
 20
9.8082499999999992
 30
0.0
 70
    32
  0
VERTEX
  5
1C72
  8
241
  6
CONTINUOUS
 10
56.678899999999992
 20
9.8649199999999997
 30
0.0
 70
    32
  0
VERTEX
  5
1C73
  8
241
  6
CONTINUOUS
 10
56.767800000000001
 20
9.9247499999999995
 30
0.0
 70
    32
  0
VERTEX
  5
1C74
  8
241
  6
CONTINUOUS
 10
56.852400000000003
 20
9.9875900000000009
 30
0.0
 70
    32
  0
VERTEX
  5
1C75
  8
241
  6
CONTINUOUS
 10
56.93249999999999
 20
10.0533
 30
0.0
 70
    32
  0
VERTEX
  5
1C76
  8
241
  6
CONTINUOUS
 10
57.008000000000003
 20
10.121700000000001
 30
0.0
 70
    32
  0
VERTEX
  5
1C77
  8
241
  6
CONTINUOUS
 10
57.078699999999991
 20
10.192600000000001
 30
0.0
 70
    32
  0
VERTEX
  5
1C78
  8
241
  6
CONTINUOUS
 10
57.144300000000001
 20
10.2659
 30
0.0
 70
    32
  0
VERTEX
  5
1C79
  8
241
  6
CONTINUOUS
 10
57.204799999999999
 20
10.3414
 30
0.0
 70
    32
  0
VERTEX
  5
1C7A
  8
241
  6
CONTINUOUS
 10
57.259999999999991
 20
10.418900000000001
 30
0.0
 70
    32
  0
VERTEX
  5
1C7B
  8
241
  6
CONTINUOUS
 10
57.309699999999999
 20
10.4983
 30
0.0
 70
    32
  0
VERTEX
  5
1C7C
  8
241
  6
CONTINUOUS
 10
57.353900000000003
 20
10.5792
 30
0.0
 70
    32
  0
VERTEX
  5
1C7D
  8
241
  6
CONTINUOUS
 10
57.392400000000002
 20
10.6616
 30
0.0
 70
    32
  0
VERTEX
  5
1C7E
  8
241
  6
CONTINUOUS
 10
57.4251
 20
10.745200000000001
 30
0.0
 70
    32
  0
VERTEX
  5
1C7F
  8
241
  6
CONTINUOUS
 10
57.451999999999998
 20
10.8299
 30
0.0
 70
    32
  0
VERTEX
  5
1C80
  8
241
  6
CONTINUOUS
 10
57.472900000000003
 20
10.9154
 30
0.0
 70
    32
  0
VERTEX
  5
1C81
  8
241
  6
CONTINUOUS
 10
57.488
 20
11.0015
 30
0.0
 70
    32
  0
VERTEX
  5
1C82
  8
241
  6
CONTINUOUS
 10
57.497
 20
11.087999999999999
 30
0.0
 70
    32
  0
VERTEX
  5
1C83
  8
241
  6
CONTINUOUS
 10
57.5
 20
11.1747
 30
0.0
 70
    32
  0
VERTEX
  5
1C84
  8
241
  6
CONTINUOUS
 10
57.497
 20
11.2615
 30
0.0
 70
    32
  0
VERTEX
  5
1C85
  8
241
  6
CONTINUOUS
 10
57.488
 20
11.348000000000001
 30
0.0
 70
    32
  0
VERTEX
  5
1C86
  8
241
  6
CONTINUOUS
 10
57.472900000000003
 20
11.434100000000001
 30
0.0
 70
    32
  0
VERTEX
  5
1C87
  8
241
  6
CONTINUOUS
 10
57.451999999999998
 20
11.519600000000001
 30
0.0
 70
    32
  0
VERTEX
  5
1C88
  8
241
  6
CONTINUOUS
 10
57.4251
 20
11.6043
 30
0.0
 70
    32
  0
VERTEX
  5
1C89
  8
241
  6
CONTINUOUS
 10
57.392400000000002
 20
11.687900000000001
 30
0.0
 70
    32
  0
VERTEX
  5
1C8A
  8
241
  6
CONTINUOUS
 10
57.353900000000003
 20
11.770300000000001
 30
0.0
 70
    32
  0
VERTEX
  5
1C8B
  8
241
  6
CONTINUOUS
 10
57.309699999999999
 20
11.8512
 30
0.0
 70
    32
  0
VERTEX
  5
1C8C
  8
241
  6
CONTINUOUS
 10
57.259999999999991
 20
11.9306
 30
0.0
 70
    32
  0
VERTEX
  5
1C8D
  8
241
  6
CONTINUOUS
 10
57.204799999999999
 20
12.008100000000001
 30
0.0
 70
    32
  0
VERTEX
  5
1C8E
  8
241
  6
CONTINUOUS
 10
57.144300000000001
 20
12.083600000000001
 30
0.0
 70
    32
  0
VERTEX
  5
1C8F
  8
241
  6
CONTINUOUS
 10
57.078699999999991
 20
12.1569
 30
0.0
 70
    32
  0
VERTEX
  5
1C90
  8
241
  6
CONTINUOUS
 10
57.008000000000003
 20
12.2278
 30
0.0
 70
    32
  0
VERTEX
  5
1C91
  8
241
  6
CONTINUOUS
 10
56.93249999999999
 20
12.296200000000001
 30
0.0
 70
    32
  0
VERTEX
  5
1C92
  8
241
  6
CONTINUOUS
 10
56.852400000000003
 20
12.3619
 30
0.0
 70
    32
  0
VERTEX
  5
1C93
  8
241
  6
CONTINUOUS
 10
56.767800000000001
 20
12.4247
 30
0.0
 70
    32
  0
VERTEX
  5
1C94
  8
241
  6
CONTINUOUS
 10
56.678899999999992
 20
12.4846
 30
0.0
 70
    32
  0
VERTEX
  5
1C95
  8
241
  6
CONTINUOUS
 10
56.585999999999991
 20
12.5413
 30
0.0
 70
    32
  0
VERTEX
  5
1C96
  8
241
  6
CONTINUOUS
 10
56.489199999999997
 20
12.5946
 30
0.0
 70
    32
  0
VERTEX
  5
1C97
  8
241
  6
CONTINUOUS
 10
56.388899999999992
 20
12.644600000000001
 30
0.0
 70
    32
  0
VERTEX
  5
1C98
  8
241
  6
CONTINUOUS
 10
56.285299999999999
 20
12.691000000000001
 30
0.0
 70
    32
  0
VERTEX
  5
1C99
  8
241
  6
CONTINUOUS
 10
56.1785
 20
12.7338
 30
0.0
 70
    32
  0
VERTEX
  5
1C9A
  8
241
  6
CONTINUOUS
 10
56.068899999999992
 20
12.7728
 30
0.0
 70
    32
  0
VERTEX
  5
1C9B
  8
241
  6
CONTINUOUS
 10
55.956699999999998
 20
12.808
 30
0.0
 70
    32
  0
VERTEX
  5
1C9C
  8
241
  6
CONTINUOUS
 10
55.842199999999998
 20
12.8392
 30
0.0
 70
    32
  0
VERTEX
  5
1C9D
  8
241
  6
CONTINUOUS
 10
55.725700000000003
 20
12.866400000000001
 30
0.0
 70
    32
  0
VERTEX
  5
1C9E
  8
241
  6
CONTINUOUS
 10
55.607500000000002
 20
12.8895
 30
0.0
 70
    32
  0
VERTEX
  5
1C9F
  8
241
  6
CONTINUOUS
 10
55.487699999999997
 20
12.9085
 30
0.0
 70
    32
  0
VERTEX
  5
1CA0
  8
241
  6
CONTINUOUS
 10
55.366799999999998
 20
12.923400000000001
 30
0.0
 70
    32
  0
VERTEX
  5
1CA1
  8
241
  6
CONTINUOUS
 10
55.24499999999999
 20
12.933999999999999
 30
0.0
 70
    32
  0
VERTEX
  5
1CA2
  8
241
  6
CONTINUOUS
 10
55.122700000000002
 20
12.9404
 30
0.0
 70
    32
  0
VERTEX
  5
1CA3
  8
241
  6
CONTINUOUS
 10
55.0
 20
12.942500000000001
 30
0.0
 70
    32
  0
VERTEX
  5
1CA4
  8
241
  6
CONTINUOUS
 10
54.877299999999991
 20
12.9404
 30
0.0
 70
    32
  0
VERTEX
  5
1CA5
  8
241
  6
CONTINUOUS
 10
54.755000000000003
 20
12.933999999999999
 30
0.0
 70
    32
  0
VERTEX
  5
1CA6
  8
241
  6
CONTINUOUS
 10
54.633200000000002
 20
12.923400000000001
 30
0.0
 70
    32
  0
VERTEX
  5
1CA7
  8
241
  6
CONTINUOUS
 10
54.512300000000003
 20
12.9085
 30
0.0
 70
    32
  0
VERTEX
  5
1CA8
  8
241
  6
CONTINUOUS
 10
54.392499999999998
 20
12.8895
 30
0.0
 70
    32
  0
VERTEX
  5
1CA9
  8
241
  6
CONTINUOUS
 10
54.274299999999997
 20
12.866400000000001
 30
0.0
 70
    32
  0
VERTEX
  5
1CAA
  8
241
  6
CONTINUOUS
 10
54.157800000000002
 20
12.8392
 30
0.0
 70
    32
  0
VERTEX
  5
1CAB
  8
241
  6
CONTINUOUS
 10
54.043300000000002
 20
12.808
 30
0.0
 70
    32
  0
VERTEX
  5
1CAC
  8
241
  6
CONTINUOUS
 10
53.931100000000001
 20
12.7728
 30
0.0
 70
    32
  0
VERTEX
  5
1CAD
  8
241
  6
CONTINUOUS
 10
53.8215
 20
12.7338
 30
0.0
 70
    32
  0
VERTEX
  5
1CAE
  8
241
  6
CONTINUOUS
 10
53.714700000000001
 20
12.691000000000001
 30
0.0
 70
    32
  0
VERTEX
  5
1CAF
  8
241
  6
CONTINUOUS
 10
53.6111
 20
12.644600000000001
 30
0.0
 70
    32
  0
VERTEX
  5
1CB0
  8
241
  6
CONTINUOUS
 10
53.510800000000003
 20
12.5946
 30
0.0
 70
    32
  0
VERTEX
  5
1CB1
  8
241
  6
CONTINUOUS
 10
53.414000000000001
 20
12.5413
 30
0.0
 70
    32
  0
VERTEX
  5
1CB2
  8
241
  6
CONTINUOUS
 10
53.321100000000001
 20
12.4846
 30
0.0
 70
    32
  0
VERTEX
  5
1CB3
  8
241
  6
CONTINUOUS
 10
53.232199999999999
 20
12.4247
 30
0.0
 70
    32
  0
VERTEX
  5
1CB4
  8
241
  6
CONTINUOUS
 10
53.14759999999999
 20
12.3619
 30
0.0
 70
    32
  0
VERTEX
  5
1CB5
  8
241
  6
CONTINUOUS
 10
53.067500000000003
 20
12.296200000000001
 30
0.0
 70
    32
  0
VERTEX
  5
1CB6
  8
241
  6
CONTINUOUS
 10
52.99199999999999
 20
12.2278
 30
0.0
 70
    32
  0
VERTEX
  5
1CB7
  8
241
  6
CONTINUOUS
 10
52.921300000000002
 20
12.1569
 30
0.0
 70
    32
  0
VERTEX
  5
1CB8
  8
241
  6
CONTINUOUS
 10
52.855699999999992
 20
12.083600000000001
 30
0.0
 70
    32
  0
VERTEX
  5
1CB9
  8
241
  6
CONTINUOUS
 10
52.795200000000001
 20
12.008100000000001
 30
0.0
 70
    32
  0
VERTEX
  5
1CBA
  8
241
  6
CONTINUOUS
 10
52.740000000000002
 20
11.9306
 30
0.0
 70
    32
  0
VERTEX
  5
1CBB
  8
241
  6
CONTINUOUS
 10
52.690300000000001
 20
11.8512
 30
0.0
 70
    32
  0
VERTEX
  5
1CBC
  8
241
  6
CONTINUOUS
 10
52.646099999999997
 20
11.770300000000001
 30
0.0
 70
    32
  0
VERTEX
  5
1CBD
  8
241
  6
CONTINUOUS
 10
52.607599999999998
 20
11.687900000000001
 30
0.0
 70
    32
  0
VERTEX
  5
1CBE
  8
241
  6
CONTINUOUS
 10
52.5749
 20
11.6043
 30
0.0
 70
    32
  0
VERTEX
  5
1CBF
  8
241
  6
CONTINUOUS
 10
52.548000000000002
 20
11.519600000000001
 30
0.0
 70
    32
  0
VERTEX
  5
1CC0
  8
241
  6
CONTINUOUS
 10
52.527099999999997
 20
11.434100000000001
 30
0.0
 70
    32
  0
VERTEX
  5
1CC1
  8
241
  6
CONTINUOUS
 10
52.512
 20
11.348000000000001
 30
0.0
 70
    32
  0
VERTEX
  5
1CC2
  8
241
  6
CONTINUOUS
 10
52.503
 20
11.2615
 30
0.0
 70
    32
  0
VERTEX
  5
1CC3
  8
241
  6
CONTINUOUS
 10
52.5
 20
11.1747
 30
0.0
 70
    32
  0
SEQEND
  5
1CC4
  8
241
  6
CONTINUOUS
  0
POLYLINE
  5
1CC5
  8
242
 66
     1
 10
0.0
 20
0.0
 30
0.0
 70
     8
  0
VERTEX
  5
1CC6
  8
242
 10
52.0
 20
11.113099999999999
 30
0.0
 70
    32
  0
VERTEX
  5
1CC7
  8
242
 10
52.003599999999992
 20
11.009
 30
0.0
 70
    32
  0
VERTEX
  5
1CC8
  8
242
 10
52.014400000000002
 20
10.905099999999999
 30
0.0
 70
    32
  0
VERTEX
  5
1CC9
  8
242
 10
52.032499999999999
 20
10.8018
 30
0.0
 70
    32
  0
VERTEX
  5
1CCA
  8
242
 10
52.057600000000001
 20
10.699199999999999
 30
0.0
 70
    32
  0
VERTEX
  5
1CCB
  8
242
 10
52.0899
 20
10.5976
 30
0.0
 70
    32
  0
VERTEX
  5
1CCC
  8
242
 10
52.129199999999997
 20
10.497299999999999
 30
0.0
 70
    32
  0
VERTEX
  5
1CCD
  8
242
 10
52.175400000000003
 20
10.398400000000001
 30
0.0
 70
    32
  0
VERTEX
  5
1CCE
  8
242
 10
52.228400000000001
 20
10.301299999999999
 30
0.0
 70
    32
  0
VERTEX
  5
1CCF
  8
242
 10
52.28799999999999
 20
10.206099999999999
 30
0.0
 70
    32
  0
VERTEX
  5
1CD0
  8
242
 10
52.354199999999999
 20
10.113099999999999
 30
0.0
 70
    32
  0
VERTEX
  5
1CD1
  8
242
 10
52.4268
 20
10.022500000000001
 30
0.0
 70
    32
  0
VERTEX
  5
1CD2
  8
242
 10
52.505600000000001
 20
9.9345099999999995
 30
0.0
 70
    32
  0
VERTEX
  5
1CD3
  8
242
 10
52.590400000000002
 20
9.8493899999999996
 30
0.0
 70
    32
  0
VERTEX
  5
1CD4
  8
242
 10
52.680999999999997
 20
9.7673000000000005
 30
0.0
 70
    32
  0
VERTEX
  5
1CD5
  8
242
 10
52.77709999999999
 20
9.6884599999999992
 30
0.0
 70
    32
  0
VERTEX
  5
1CD6
  8
242
 10
52.878700000000002
 20
9.6130600000000008
 30
0.0
 70
    32
  0
VERTEX
  5
1CD7
  8
242
 10
52.985300000000002
 20
9.5412599999999994
 30
0.0
 70
    32
  0
VERTEX
  5
1CD8
  8
242
 10
53.096800000000002
 20
9.4732500000000002
 30
0.0
 70
    32
  0
VERTEX
  5
1CD9
  8
242
 10
53.212899999999998
 20
9.4091900000000006
 30
0.0
 70
    32
  0
VERTEX
  5
1CDA
  8
242
 10
53.333300000000001
 20
9.3492399999999982
 30
0.0
 70
    32
  0
VERTEX
  5
1CDB
  8
242
 10
53.457700000000003
 20
9.2935400000000001
 30
0.0
 70
    32
  0
VERTEX
  5
1CDC
  8
242
 10
53.585799999999992
 20
9.2422199999999997
 30
0.0
 70
    32
  0
VERTEX
  5
1CDD
  8
242
 10
53.717300000000002
 20
9.1953999999999994
 30
0.0
 70
    32
  0
VERTEX
  5
1CDE
  8
242
 10
53.851900000000001
 20
9.1532099999999996
 30
0.0
 70
    32
  0
VERTEX
  5
1CDF
  8
242
 10
53.9893
 20
9.1157400000000006
 30
0.0
 70
    32
  0
VERTEX
  5
1CE0
  8
242
 10
54.129100000000001
 20
9.0830800000000007
 30
0.0
 70
    32
  0
VERTEX
  5
1CE1
  8
242
 10
54.271099999999983
 20
9.0553100000000004
 30
0.0
 70
    32
  0
VERTEX
  5
1CE2
  8
242
 10
54.414700000000003
 20
9.0325000000000006
 30
0.0
 70
    32
  0
VERTEX
  5
1CE3
  8
242
 10
54.559800000000003
 20
9.0146999999999995
 30
0.0
 70
    32
  0
VERTEX
  5
1CE4
  8
242
 10
54.7059
 20
9.0019500000000008
 30
0.0
 70
    32
  0
VERTEX
  5
1CE5
  8
242
 10
54.852800000000002
 20
8.9942899999999977
 30
0.0
 70
    32
  0
VERTEX
  5
1CE6
  8
242
 10
55.0
 20
8.9917400000000001
 30
0.0
 70
    32
  0
VERTEX
  5
1CE7
  8
242
 10
55.147199999999998
 20
8.9942899999999977
 30
0.0
 70
    32
  0
VERTEX
  5
1CE8
  8
242
 10
55.2941
 20
9.0019500000000008
 30
0.0
 70
    32
  0
VERTEX
  5
1CE9
  8
242
 10
55.44019999999999
 20
9.0146999999999995
 30
0.0
 70
    32
  0
VERTEX
  5
1CEA
  8
242
 10
55.585299999999997
 20
9.0325000000000006
 30
0.0
 70
    32
  0
VERTEX
  5
1CEB
  8
242
 10
55.72890000000001
 20
9.0553100000000004
 30
0.0
 70
    32
  0
VERTEX
  5
1CEC
  8
242
 10
55.870899999999992
 20
9.0830800000000007
 30
0.0
 70
    32
  0
VERTEX
  5
1CED
  8
242
 10
56.010699999999993
 20
9.1157400000000006
 30
0.0
 70
    32
  0
VERTEX
  5
1CEE
  8
242
 10
56.148099999999999
 20
9.1532099999999996
 30
0.0
 70
    32
  0
VERTEX
  5
1CEF
  8
242
 10
56.282699999999998
 20
9.1953999999999994
 30
0.0
 70
    32
  0
VERTEX
  5
1CF0
  8
242
 10
56.414200000000001
 20
9.2422199999999997
 30
0.0
 70
    32
  0
VERTEX
  5
1CF1
  8
242
 10
56.542299999999997
 20
9.2935400000000001
 30
0.0
 70
    32
  0
VERTEX
  5
1CF2
  8
242
 10
56.666699999999992
 20
9.3492399999999982
 30
0.0
 70
    32
  0
VERTEX
  5
1CF3
  8
242
 10
56.787100000000002
 20
9.4091900000000006
 30
0.0
 70
    32
  0
VERTEX
  5
1CF4
  8
242
 10
56.903199999999991
 20
9.4732500000000002
 30
0.0
 70
    32
  0
VERTEX
  5
1CF5
  8
242
 10
57.014699999999998
 20
9.5412599999999994
 30
0.0
 70
    32
  0
VERTEX
  5
1CF6
  8
242
 10
57.121299999999998
 20
9.6130600000000008
 30
0.0
 70
    32
  0
VERTEX
  5
1CF7
  8
242
 10
57.222900000000003
 20
9.6884599999999992
 30
0.0
 70
    32
  0
VERTEX
  5
1CF8
  8
242
 10
57.319000000000003
 20
9.7673000000000005
 30
0.0
 70
    32
  0
VERTEX
  5
1CF9
  8
242
 10
57.409599999999998
 20
9.8493899999999996
 30
0.0
 70
    32
  0
VERTEX
  5
1CFA
  8
242
 10
57.494399999999992
 20
9.9345099999999995
 30
0.0
 70
    32
  0
VERTEX
  5
1CFB
  8
242
 10
57.573199999999993
 20
10.022500000000001
 30
0.0
 70
    32
  0
VERTEX
  5
1CFC
  8
242
 10
57.645800000000001
 20
10.113099999999999
 30
0.0
 70
    32
  0
VERTEX
  5
1CFD
  8
242
 10
57.712000000000003
 20
10.206099999999999
 30
0.0
 70
    32
  0
VERTEX
  5
1CFE
  8
242
 10
57.771599999999999
 20
10.301299999999999
 30
0.0
 70
    32
  0
VERTEX
  5
1CFF
  8
242
 10
57.824599999999997
 20
10.398400000000001
 30
0.0
 70
    32
  0
VERTEX
  5
1D00
  8
242
 10
57.870800000000003
 20
10.497299999999999
 30
0.0
 70
    32
  0
VERTEX
  5
1D01
  8
242
 10
57.910099999999993
 20
10.5976
 30
0.0
 70
    32
  0
VERTEX
  5
1D02
  8
242
 10
57.942399999999999
 20
10.699199999999999
 30
0.0
 70
    32
  0
VERTEX
  5
1D03
  8
242
 10
57.967500000000001
 20
10.8018
 30
0.0
 70
    32
  0
VERTEX
  5
1D04
  8
242
 10
57.985599999999998
 20
10.905099999999999
 30
0.0
 70
    32
  0
VERTEX
  5
1D05
  8
242
 10
57.996400000000001
 20
11.009
 30
0.0
 70
    32
  0
VERTEX
  5
1D06
  8
242
 10
58.0
 20
11.113099999999999
 30
0.0
 70
    32
  0
VERTEX
  5
1D07
  8
242
 10
57.996400000000001
 20
11.2171
 30
0.0
 70
    32
  0
VERTEX
  5
1D08
  8
242
 10
57.985599999999998
 20
11.321
 30
0.0
 70
    32
  0
VERTEX
  5
1D09
  8
242
 10
57.967500000000001
 20
11.424300000000001
 30
0.0
 70
    32
  0
VERTEX
  5
1D0A
  8
242
 10
57.942399999999999
 20
11.526899999999999
 30
0.0
 70
    32
  0
VERTEX
  5
1D0B
  8
242
 10
57.910099999999993
 20
11.628500000000001
 30
0.0
 70
    32
  0
VERTEX
  5
1D0C
  8
242
 10
57.870800000000003
 20
11.7288
 30
0.0
 70
    32
  0
VERTEX
  5
1D0D
  8
242
 10
57.824599999999997
 20
11.8277
 30
0.0
 70
    32
  0
VERTEX
  5
1D0E
  8
242
 10
57.771599999999999
 20
11.924799999999999
 30
0.0
 70
    32
  0
VERTEX
  5
1D0F
  8
242
 10
57.712000000000003
 20
12.02
 30
0.0
 70
    32
  0
VERTEX
  5
1D10
  8
242
 10
57.645800000000001
 20
12.113
 30
0.0
 70
    32
  0
VERTEX
  5
1D11
  8
242
 10
57.573199999999993
 20
12.2036
 30
0.0
 70
    32
  0
VERTEX
  5
1D12
  8
242
 10
57.494399999999992
 20
12.291600000000001
 30
0.0
 70
    32
  0
VERTEX
  5
1D13
  8
242
 10
57.409599999999998
 20
12.3767
 30
0.0
 70
    32
  0
VERTEX
  5
1D14
  8
242
 10
57.319000000000003
 20
12.4588
 30
0.0
 70
    32
  0
VERTEX
  5
1D15
  8
242
 10
57.222900000000003
 20
12.537599999999999
 30
0.0
 70
    32
  0
VERTEX
  5
1D16
  8
242
 10
57.121299999999998
 20
12.613099999999999
 30
0.0
 70
    32
  0
VERTEX
  5
1D17
  8
242
 10
57.014699999999998
 20
12.684900000000001
 30
0.0
 70
    32
  0
VERTEX
  5
1D18
  8
242
 10
56.903199999999991
 20
12.7529
 30
0.0
 70
    32
  0
VERTEX
  5
1D19
  8
242
 10
56.787100000000002
 20
12.8169
 30
0.0
 70
    32
  0
VERTEX
  5
1D1A
  8
242
 10
56.666699999999992
 20
12.876899999999999
 30
0.0
 70
    32
  0
VERTEX
  5
1D1B
  8
242
 10
56.542299999999997
 20
12.932600000000001
 30
0.0
 70
    32
  0
VERTEX
  5
1D1C
  8
242
 10
56.414200000000001
 20
12.9839
 30
0.0
 70
    32
  0
VERTEX
  5
1D1D
  8
242
 10
56.282699999999998
 20
13.0307
 30
0.0
 70
    32
  0
VERTEX
  5
1D1E
  8
242
 10
56.148099999999999
 20
13.072900000000001
 30
0.0
 70
    32
  0
VERTEX
  5
1D1F
  8
242
 10
56.010699999999993
 20
13.1104
 30
0.0
 70
    32
  0
VERTEX
  5
1D20
  8
242
 10
55.870899999999992
 20
13.143000000000001
 30
0.0
 70
    32
  0
VERTEX
  5
1D21
  8
242
 10
55.72890000000001
 20
13.1708
 30
0.0
 70
    32
  0
VERTEX
  5
1D22
  8
242
 10
55.585299999999997
 20
13.1936
 30
0.0
 70
    32
  0
VERTEX
  5
1D23
  8
242
 10
55.44019999999999
 20
13.211399999999999
 30
0.0
 70
    32
  0
VERTEX
  5
1D24
  8
242
 10
55.2941
 20
13.2242
 30
0.0
 70
    32
  0
VERTEX
  5
1D25
  8
242
 10
55.147199999999998
 20
13.2318
 30
0.0
 70
    32
  0
VERTEX
  5
1D26
  8
242
 10
55.0
 20
13.234400000000001
 30
0.0
 70
    32
  0
VERTEX
  5
1D27
  8
242
 10
54.852800000000002
 20
13.2318
 30
0.0
 70
    32
  0
VERTEX
  5
1D28
  8
242
 10
54.7059
 20
13.2242
 30
0.0
 70
    32
  0
VERTEX
  5
1D29
  8
242
 10
54.559800000000003
 20
13.211399999999999
 30
0.0
 70
    32
  0
VERTEX
  5
1D2A
  8
242
 10
54.414700000000003
 20
13.1936
 30
0.0
 70
    32
  0
VERTEX
  5
1D2B
  8
242
 10
54.271099999999983
 20
13.1708
 30
0.0
 70
    32
  0
VERTEX
  5
1D2C
  8
242
 10
54.129100000000001
 20
13.143000000000001
 30
0.0
 70
    32
  0
VERTEX
  5
1D2D
  8
242
 10
53.9893
 20
13.1104
 30
0.0
 70
    32
  0
VERTEX
  5
1D2E
  8
242
 10
53.851900000000001
 20
13.072900000000001
 30
0.0
 70
    32
  0
VERTEX
  5
1D2F
  8
242
 10
53.717300000000002
 20
13.0307
 30
0.0
 70
    32
  0
VERTEX
  5
1D30
  8
242
 10
53.585799999999992
 20
12.9839
 30
0.0
 70
    32
  0
VERTEX
  5
1D31
  8
242
 10
53.457700000000003
 20
12.932600000000001
 30
0.0
 70
    32
  0
VERTEX
  5
1D32
  8
242
 10
53.333300000000001
 20
12.876899999999999
 30
0.0
 70
    32
  0
VERTEX
  5
1D33
  8
242
 10
53.212899999999998
 20
12.8169
 30
0.0
 70
    32
  0
VERTEX
  5
1D34
  8
242
 10
53.096800000000002
 20
12.7529
 30
0.0
 70
    32
  0
VERTEX
  5
1D35
  8
242
 10
52.985300000000002
 20
12.684900000000001
 30
0.0
 70
    32
  0
VERTEX
  5
1D36
  8
242
 10
52.878700000000002
 20
12.613099999999999
 30
0.0
 70
    32
  0
VERTEX
  5
1D37
  8
242
 10
52.77709999999999
 20
12.537599999999999
 30
0.0
 70
    32
  0
VERTEX
  5
1D38
  8
242
 10
52.680999999999997
 20
12.4588
 30
0.0
 70
    32
  0
VERTEX
  5
1D39
  8
242
 10
52.590400000000002
 20
12.3767
 30
0.0
 70
    32
  0
VERTEX
  5
1D3A
  8
242
 10
52.505600000000001
 20
12.291600000000001
 30
0.0
 70
    32
  0
VERTEX
  5
1D3B
  8
242
 10
52.4268
 20
12.2036
 30
0.0
 70
    32
  0
VERTEX
  5
1D3C
  8
242
 10
52.354199999999999
 20
12.113
 30
0.0
 70
    32
  0
VERTEX
  5
1D3D
  8
242
 10
52.28799999999999
 20
12.02
 30
0.0
 70
    32
  0
VERTEX
  5
1D3E
  8
242
 10
52.228400000000001
 20
11.924799999999999
 30
0.0
 70
    32
  0
VERTEX
  5
1D3F
  8
242
 10
52.175400000000003
 20
11.8277
 30
0.0
 70
    32
  0
VERTEX
  5
1D40
  8
242
 10
52.129199999999997
 20
11.7288
 30
0.0
 70
    32
  0
VERTEX
  5
1D41
  8
242
 10
52.0899
 20
11.628500000000001
 30
0.0
 70
    32
  0
VERTEX
  5
1D42
  8
242
 10
52.057600000000001
 20
11.526899999999999
 30
0.0
 70
    32
  0
VERTEX
  5
1D43
  8
242
 10
52.032499999999999
 20
11.424300000000001
 30
0.0
 70
    32
  0
VERTEX
  5
1D44
  8
242
 10
52.014400000000002
 20
11.321
 30
0.0
 70
    32
  0
VERTEX
  5
1D45
  8
242
 10
52.003599999999992
 20
11.2171
 30
0.0
 70
    32
  0
VERTEX
  5
1D46
  8
242
 10
52.0
 20
11.113099999999999
 30
0.0
 70
    32
  0
SEQEND
  5
1D47
  8
242
  0
LINE
  5
1D48
  8
245
  6
CENTER2
 10
54.999999999998181
 20
-13.234375729006381
 30
0.0
 11
54.999999999998181
 21
-8.9917350418868391
 31
0.0
  0
LINE
  5
1D49
  8
245
  6
CENTER2
 10
51.999999999998181
 20
-11.31370849898485
 30
0.0
 11
57.999999999998181
 21
-11.31370849898485
 31
0.0
  0
POLYLINE
  5
1D4A
  8
241
  6
CONTINUOUS
 66
     1
 10
0.0
 20
0.0
 30
0.0
 70
     8
  0
VERTEX
  5
1D4B
  8
241
  6
CONTINUOUS
 10
52.5
 20
-11.1747
 30
0.0
 70
    32
  0
VERTEX
  5
1D4C
  8
241
  6
CONTINUOUS
 10
52.503
 20
-11.087999999999999
 30
0.0
 70
    32
  0
VERTEX
  5
1D4D
  8
241
  6
CONTINUOUS
 10
52.512
 20
-11.0015
 30
0.0
 70
    32
  0
VERTEX
  5
1D4E
  8
241
  6
CONTINUOUS
 10
52.527099999999997
 20
-10.9154
 30
0.0
 70
    32
  0
VERTEX
  5
1D4F
  8
241
  6
CONTINUOUS
 10
52.548000000000002
 20
-10.8299
 30
0.0
 70
    32
  0
VERTEX
  5
1D50
  8
241
  6
CONTINUOUS
 10
52.5749
 20
-10.745200000000001
 30
0.0
 70
    32
  0
VERTEX
  5
1D51
  8
241
  6
CONTINUOUS
 10
52.607599999999998
 20
-10.6616
 30
0.0
 70
    32
  0
VERTEX
  5
1D52
  8
241
  6
CONTINUOUS
 10
52.646099999999997
 20
-10.5792
 30
0.0
 70
    32
  0
VERTEX
  5
1D53
  8
241
  6
CONTINUOUS
 10
52.690300000000001
 20
-10.4983
 30
0.0
 70
    32
  0
VERTEX
  5
1D54
  8
241
  6
CONTINUOUS
 10
52.740000000000002
 20
-10.418900000000001
 30
0.0
 70
    32
  0
VERTEX
  5
1D55
  8
241
  6
CONTINUOUS
 10
52.795200000000001
 20
-10.3414
 30
0.0
 70
    32
  0
VERTEX
  5
1D56
  8
241
  6
CONTINUOUS
 10
52.855699999999992
 20
-10.2659
 30
0.0
 70
    32
  0
VERTEX
  5
1D57
  8
241
  6
CONTINUOUS
 10
52.921300000000002
 20
-10.192600000000001
 30
0.0
 70
    32
  0
VERTEX
  5
1D58
  8
241
  6
CONTINUOUS
 10
52.99199999999999
 20
-10.121700000000001
 30
0.0
 70
    32
  0
VERTEX
  5
1D59
  8
241
  6
CONTINUOUS
 10
53.067500000000003
 20
-10.0533
 30
0.0
 70
    32
  0
VERTEX
  5
1D5A
  8
241
  6
CONTINUOUS
 10
53.14759999999999
 20
-9.9875900000000009
 30
0.0
 70
    32
  0
VERTEX
  5
1D5B
  8
241
  6
CONTINUOUS
 10
53.232199999999999
 20
-9.9247499999999995
 30
0.0
 70
    32
  0
VERTEX
  5
1D5C
  8
241
  6
CONTINUOUS
 10
53.321100000000001
 20
-9.8649199999999997
 30
0.0
 70
    32
  0
VERTEX
  5
1D5D
  8
241
  6
CONTINUOUS
 10
53.414000000000001
 20
-9.8082499999999992
 30
0.0
 70
    32
  0
VERTEX
  5
1D5E
  8
241
  6
CONTINUOUS
 10
53.510800000000003
 20
-9.7548600000000008
 30
0.0
 70
    32
  0
VERTEX
  5
1D5F
  8
241
  6
CONTINUOUS
 10
53.6111
 20
-9.7049000000000003
 30
0.0
 70
    32
  0
VERTEX
  5
1D60
  8
241
  6
CONTINUOUS
 10
53.714700000000001
 20
-9.6584800000000008
 30
0.0
 70
    32
  0
VERTEX
  5
1D61
  8
241
  6
CONTINUOUS
 10
53.8215
 20
-9.6157199999999996
 30
0.0
 70
    32
  0
VERTEX
  5
1D62
  8
241
  6
CONTINUOUS
 10
53.931100000000001
 20
-9.5767100000000003
 30
0.0
 70
    32
  0
VERTEX
  5
1D63
  8
241
  6
CONTINUOUS
 10
54.043300000000002
 20
-9.5415399999999995
 30
0.0
 70
    32
  0
VERTEX
  5
1D64
  8
241
  6
CONTINUOUS
 10
54.157800000000002
 20
-9.5103200000000001
 30
0.0
 70
    32
  0
VERTEX
  5
1D65
  8
241
  6
CONTINUOUS
 10
54.274299999999997
 20
-9.4831000000000003
 30
0.0
 70
    32
  0
VERTEX
  5
1D66
  8
241
  6
CONTINUOUS
 10
54.392499999999998
 20
-9.4599600000000006
 30
0.0
 70
    32
  0
VERTEX
  5
1D67
  8
241
  6
CONTINUOUS
 10
54.512300000000003
 20
-9.4409500000000008
 30
0.0
 70
    32
  0
VERTEX
  5
1D68
  8
241
  6
CONTINUOUS
 10
54.633200000000002
 20
-9.4261099999999995
 30
0.0
 70
    32
  0
VERTEX
  5
1D69
  8
241
  6
CONTINUOUS
 10
54.755000000000003
 20
-9.4154900000000001
 30
0.0
 70
    32
  0
VERTEX
  5
1D6A
  8
241
  6
CONTINUOUS
 10
54.877299999999991
 20
-9.4091100000000001
 30
0.0
 70
    32
  0
VERTEX
  5
1D6B
  8
241
  6
CONTINUOUS
 10
55.0
 20
-9.4069800000000008
 30
0.0
 70
    32
  0
VERTEX
  5
1D6C
  8
241
  6
CONTINUOUS
 10
55.122700000000002
 20
-9.4091100000000001
 30
0.0
 70
    32
  0
VERTEX
  5
1D6D
  8
241
  6
CONTINUOUS
 10
55.24499999999999
 20
-9.4154900000000001
 30
0.0
 70
    32
  0
VERTEX
  5
1D6E
  8
241
  6
CONTINUOUS
 10
55.366799999999998
 20
-9.4261099999999995
 30
0.0
 70
    32
  0
VERTEX
  5
1D6F
  8
241
  6
CONTINUOUS
 10
55.487699999999997
 20
-9.4409500000000008
 30
0.0
 70
    32
  0
VERTEX
  5
1D70
  8
241
  6
CONTINUOUS
 10
55.607500000000002
 20
-9.4599600000000006
 30
0.0
 70
    32
  0
VERTEX
  5
1D71
  8
241
  6
CONTINUOUS
 10
55.725700000000003
 20
-9.4831000000000003
 30
0.0
 70
    32
  0
VERTEX
  5
1D72
  8
241
  6
CONTINUOUS
 10
55.842199999999998
 20
-9.5103200000000001
 30
0.0
 70
    32
  0
VERTEX
  5
1D73
  8
241
  6
CONTINUOUS
 10
55.956699999999998
 20
-9.5415399999999995
 30
0.0
 70
    32
  0
VERTEX
  5
1D74
  8
241
  6
CONTINUOUS
 10
56.068899999999992
 20
-9.5767100000000003
 30
0.0
 70
    32
  0
VERTEX
  5
1D75
  8
241
  6
CONTINUOUS
 10
56.1785
 20
-9.6157199999999996
 30
0.0
 70
    32
  0
VERTEX
  5
1D76
  8
241
  6
CONTINUOUS
 10
56.285299999999999
 20
-9.6584800000000008
 30
0.0
 70
    32
  0
VERTEX
  5
1D77
  8
241
  6
CONTINUOUS
 10
56.388899999999992
 20
-9.7049000000000003
 30
0.0
 70
    32
  0
VERTEX
  5
1D78
  8
241
  6
CONTINUOUS
 10
56.489199999999997
 20
-9.7548600000000008
 30
0.0
 70
    32
  0
VERTEX
  5
1D79
  8
241
  6
CONTINUOUS
 10
56.585999999999991
 20
-9.8082499999999992
 30
0.0
 70
    32
  0
VERTEX
  5
1D7A
  8
241
  6
CONTINUOUS
 10
56.678899999999992
 20
-9.8649199999999997
 30
0.0
 70
    32
  0
VERTEX
  5
1D7B
  8
241
  6
CONTINUOUS
 10
56.767800000000001
 20
-9.9247499999999995
 30
0.0
 70
    32
  0
VERTEX
  5
1D7C
  8
241
  6
CONTINUOUS
 10
56.852400000000003
 20
-9.9875900000000009
 30
0.0
 70
    32
  0
VERTEX
  5
1D7D
  8
241
  6
CONTINUOUS
 10
56.93249999999999
 20
-10.0533
 30
0.0
 70
    32
  0
VERTEX
  5
1D7E
  8
241
  6
CONTINUOUS
 10
57.008000000000003
 20
-10.121700000000001
 30
0.0
 70
    32
  0
VERTEX
  5
1D7F
  8
241
  6
CONTINUOUS
 10
57.078699999999991
 20
-10.192600000000001
 30
0.0
 70
    32
  0
VERTEX
  5
1D80
  8
241
  6
CONTINUOUS
 10
57.144300000000001
 20
-10.2659
 30
0.0
 70
    32
  0
VERTEX
  5
1D81
  8
241
  6
CONTINUOUS
 10
57.204799999999999
 20
-10.3414
 30
0.0
 70
    32
  0
VERTEX
  5
1D82
  8
241
  6
CONTINUOUS
 10
57.259999999999991
 20
-10.418900000000001
 30
0.0
 70
    32
  0
VERTEX
  5
1D83
  8
241
  6
CONTINUOUS
 10
57.309699999999999
 20
-10.4983
 30
0.0
 70
    32
  0
VERTEX
  5
1D84
  8
241
  6
CONTINUOUS
 10
57.353900000000003
 20
-10.5792
 30
0.0
 70
    32
  0
VERTEX
  5
1D85
  8
241
  6
CONTINUOUS
 10
57.392400000000002
 20
-10.6616
 30
0.0
 70
    32
  0
VERTEX
  5
1D86
  8
241
  6
CONTINUOUS
 10
57.4251
 20
-10.745200000000001
 30
0.0
 70
    32
  0
VERTEX
  5
1D87
  8
241
  6
CONTINUOUS
 10
57.451999999999998
 20
-10.8299
 30
0.0
 70
    32
  0
VERTEX
  5
1D88
  8
241
  6
CONTINUOUS
 10
57.472900000000003
 20
-10.9154
 30
0.0
 70
    32
  0
VERTEX
  5
1D89
  8
241
  6
CONTINUOUS
 10
57.488
 20
-11.0015
 30
0.0
 70
    32
  0
VERTEX
  5
1D8A
  8
241
  6
CONTINUOUS
 10
57.497
 20
-11.087999999999999
 30
0.0
 70
    32
  0
VERTEX
  5
1D8B
  8
241
  6
CONTINUOUS
 10
57.5
 20
-11.1747
 30
0.0
 70
    32
  0
VERTEX
  5
1D8C
  8
241
  6
CONTINUOUS
 10
57.497
 20
-11.2615
 30
0.0
 70
    32
  0
VERTEX
  5
1D8D
  8
241
  6
CONTINUOUS
 10
57.488
 20
-11.348000000000001
 30
0.0
 70
    32
  0
VERTEX
  5
1D8E
  8
241
  6
CONTINUOUS
 10
57.472900000000003
 20
-11.434100000000001
 30
0.0
 70
    32
  0
VERTEX
  5
1D8F
  8
241
  6
CONTINUOUS
 10
57.451999999999998
 20
-11.519600000000001
 30
0.0
 70
    32
  0
VERTEX
  5
1D90
  8
241
  6
CONTINUOUS
 10
57.4251
 20
-11.6043
 30
0.0
 70
    32
  0
VERTEX
  5
1D91
  8
241
  6
CONTINUOUS
 10
57.392400000000002
 20
-11.687900000000001
 30
0.0
 70
    32
  0
VERTEX
  5
1D92
  8
241
  6
CONTINUOUS
 10
57.353900000000003
 20
-11.770300000000001
 30
0.0
 70
    32
  0
VERTEX
  5
1D93
  8
241
  6
CONTINUOUS
 10
57.309699999999999
 20
-11.8512
 30
0.0
 70
    32
  0
VERTEX
  5
1D94
  8
241
  6
CONTINUOUS
 10
57.259999999999991
 20
-11.9306
 30
0.0
 70
    32
  0
VERTEX
  5
1D95
  8
241
  6
CONTINUOUS
 10
57.204799999999999
 20
-12.008100000000001
 30
0.0
 70
    32
  0
VERTEX
  5
1D96
  8
241
  6
CONTINUOUS
 10
57.144300000000001
 20
-12.083600000000001
 30
0.0
 70
    32
  0
VERTEX
  5
1D97
  8
241
  6
CONTINUOUS
 10
57.078699999999991
 20
-12.1569
 30
0.0
 70
    32
  0
VERTEX
  5
1D98
  8
241
  6
CONTINUOUS
 10
57.008000000000003
 20
-12.2278
 30
0.0
 70
    32
  0
VERTEX
  5
1D99
  8
241
  6
CONTINUOUS
 10
56.93249999999999
 20
-12.296200000000001
 30
0.0
 70
    32
  0
VERTEX
  5
1D9A
  8
241
  6
CONTINUOUS
 10
56.852400000000003
 20
-12.3619
 30
0.0
 70
    32
  0
VERTEX
  5
1D9B
  8
241
  6
CONTINUOUS
 10
56.767800000000001
 20
-12.4247
 30
0.0
 70
    32
  0
VERTEX
  5
1D9C
  8
241
  6
CONTINUOUS
 10
56.678899999999992
 20
-12.4846
 30
0.0
 70
    32
  0
VERTEX
  5
1D9D
  8
241
  6
CONTINUOUS
 10
56.585999999999991
 20
-12.5413
 30
0.0
 70
    32
  0
VERTEX
  5
1D9E
  8
241
  6
CONTINUOUS
 10
56.489199999999997
 20
-12.5946
 30
0.0
 70
    32
  0
VERTEX
  5
1D9F
  8
241
  6
CONTINUOUS
 10
56.388899999999992
 20
-12.644600000000001
 30
0.0
 70
    32
  0
VERTEX
  5
1DA0
  8
241
  6
CONTINUOUS
 10
56.285299999999999
 20
-12.691000000000001
 30
0.0
 70
    32
  0
VERTEX
  5
1DA1
  8
241
  6
CONTINUOUS
 10
56.1785
 20
-12.7338
 30
0.0
 70
    32
  0
VERTEX
  5
1DA2
  8
241
  6
CONTINUOUS
 10
56.068899999999992
 20
-12.7728
 30
0.0
 70
    32
  0
VERTEX
  5
1DA3
  8
241
  6
CONTINUOUS
 10
55.956699999999998
 20
-12.808
 30
0.0
 70
    32
  0
VERTEX
  5
1DA4
  8
241
  6
CONTINUOUS
 10
55.842199999999998
 20
-12.8392
 30
0.0
 70
    32
  0
VERTEX
  5
1DA5
  8
241
  6
CONTINUOUS
 10
55.725700000000003
 20
-12.866400000000001
 30
0.0
 70
    32
  0
VERTEX
  5
1DA6
  8
241
  6
CONTINUOUS
 10
55.607500000000002
 20
-12.8895
 30
0.0
 70
    32
  0
VERTEX
  5
1DA7
  8
241
  6
CONTINUOUS
 10
55.487699999999997
 20
-12.9085
 30
0.0
 70
    32
  0
VERTEX
  5
1DA8
  8
241
  6
CONTINUOUS
 10
55.366799999999998
 20
-12.923400000000001
 30
0.0
 70
    32
  0
VERTEX
  5
1DA9
  8
241
  6
CONTINUOUS
 10
55.24499999999999
 20
-12.933999999999999
 30
0.0
 70
    32
  0
VERTEX
  5
1DAA
  8
241
  6
CONTINUOUS
 10
55.122700000000002
 20
-12.9404
 30
0.0
 70
    32
  0
VERTEX
  5
1DAB
  8
241
  6
CONTINUOUS
 10
55.0
 20
-12.942500000000001
 30
0.0
 70
    32
  0
VERTEX
  5
1DAC
  8
241
  6
CONTINUOUS
 10
54.877299999999991
 20
-12.9404
 30
0.0
 70
    32
  0
VERTEX
  5
1DAD
  8
241
  6
CONTINUOUS
 10
54.755000000000003
 20
-12.933999999999999
 30
0.0
 70
    32
  0
VERTEX
  5
1DAE
  8
241
  6
CONTINUOUS
 10
54.633200000000002
 20
-12.923400000000001
 30
0.0
 70
    32
  0
VERTEX
  5
1DAF
  8
241
  6
CONTINUOUS
 10
54.512300000000003
 20
-12.9085
 30
0.0
 70
    32
  0
VERTEX
  5
1DB0
  8
241
  6
CONTINUOUS
 10
54.392499999999998
 20
-12.8895
 30
0.0
 70
    32
  0
VERTEX
  5
1DB1
  8
241
  6
CONTINUOUS
 10
54.274299999999997
 20
-12.866400000000001
 30
0.0
 70
    32
  0
VERTEX
  5
1DB2
  8
241
  6
CONTINUOUS
 10
54.157800000000002
 20
-12.8392
 30
0.0
 70
    32
  0
VERTEX
  5
1DB3
  8
241
  6
CONTINUOUS
 10
54.043300000000002
 20
-12.808
 30
0.0
 70
    32
  0
VERTEX
  5
1DB4
  8
241
  6
CONTINUOUS
 10
53.931100000000001
 20
-12.7728
 30
0.0
 70
    32
  0
VERTEX
  5
1DB5
  8
241
  6
CONTINUOUS
 10
53.8215
 20
-12.7338
 30
0.0
 70
    32
  0
VERTEX
  5
1DB6
  8
241
  6
CONTINUOUS
 10
53.714700000000001
 20
-12.691000000000001
 30
0.0
 70
    32
  0
VERTEX
  5
1DB7
  8
241
  6
CONTINUOUS
 10
53.6111
 20
-12.644600000000001
 30
0.0
 70
    32
  0
VERTEX
  5
1DB8
  8
241
  6
CONTINUOUS
 10
53.510800000000003
 20
-12.5946
 30
0.0
 70
    32
  0
VERTEX
  5
1DB9
  8
241
  6
CONTINUOUS
 10
53.414000000000001
 20
-12.5413
 30
0.0
 70
    32
  0
VERTEX
  5
1DBA
  8
241
  6
CONTINUOUS
 10
53.321100000000001
 20
-12.4846
 30
0.0
 70
    32
  0
VERTEX
  5
1DBB
  8
241
  6
CONTINUOUS
 10
53.232199999999999
 20
-12.4247
 30
0.0
 70
    32
  0
VERTEX
  5
1DBC
  8
241
  6
CONTINUOUS
 10
53.14759999999999
 20
-12.3619
 30
0.0
 70
    32
  0
VERTEX
  5
1DBD
  8
241
  6
CONTINUOUS
 10
53.067500000000003
 20
-12.296200000000001
 30
0.0
 70
    32
  0
VERTEX
  5
1DBE
  8
241
  6
CONTINUOUS
 10
52.99199999999999
 20
-12.2278
 30
0.0
 70
    32
  0
VERTEX
  5
1DBF
  8
241
  6
CONTINUOUS
 10
52.921300000000002
 20
-12.1569
 30
0.0
 70
    32
  0
VERTEX
  5
1DC0
  8
241
  6
CONTINUOUS
 10
52.855699999999992
 20
-12.083600000000001
 30
0.0
 70
    32
  0
VERTEX
  5
1DC1
  8
241
  6
CONTINUOUS
 10
52.795200000000001
 20
-12.008100000000001
 30
0.0
 70
    32
  0
VERTEX
  5
1DC2
  8
241
  6
CONTINUOUS
 10
52.740000000000002
 20
-11.9306
 30
0.0
 70
    32
  0
VERTEX
  5
1DC3
  8
241
  6
CONTINUOUS
 10
52.690300000000001
 20
-11.8512
 30
0.0
 70
    32
  0
VERTEX
  5
1DC4
  8
241
  6
CONTINUOUS
 10
52.646099999999997
 20
-11.770300000000001
 30
0.0
 70
    32
  0
VERTEX
  5
1DC5
  8
241
  6
CONTINUOUS
 10
52.607599999999998
 20
-11.687900000000001
 30
0.0
 70
    32
  0
VERTEX
  5
1DC6
  8
241
  6
CONTINUOUS
 10
52.5749
 20
-11.6043
 30
0.0
 70
    32
  0
VERTEX
  5
1DC7
  8
241
  6
CONTINUOUS
 10
52.548000000000002
 20
-11.519600000000001
 30
0.0
 70
    32
  0
VERTEX
  5
1DC8
  8
241
  6
CONTINUOUS
 10
52.527099999999997
 20
-11.434100000000001
 30
0.0
 70
    32
  0
VERTEX
  5
1DC9
  8
241
  6
CONTINUOUS
 10
52.512
 20
-11.348000000000001
 30
0.0
 70
    32
  0
VERTEX
  5
1DCA
  8
241
  6
CONTINUOUS
 10
52.503
 20
-11.2615
 30
0.0
 70
    32
  0
VERTEX
  5
1DCB
  8
241
  6
CONTINUOUS
 10
52.5
 20
-11.1747
 30
0.0
 70
    32
  0
SEQEND
  5
1DCC
  8
241
  6
CONTINUOUS
  0
POLYLINE
  5
1DCD
  8
242
 66
     1
 10
0.0
 20
0.0
 30
0.0
 70
     8
  0
VERTEX
  5
1DCE
  8
242
 10
52.0
 20
-11.113099999999999
 30
0.0
 70
    32
  0
VERTEX
  5
1DCF
  8
242
 10
52.003599999999992
 20
-11.009
 30
0.0
 70
    32
  0
VERTEX
  5
1DD0
  8
242
 10
52.014400000000002
 20
-10.905099999999999
 30
0.0
 70
    32
  0
VERTEX
  5
1DD1
  8
242
 10
52.032499999999999
 20
-10.8018
 30
0.0
 70
    32
  0
VERTEX
  5
1DD2
  8
242
 10
52.057600000000001
 20
-10.699199999999999
 30
0.0
 70
    32
  0
VERTEX
  5
1DD3
  8
242
 10
52.0899
 20
-10.5976
 30
0.0
 70
    32
  0
VERTEX
  5
1DD4
  8
242
 10
52.129199999999997
 20
-10.497299999999999
 30
0.0
 70
    32
  0
VERTEX
  5
1DD5
  8
242
 10
52.175400000000003
 20
-10.398400000000001
 30
0.0
 70
    32
  0
VERTEX
  5
1DD6
  8
242
 10
52.228400000000001
 20
-10.301299999999999
 30
0.0
 70
    32
  0
VERTEX
  5
1DD7
  8
242
 10
52.28799999999999
 20
-10.206099999999999
 30
0.0
 70
    32
  0
VERTEX
  5
1DD8
  8
242
 10
52.354199999999999
 20
-10.113099999999999
 30
0.0
 70
    32
  0
VERTEX
  5
1DD9
  8
242
 10
52.4268
 20
-10.022500000000001
 30
0.0
 70
    32
  0
VERTEX
  5
1DDA
  8
242
 10
52.505600000000001
 20
-9.9345099999999995
 30
0.0
 70
    32
  0
VERTEX
  5
1DDB
  8
242
 10
52.590400000000002
 20
-9.8493899999999996
 30
0.0
 70
    32
  0
VERTEX
  5
1DDC
  8
242
 10
52.680999999999997
 20
-9.7673000000000005
 30
0.0
 70
    32
  0
VERTEX
  5
1DDD
  8
242
 10
52.77709999999999
 20
-9.6884599999999992
 30
0.0
 70
    32
  0
VERTEX
  5
1DDE
  8
242
 10
52.878700000000002
 20
-9.6130600000000008
 30
0.0
 70
    32
  0
VERTEX
  5
1DDF
  8
242
 10
52.985300000000002
 20
-9.5412599999999994
 30
0.0
 70
    32
  0
VERTEX
  5
1DE0
  8
242
 10
53.096800000000002
 20
-9.4732500000000002
 30
0.0
 70
    32
  0
VERTEX
  5
1DE1
  8
242
 10
53.212899999999998
 20
-9.4091900000000006
 30
0.0
 70
    32
  0
VERTEX
  5
1DE2
  8
242
 10
53.333300000000001
 20
-9.3492399999999982
 30
0.0
 70
    32
  0
VERTEX
  5
1DE3
  8
242
 10
53.457700000000003
 20
-9.2935400000000001
 30
0.0
 70
    32
  0
VERTEX
  5
1DE4
  8
242
 10
53.585799999999992
 20
-9.2422199999999997
 30
0.0
 70
    32
  0
VERTEX
  5
1DE5
  8
242
 10
53.717300000000002
 20
-9.1953999999999994
 30
0.0
 70
    32
  0
VERTEX
  5
1DE6
  8
242
 10
53.851900000000001
 20
-9.1532099999999996
 30
0.0
 70
    32
  0
VERTEX
  5
1DE7
  8
242
 10
53.9893
 20
-9.1157400000000006
 30
0.0
 70
    32
  0
VERTEX
  5
1DE8
  8
242
 10
54.129100000000001
 20
-9.0830800000000007
 30
0.0
 70
    32
  0
VERTEX
  5
1DE9
  8
242
 10
54.271099999999983
 20
-9.0553100000000004
 30
0.0
 70
    32
  0
VERTEX
  5
1DEA
  8
242
 10
54.414700000000003
 20
-9.0325000000000006
 30
0.0
 70
    32
  0
VERTEX
  5
1DEB
  8
242
 10
54.559800000000003
 20
-9.0146999999999995
 30
0.0
 70
    32
  0
VERTEX
  5
1DEC
  8
242
 10
54.7059
 20
-9.0019500000000008
 30
0.0
 70
    32
  0
VERTEX
  5
1DED
  8
242
 10
54.852800000000002
 20
-8.9942899999999977
 30
0.0
 70
    32
  0
VERTEX
  5
1DEE
  8
242
 10
55.0
 20
-8.9917400000000001
 30
0.0
 70
    32
  0
VERTEX
  5
1DEF
  8
242
 10
55.147199999999998
 20
-8.9942899999999977
 30
0.0
 70
    32
  0
VERTEX
  5
1DF0
  8
242
 10
55.2941
 20
-9.0019500000000008
 30
0.0
 70
    32
  0
VERTEX
  5
1DF1
  8
242
 10
55.44019999999999
 20
-9.0146999999999995
 30
0.0
 70
    32
  0
VERTEX
  5
1DF2
  8
242
 10
55.585299999999997
 20
-9.0325000000000006
 30
0.0
 70
    32
  0
VERTEX
  5
1DF3
  8
242
 10
55.72890000000001
 20
-9.0553100000000004
 30
0.0
 70
    32
  0
VERTEX
  5
1DF4
  8
242
 10
55.870899999999992
 20
-9.0830800000000007
 30
0.0
 70
    32
  0
VERTEX
  5
1DF5
  8
242
 10
56.010699999999993
 20
-9.1157400000000006
 30
0.0
 70
    32
  0
VERTEX
  5
1DF6
  8
242
 10
56.148099999999999
 20
-9.1532099999999996
 30
0.0
 70
    32
  0
VERTEX
  5
1DF7
  8
242
 10
56.282699999999998
 20
-9.1953999999999994
 30
0.0
 70
    32
  0
VERTEX
  5
1DF8
  8
242
 10
56.414200000000001
 20
-9.2422199999999997
 30
0.0
 70
    32
  0
VERTEX
  5
1DF9
  8
242
 10
56.542299999999997
 20
-9.2935400000000001
 30
0.0
 70
    32
  0
VERTEX
  5
1DFA
  8
242
 10
56.666699999999992
 20
-9.3492399999999982
 30
0.0
 70
    32
  0
VERTEX
  5
1DFB
  8
242
 10
56.787100000000002
 20
-9.4091900000000006
 30
0.0
 70
    32
  0
VERTEX
  5
1DFC
  8
242
 10
56.903199999999991
 20
-9.4732500000000002
 30
0.0
 70
    32
  0
VERTEX
  5
1DFD
  8
242
 10
57.014699999999998
 20
-9.5412599999999994
 30
0.0
 70
    32
  0
VERTEX
  5
1DFE
  8
242
 10
57.121299999999998
 20
-9.6130600000000008
 30
0.0
 70
    32
  0
VERTEX
  5
1DFF
  8
242
 10
57.222900000000003
 20
-9.6884599999999992
 30
0.0
 70
    32
  0
VERTEX
  5
1E00
  8
242
 10
57.319000000000003
 20
-9.7673000000000005
 30
0.0
 70
    32
  0
VERTEX
  5
1E01
  8
242
 10
57.409599999999998
 20
-9.8493899999999996
 30
0.0
 70
    32
  0
VERTEX
  5
1E02
  8
242
 10
57.494399999999992
 20
-9.9345099999999995
 30
0.0
 70
    32
  0
VERTEX
  5
1E03
  8
242
 10
57.573199999999993
 20
-10.022500000000001
 30
0.0
 70
    32
  0
VERTEX
  5
1E04
  8
242
 10
57.645800000000001
 20
-10.113099999999999
 30
0.0
 70
    32
  0
VERTEX
  5
1E05
  8
242
 10
57.712000000000003
 20
-10.206099999999999
 30
0.0
 70
    32
  0
VERTEX
  5
1E06
  8
242
 10
57.771599999999999
 20
-10.301299999999999
 30
0.0
 70
    32
  0
VERTEX
  5
1E07
  8
242
 10
57.824599999999997
 20
-10.398400000000001
 30
0.0
 70
    32
  0
VERTEX
  5
1E08
  8
242
 10
57.870800000000003
 20
-10.497299999999999
 30
0.0
 70
    32
  0
VERTEX
  5
1E09
  8
242
 10
57.910099999999993
 20
-10.5976
 30
0.0
 70
    32
  0
VERTEX
  5
1E0A
  8
242
 10
57.942399999999999
 20
-10.699199999999999
 30
0.0
 70
    32
  0
VERTEX
  5
1E0B
  8
242
 10
57.967500000000001
 20
-10.8018
 30
0.0
 70
    32
  0
VERTEX
  5
1E0C
  8
242
 10
57.985599999999998
 20
-10.905099999999999
 30
0.0
 70
    32
  0
VERTEX
  5
1E0D
  8
242
 10
57.996400000000001
 20
-11.009
 30
0.0
 70
    32
  0
VERTEX
  5
1E0E
  8
242
 10
58.0
 20
-11.113099999999999
 30
0.0
 70
    32
  0
VERTEX
  5
1E0F
  8
242
 10
57.996400000000001
 20
-11.2171
 30
0.0
 70
    32
  0
VERTEX
  5
1E10
  8
242
 10
57.985599999999998
 20
-11.321
 30
0.0
 70
    32
  0
VERTEX
  5
1E11
  8
242
 10
57.967500000000001
 20
-11.424300000000001
 30
0.0
 70
    32
  0
VERTEX
  5
1E12
  8
242
 10
57.942399999999999
 20
-11.526899999999999
 30
0.0
 70
    32
  0
VERTEX
  5
1E13
  8
242
 10
57.910099999999993
 20
-11.628500000000001
 30
0.0
 70
    32
  0
VERTEX
  5
1E14
  8
242
 10
57.870800000000003
 20
-11.7288
 30
0.0
 70
    32
  0
VERTEX
  5
1E15
  8
242
 10
57.824599999999997
 20
-11.8277
 30
0.0
 70
    32
  0
VERTEX
  5
1E16
  8
242
 10
57.771599999999999
 20
-11.924799999999999
 30
0.0
 70
    32
  0
VERTEX
  5
1E17
  8
242
 10
57.712000000000003
 20
-12.02
 30
0.0
 70
    32
  0
VERTEX
  5
1E18
  8
242
 10
57.645800000000001
 20
-12.113
 30
0.0
 70
    32
  0
VERTEX
  5
1E19
  8
242
 10
57.573199999999993
 20
-12.2036
 30
0.0
 70
    32
  0
VERTEX
  5
1E1A
  8
242
 10
57.494399999999992
 20
-12.291600000000001
 30
0.0
 70
    32
  0
VERTEX
  5
1E1B
  8
242
 10
57.409599999999998
 20
-12.3767
 30
0.0
 70
    32
  0
VERTEX
  5
1E1C
  8
242
 10
57.319000000000003
 20
-12.4588
 30
0.0
 70
    32
  0
VERTEX
  5
1E1D
  8
242
 10
57.222900000000003
 20
-12.537599999999999
 30
0.0
 70
    32
  0
VERTEX
  5
1E1E
  8
242
 10
57.121299999999998
 20
-12.613099999999999
 30
0.0
 70
    32
  0
VERTEX
  5
1E1F
  8
242
 10
57.014699999999998
 20
-12.684900000000001
 30
0.0
 70
    32
  0
VERTEX
  5
1E20
  8
242
 10
56.903199999999991
 20
-12.7529
 30
0.0
 70
    32
  0
VERTEX
  5
1E21
  8
242
 10
56.787100000000002
 20
-12.8169
 30
0.0
 70
    32
  0
VERTEX
  5
1E22
  8
242
 10
56.666699999999992
 20
-12.876899999999999
 30
0.0
 70
    32
  0
VERTEX
  5
1E23
  8
242
 10
56.542299999999997
 20
-12.932600000000001
 30
0.0
 70
    32
  0
VERTEX
  5
1E24
  8
242
 10
56.414200000000001
 20
-12.9839
 30
0.0
 70
    32
  0
VERTEX
  5
1E25
  8
242
 10
56.282699999999998
 20
-13.0307
 30
0.0
 70
    32
  0
VERTEX
  5
1E26
  8
242
 10
56.148099999999999
 20
-13.072900000000001
 30
0.0
 70
    32
  0
VERTEX
  5
1E27
  8
242
 10
56.010699999999993
 20
-13.1104
 30
0.0
 70
    32
  0
VERTEX
  5
1E28
  8
242
 10
55.870899999999992
 20
-13.143000000000001
 30
0.0
 70
    32
  0
VERTEX
  5
1E29
  8
242
 10
55.72890000000001
 20
-13.1708
 30
0.0
 70
    32
  0
VERTEX
  5
1E2A
  8
242
 10
55.585299999999997
 20
-13.1936
 30
0.0
 70
    32
  0
VERTEX
  5
1E2B
  8
242
 10
55.44019999999999
 20
-13.211399999999999
 30
0.0
 70
    32
  0
VERTEX
  5
1E2C
  8
242
 10
55.2941
 20
-13.2242
 30
0.0
 70
    32
  0
VERTEX
  5
1E2D
  8
242
 10
55.147199999999998
 20
-13.2318
 30
0.0
 70
    32
  0
VERTEX
  5
1E2E
  8
242
 10
55.0
 20
-13.234400000000001
 30
0.0
 70
    32
  0
VERTEX
  5
1E2F
  8
242
 10
54.852800000000002
 20
-13.2318
 30
0.0
 70
    32
  0
VERTEX
  5
1E30
  8
242
 10
54.7059
 20
-13.2242
 30
0.0
 70
    32
  0
VERTEX
  5
1E31
  8
242
 10
54.559800000000003
 20
-13.211399999999999
 30
0.0
 70
    32
  0
VERTEX
  5
1E32
  8
242
 10
54.414700000000003
 20
-13.1936
 30
0.0
 70
    32
  0
VERTEX
  5
1E33
  8
242
 10
54.271099999999983
 20
-13.1708
 30
0.0
 70
    32
  0
VERTEX
  5
1E34
  8
242
 10
54.129100000000001
 20
-13.143000000000001
 30
0.0
 70
    32
  0
VERTEX
  5
1E35
  8
242
 10
53.9893
 20
-13.1104
 30
0.0
 70
    32
  0
VERTEX
  5
1E36
  8
242
 10
53.851900000000001
 20
-13.072900000000001
 30
0.0
 70
    32
  0
VERTEX
  5
1E37
  8
242
 10
53.717300000000002
 20
-13.0307
 30
0.0
 70
    32
  0
VERTEX
  5
1E38
  8
242
 10
53.585799999999992
 20
-12.9839
 30
0.0
 70
    32
  0
VERTEX
  5
1E39
  8
242
 10
53.457700000000003
 20
-12.932600000000001
 30
0.0
 70
    32
  0
VERTEX
  5
1E3A
  8
242
 10
53.333300000000001
 20
-12.876899999999999
 30
0.0
 70
    32
  0
VERTEX
  5
1E3B
  8
242
 10
53.212899999999998
 20
-12.8169
 30
0.0
 70
    32
  0
VERTEX
  5
1E3C
  8
242
 10
53.096800000000002
 20
-12.7529
 30
0.0
 70
    32
  0
VERTEX
  5
1E3D
  8
242
 10
52.985300000000002
 20
-12.684900000000001
 30
0.0
 70
    32
  0
VERTEX
  5
1E3E
  8
242
 10
52.878700000000002
 20
-12.613099999999999
 30
0.0
 70
    32
  0
VERTEX
  5
1E3F
  8
242
 10
52.77709999999999
 20
-12.537599999999999
 30
0.0
 70
    32
  0
VERTEX
  5
1E40
  8
242
 10
52.680999999999997
 20
-12.4588
 30
0.0
 70
    32
  0
VERTEX
  5
1E41
  8
242
 10
52.590400000000002
 20
-12.3767
 30
0.0
 70
    32
  0
VERTEX
  5
1E42
  8
242
 10
52.505600000000001
 20
-12.291600000000001
 30
0.0
 70
    32
  0
VERTEX
  5
1E43
  8
242
 10
52.4268
 20
-12.2036
 30
0.0
 70
    32
  0
VERTEX
  5
1E44
  8
242
 10
52.354199999999999
 20
-12.113
 30
0.0
 70
    32
  0
VERTEX
  5
1E45
  8
242
 10
52.28799999999999
 20
-12.02
 30
0.0
 70
    32
  0
VERTEX
  5
1E46
  8
242
 10
52.228400000000001
 20
-11.924799999999999
 30
0.0
 70
    32
  0
VERTEX
  5
1E47
  8
242
 10
52.175400000000003
 20
-11.8277
 30
0.0
 70
    32
  0
VERTEX
  5
1E48
  8
242
 10
52.129199999999997
 20
-11.7288
 30
0.0
 70
    32
  0
VERTEX
  5
1E49
  8
242
 10
52.0899
 20
-11.628500000000001
 30
0.0
 70
    32
  0
VERTEX
  5
1E4A
  8
242
 10
52.057600000000001
 20
-11.526899999999999
 30
0.0
 70
    32
  0
VERTEX
  5
1E4B
  8
242
 10
52.032499999999999
 20
-11.424300000000001
 30
0.0
 70
    32
  0
VERTEX
  5
1E4C
  8
242
 10
52.014400000000002
 20
-11.321
 30
0.0
 70
    32
  0
VERTEX
  5
1E4D
  8
242
 10
52.003599999999992
 20
-11.2171
 30
0.0
 70
    32
  0
VERTEX
  5
1E4E
  8
242
 10
52.0
 20
-11.113099999999999
 30
0.0
 70
    32
  0
SEQEND
  5
1E4F
  8
242
  0
LINE
  5
1E50
  8
241
  6
CONTINUOUS
 10
2.9742360359850841
 20
15.899999999996
 30
0.0
 11
2.9742360359850841
 21
-15.899999999996
 31
0.0
  0
LINE
  5
1E51
  8
241
  6
CONTINUOUS
 10
-0.0000000000018435
 20
26.999999999994539
 30
0.0
 11
0.0000000000018435
 21
-26.999999999994539
 31
0.0
  0
LINE
  5
1E53
  8
241
  6
CONTINUOUS
 10
-7.6262612902773981
 20
26.999999999994539
 30
0.0
 11
-7.6262612902773981
 21
-26.999999999994088
 31
0.0
  0
LINE
  5
1E54
  8
241
  6
CONTINUOUS
 10
49.0
 20
15.99999999999863
 30
0.0
 11
48.999999999996362
 21
-15.99999999999863
 31
0.0
  0
LINE
  5
1E55
  8
241
  6
CONTINUOUS
 10
47.399999999994179
 20
15.99999999999863
 30
0.0
 11
47.399999999994179
 21
-15.99999999999863
 31
0.0
  0
LINE
  5
1E56
  8
241
  6
CONTINUOUS
 10
46.000000000001812
 20
15.999999999999091
 30
0.0
 11
46.000000000001812
 21
-15.999999999999091
 31
0.0
  0
LINE
  5
1E57
  8
241
  6
CONTINUOUS
 10
44.39999999999236
 20
16.0
 30
0.0
 11
44.39999999999236
 21
-16.0
 31
0.0
  0
LINE
  5
1E5B
  8
241
  6
CONTINUOUS
 10
-29.000000000005461
 20
-19.80000000000382
 30
0.0
 11
-29.000000000005461
 21
19.800000000004271
 31
0.0
  0
LINE
  5
1E5C
  8
241
  6
CONTINUOUS
 10
-31.500000000001808
 20
-19.80000000000382
 30
0.0
 11
-31.500000000001808
 21
19.800000000004271
 31
0.0
  0
LINE
  5
1E67
  8
240
  6
CONTINUOUS
 10
-9.0000000000018172
 20
-26.499999999996561
 30
0.0
 11
-7.6262612902781202
 21
-26.999999999994539
 31
0.0
  0
LINE
  5
1E69
  8
240
  6
CONTINUOUS
 10
-0.0000000000021296
 20
-26.999999999994539
 30
0.0
 11
-7.6262612902781202
 21
-26.999999999994539
 31
0.0
  0
LINE
  5
1E6E
  8
240
  6
CONTINUOUS
 10
-0.0000000000021296
 20
-26.999999999994539
 30
0.0
 11
2.7488422784283282
 21
-16.74118095490255
 31
0.0
  0
LINE
  5
1E77
  8
240
  6
CONTINUOUS
 10
-55.000000000020009
 20
-16.5
 30
0.0
 11
-51.500000000020009
 21
-20.0
 31
0.0
  0
LINE
  5
1E78
  8
240
  6
CONTINUOUS
 10
-55.000000000020009
 20
-16.5
 30
0.0
 11
-66.000000000005471
 21
-16.5
 31
0.0
  0
LINE
  5
1E79
  8
240
  6
CONTINUOUS
 10
-76.999999999987267
 20
-16.499999999998181
 30
0.0
 11
-66.000000000001819
 21
-16.499999999972712
 31
0.0
  0
LINE
  5
1E7A
  8
240
  6
CONTINUOUS
 10
-76.999999999987267
 20
-16.499999999998181
 30
0.0
 11
-80.499999999990905
 21
-19.999999999998181
 31
0.0
  0
LINE
  5
1E7D
  8
240
  6
CONTINUOUS
 10
-51.500000000020009
 20
-20.0
 30
0.0
 11
-9.0000000000018172
 21
-20.000000000002451
 31
0.0
  0
LINE
  5
1E8E
  8
240
  6
CONTINUOUS
 10
-90.000000000000853
 20
20.000000000002728
 30
0.0
 11
-90.000000000002771
 21
-20.000000000001361
 31
0.0
  0
LINE
  5
1E95
  8
240
  6
CONTINUOUS
 10
-90.000000000000853
 20
20.000000000002728
 30
0.0
 11
-80.499999999995453
 21
20.000000000002728
 31
0.0
  0
LINE
  5
1E9F
  8
240
  6
CONTINUOUS
 10
-90.000000000002771
 20
-20.000000000001361
 30
0.0
 11
-80.499999999995453
 21
-20.000000000001361
 31
0.0
  0
POINT
  5
1EB2
  8
0
 10
-15041.480041667361
 20
9982.2519074072643
 30
0.0
1001
GENIUS_GENOLIS_13
1002
{
1000
ENT
1005
0
1005
0
1005
1C0B
1005
0
1002
}
1001
GENIUS_GENOENT_13
1002
{
1000
MYREF
1005
1EB2
1002
}
1002
{
1000
GRP
1005
0
1002
}
1001
GENIUS_GENOBJ-N-CRS_13
1002
{
1000
OWNER
1000
GEN
1002
}
1001
GENIUS_GENODEF_13
1002
{
1000
HIER
1070
    10
1002
}
1002
{
1000
MANEDIT
1070
     1
1002
}
1002
{
1000
NOSEL
1070
     0
1002
}
1002
{
1000
BEHIND
1070
     0
1002
}
1002
{
1000
OTHER
1070
     0
1002
}
1002
{
1000
REACTOR
1002
}
  0
ARC
  5
1ED0
  8
240
  6
CONTINUOUS
 10
3.7147681047173711
 20
17.000000000005169
 30
0.0
 40
1.0
 50
195.0000000000054
 51
269.99999999999301
1001
GENIUS_GENOBJ-N-FIL_13
1002
{
1000
OWNER
1000
GEN
1002
}
1001
GENIUS_GENODEF_13
1002
{
1000
HIER
1070
     0
1002
}
1002
{
1000
MANEDIT
1070
     0
1002
}
1002
{
1000
NOSEL
1070
     0
1002
}
1002
{
1000
BEHIND
1070
     0
1002
}
1002
{
1000
OTHER
1070
     0
1002
}
1002
{
1000
REACTOR
1002
}
  0
ARC
  5
1ED1
  8
240
  6
CONTINUOUS
 10
3.714768104717372
 20
-17.000000000005159
 30
0.0
 40
1.0
 50
90.000000000006978
 51
164.9999999999944
1001
GENIUS_GENODEF_13
1002
{
1000
HIER
1070
     0
1002
}
1002
{
1000
MANEDIT
1070
     0
1002
}
1002
{
1000
NOSEL
1070
     0
1002
}
1002
{
1000
BEHIND
1070
     0
1002
}
1002
{
1000
OTHER
1070
     0
1002
}
1002
{
1000
REACTOR
1002
}
1001
GENIUS_GENOBJ-N-FIL_13
1002
{
1000
OWNER
1000
GEN
1002
}
  0
LINE
  5
1FA2
  8
240
  6
CONTINUOUS
 10
-9.0000000000018172
 20
20.000000000002451
 30
0.0
 11
-9.0000000000018172
 21
26.49999999999654
 31
0.0
  0
LINE
  5
1FA3
  8
240
  6
CONTINUOUS
 10
-9.0000000000018172
 20
-20.000000000002451
 30
0.0
 11
-9.0000000000018172
 21
-26.499999999996561
 31
0.0
  0
TEXT
  5
2023
  8
250
  6
CONTINUOUS
 10
17.211951921361099
 20
-38.708410757454118
 30
0.0
 40
6.0
  1
üá
 50
90.0
  0
TEXT
  5
2024
  8
250
  6
CONTINUOUS
 10
17.211951921361099
 20
-31.565553614596979
 30
0.0
 40
6.0
  1
12
 50
90.0
  0
LINE
  5
2202
  8
244
  6
HIDDEN2
 10
24.999999999998181
 20
5.9999999999990878
 30
0.0
 11
39.999999999998167
 21
-6.0000000000009059
 31
0.0
  0
LINE
  5
2203
  8
244
  6
HIDDEN2
 10
24.999999999998181
 20
-6.0000000000009068
 30
0.0
 11
39.999999999998629
 21
5.9999999999990878
 31
0.0
  0
LINE
  5
22D0
  8
247
  6
CONTINUOUS
 10
8.9742360359850295
 20
-11.75000000000356
 30
0.0
 11
8.9742360359850863
 21
-7.1153846156735874
 31
0.0
  0
LINE
  5
22D1
  8
247
  6
CONTINUOUS
 10
6.4742360359850863
 20
-10.954893499991501
 30
0.0
 11
8.5742360359010945
 21
-11.557058810060919
 31
0.0
  0
LINE
  5
22D2
  8
247
  6
CONTINUOUS
 10
7.4703898820990844
 20
-10.32515140352259
 30
0.0
 11
7.4703898820990844
 21
-11.240536018870589
 31
0.0
  0
ARC
  5
22D3
  8
247
  6
CONTINUOUS
 10
6.858955103279186
 20
-10.087263401950359
 30
0.0
 40
0.3876715809326743
 50
72.997889675291987
 51
172.92416621851271
  0
ARC
  5
22D4
  8
247
  6
CONTINUOUS
 10
6.7794591670131004
 20
-10.382477556807659
 30
0.0
 40
0.693304796535877
 50
4.7429368522013968
 51
73.849226273266481
1001
GENIUS_GENOBJ-N-FIL_13
1002
{
1000
OWNER
1000
GEN
1002
}
1001
GENIUS_GENODEF_13
1002
{
1000
HIER
1070
     0
1002
}
1002
{
1000
MANEDIT
1070
     0
1002
}
1002
{
1000
NOSEL
1070
     0
1002
}
1002
{
1000
BEHIND
1070
     0
1002
}
1002
{
1000
OTHER
1070
     0
1002
}
1002
{
1000
REACTOR
1002
}
  0
LINE
  5
22D5
  8
247
  6
CONTINUOUS
 10
8.5742360359010945
 20
-10.641674194712911
 30
0.0
 11
8.5742360359010945
 21
-11.557058810060919
 31
0.0
  0
LINE
  5
22D6
  8
247
  6
CONTINUOUS
 10
6.4742360359850863
 20
-10.95489349999151
 30
0.0
 11
6.4742360359850863
 21
-10.039508884643499
 31
0.0
  0
ARC
  5
22D7
  8
247
  6
CONTINUOUS
 10
7.8616529987529571
 20
-10.37830647627039
 30
0.0
 40
0.394857301075386
 50
65.990941652528775
 51
172.2634434590698
  0
ARC
  5
22D8
  8
247
  6
CONTINUOUS
 10
7.8654363633176549
 20
-10.712446610430471
 30
0.0
 40
0.7123241612361686
 50
5.7019851642581454
 51
77.27733843682222
1001
GENIUS_GENOBJ-N-FIL_13
1002
{
1000
OWNER
1000
GEN
1002
}
1001
GENIUS_GENODEF_13
1002
{
1000
HIER
1070
     0
1002
}
1002
{
1000
MANEDIT
1070
     0
1002
}
1002
{
1000
NOSEL
1070
     0
1002
}
1002
{
1000
BEHIND
1070
     0
1002
}
1002
{
1000
OTHER
1070
     0
1002
}
1002
{
1000
REACTOR
1002
}
  0
LINE
  5
22D9
  8
247
  6
CONTINUOUS
 10
8.5742360359010945
 20
-9.6839818870669312
 30
0.0
 11
6.4742360359850863
 21
-9.0818165769975199
 31
0.0
  0
LINE
  5
22DA
  8
247
  6
CONTINUOUS
 10
6.4742360359850863
 20
-7.5856627309115181
 30
0.0
 11
6.4742360359850863
 21
-7.981678364307137
 31
0.0
  0
LINE
  5
22DB
  8
247
  6
CONTINUOUS
 10
8.5742360359010945
 20
-8.6087396539475201
 30
0.0
 11
8.5742360359010945
 21
-8.1779704231955286
 31
0.0
  0
ARC
  5
22DC
  8
247
  6
CONTINUOUS
 10
7.9325356310684461
 20
-7.3818165770735158
 30
0.0
 40
1.576855057639547
 50
202.35948814152749
 51
254.99324854284589
  0
ARC
  5
22DD
  8
247
  6
CONTINUOUS
 10
7.0400548945232231
 20
-7.8475113661367821
 30
0.0
 40
0.6234706797009447
 50
94.994589319075374
 51
155.16632895730319
1001
GENIUS_GENOBJ-N-FIL_13
1002
{
1000
OWNER
1000
GEN
1002
}
1001
GENIUS_GENODEF_13
1002
{
1000
HIER
1070
     0
1002
}
1002
{
1000
MANEDIT
1070
     0
1002
}
1002
{
1000
NOSEL
1070
     0
1002
}
1002
{
1000
BEHIND
1070
     0
1002
}
1002
{
1000
OTHER
1070
     0
1002
}
1002
{
1000
REACTOR
1002
}
  0
ARC
  5
22DE
  8
247
  6
CONTINUOUS
 10
7.6363381579545262
 20
-8.4441839510363312
 30
0.0
 40
0.9749472149106983
 50
15.846096555779839
 51
82.325137004169122
  0
ARC
  5
22DF
  8
247
  6
CONTINUOUS
 10
7.8457064379561521
 20
-8.0352116387757722
 30
0.0
 40
0.9271945638692009
 50
249.71360167049701
 51
321.7887456564099
1001
GENIUS_GENOBJ-N-FIL_13
1002
{
1000
OWNER
1000
GEN
1002
}
1001
GENIUS_GENODEF_13
1002
{
1000
HIER
1070
     0
1002
}
1002
{
1000
MANEDIT
1070
     0
1002
}
1002
{
1000
NOSEL
1070
     0
1002
}
1002
{
1000
BEHIND
1070
     0
1002
}
1002
{
1000
OTHER
1070
     0
1002
}
1002
{
1000
REACTOR
1002
}
  0
LINE
  5
22E0
  8
247
  6
CONTINUOUS
 10
7.7665437282410599
 20
-7.962585807819516
 30
0.0
 11
7.7665437282410599
 21
-7.477970423223522
 31
0.0
  0
ARC
  5
22E1
  8
247
  6
CONTINUOUS
 10
7.7242360359850863
 20
-11.75000000000356
 30
0.0
 40
1.25
 50
180.0
 51
0.0
  0
LINE
  5
22E2
  8
247
  6
CONTINUOUS
 10
6.4742360359850863
 20
-11.75000000000356
 30
0.0
 11
6.4742360359850863
 21
-11.30384615391756
 31
0.0
  0
ARC
  5
22E3
  8
247
  6
CONTINUOUS
 10
7.7242360359850863
 20
-7.1153846156735732
 30
0.0
 40
1.25
 50
0.0
 51
180.0
  0
VIEWPORT
  5
22
 67
     1
  8
0
 10
261.51769911504419
 20
148.5
 30
0.0
 40
523.0353982300885
 41
297.0
 68
     1
 69
     1
1001
ACAD
1000
MVIEW
1002
{
1070
    16
1010
0.0
1020
0.0
1030
0.0
1010
0.0
1020
0.0
1030
1.0
1040
0.0
1040
297.0
1040
261.51769911504419
1040
148.5
1040
50.0
1040
0.0
1040
0.0
1070
     0
1070
   100
1070
     1
1070
     1
1070
     0
1070
     0
1070
     0
1070
     0
1040
0.0
1040
0.0
1040
0.0
1040
1.0
1040
1.0
1040
10.0
1040
10.0
1070
     0
1002
{
1002
}
1002
}
1001
GENIUS_GENODEF_13
1002
{
1000
HIER
1070
     0
1002
}
1002
{
1000
MANEDIT
1070
     0
1002
}
1002
{
1000
NOSEL
1070
     0
1002
}
1002
{
1000
BEHIND
1070
     0
1002
}
1002
{
1000
OTHER
1070
     0
1002
}
1002
{
1000
REACTOR
1002
}
1001
GENIUS_GENOBJ-N-SDF_13
1002
{
1000
OWNER
1000
GEN
1002
}
1001
GENIUS_GENSCREG_15
1000
PF
1040
1.0
1000
DF
1040
1.0
1000
MIN
1011
0.0
1021
0.0
1031
0.0
1021
0.0
1031
0.0
1000
MAX
1011
523.0353982300885
1021
0.0
1031
0.0
1021
297.0
1031
0.0
1000
FLAGS
1070
     4
  0
ENDSEC
  0
EOF
