  0
SECTION
  2
HEADER
  9
$ACADVER
  1
AC1009
  9
$INSBASE
 10
0.0
 20
0.0
 30
0.0
  9
$EXTMIN
 10
-92.566831448673483
 20
-27.000000000010921
 30
0.0
  9
$EXTMAX
 10
111.2506308508774
 20
64.928571428571445
 30
0.0
  9
$LIMMIN
 10
0.0
 20
0.0
  9
$LIMMAX
 10
297.0
 20
210.0
  9
$ORTHOMODE
 70
     0
  9
$REGENMODE
 70
     1
  9
$FILLMODE
 70
     1
  9
$QTEXTMODE
 70
     0
  9
$MIRRTEXT
 70
     1
  9
$DRAGMODE
 70
     2
  9
$LTSCALE
 40
10.0
  9
$OSMODE
 70
    37
  9
$ATTMODE
 70
     1
  9
$TEXTSIZE
 40
3.0
  9
$TRACEWID
 40
1.0
  9
$TEXTSTYLE
  7
YOKO
  9
$CLAYER
  8
240
  9
$CELTYPE
  6
BYLAYER
  9
$CECOLOR
 62
   256
  9
$DIMSCALE
 40
1.0
  9
$DIMASZ
 40
2.2299999999999991
  9
$DIMEXO
 40
0.5
  9
$DIMDLI
 40
7.0
  9
$DIMRND
 40
0.0
  9
$DIMDLE
 40
0.0
  9
$DIMEXE
 40
1.0
  9
$DIMTP
 40
0.0
  9
$DIMTM
 40
0.01
  9
$DIMTXT
 40
2.7999999999999989
  9
$DIMCEN
 40
0.0
  9
$DIMTSZ
 40
0.0
  9
$DIMTOL
 70
     0
  9
$DIMLIM
 70
     0
  9
$DIMTIH
 70
     0
  9
$DIMTOH
 70
     0
  9
$DIMSE1
 70
     0
  9
$DIMSE2
 70
     0
  9
$DIMTAD
 70
     3
  9
$DIMZIN
 70
     9
  9
$DIMBLK
  1
OPEN
  9
$DIMASO
 70
     1
  9
$DIMSHO
 70
     1
  9
$DIMPOST
  1

  9
$DIMAPOST
  1

  9
$DIMALT
 70
     0
  9
$DIMALTD
 70
     2
  9
$DIMALTF
 40
25.399999999999999
  9
$DIMLFAC
 40
1.0
  9
$DIMTOFL
 70
     1
  9
$DIMTVP
 40
0.0
  9
$DIMTIX
 70
     1
  9
$DIMSOXD
 70
     0
  9
$DIMSAH
 70
     0
  9
$DIMBLK1
  1

  9
$DIMBLK2
  1

  9
$DIMSTYLE
  2
BIGT
  9
$DIMCLRD
 70
   256
  9
$DIMCLRE
 70
   256
  9
$DIMCLRT
 70
    40
  9
$DIMTFAC
 40
1.0
  9
$DIMGAP
 40
1.0
  9
$LUNITS
 70
     2
  9
$LUPREC
 70
     6
  9
$SKETCHINC
 40
1.0
  9
$FILLETRAD
 40
0.0
  9
$AUNITS
 70
     0
  9
$AUPREC
 70
     6
  9
$MENU
  1
.
  9
$ELEVATION
 40
0.0
  9
$PELEVATION
 40
0.0
  9
$THICKNESS
 40
0.0
  9
$LIMCHECK
 70
     0
  9
$BLIPMODE
 70
     0
  9
$CHAMFERA
 40
0.2
  9
$CHAMFERB
 40
0.2
  9
$SKPOLY
 70
     0
  9
$TDCREATE
 40
2458145.673797315
  9
$TDUPDATE
 40
2458148.5946006831
  9
$TDINDWG
 40
0.0534554861
  9
$TDUSRTIMER
 40
0.053455463
  9
$USRTIMER
 70
     1
  9
$ANGBASE
 50
0.0
  9
$ANGDIR
 70
     0
  9
$PDMODE
 70
     1
  9
$PDSIZE
 40
0.0
  9
$PLINEWID
 40
0.0
  9
$COORDS
 70
     1
  9
$SPLFRAME
 70
     0
  9
$SPLINETYPE
 70
     6
  9
$SPLINESEGS
 70
     4
  9
$ATTDIA
 70
     1
  9
$ATTREQ
 70
     1
  9
$HANDLING
 70
     1
  9
$HANDSEED
  5
4F2D
  9
$SURFTAB1
 70
     6
  9
$SURFTAB2
 70
     6
  9
$SURFTYPE
 70
     6
  9
$SURFU
 70
     6
  9
$SURFV
 70
     6
  9
$UCSNAME
  2

  9
$UCSORG
 10
0.0
 20
0.0
 30
0.0
  9
$UCSXDIR
 10
1.0
 20
0.0
 30
0.0
  9
$UCSYDIR
 10
0.0
 20
1.0
 30
0.0
  9
$PUCSNAME
  2

  9
$PUCSORG
 10
0.0
 20
0.0
 30
0.0
  9
$PUCSXDIR
 10
1.0
 20
0.0
 30
0.0
  9
$PUCSYDIR
 10
0.0
 20
1.0
 30
0.0
  9
$USERI1
 70
     1
  9
$USERI2
 70
     0
  9
$USERI3
 70
     0
  9
$USERI4
 70
     0
  9
$USERI5
 70
     0
  9
$USERR1
 40
0.0
  9
$USERR2
 40
0.0
  9
$USERR3
 40
0.0
  9
$USERR4
 40
0.0
  9
$USERR5
 40
0.0
  9
$WORLDVIEW
 70
     1
  9
$SHADEDGE
 70
     3
  9
$SHADEDIF
 70
    70
  9
$TILEMODE
 70
     1
  9
$MAXACTVP
 70
    16
  9
$PLIMCHECK
 70
     0
  9
$PEXTMIN
 10
1.0000000000000000E+020
 20
1.0000000000000000E+020
 30
1.0000000000000000E+020
  9
$PEXTMAX
 10
-1.0000000000000000E+020
 20
-1.0000000000000000E+020
 30
-1.0000000000000000E+020
  9
$PLIMMIN
 10
0.0
 20
0.0
  9
$PLIMMAX
 10
420.0
 20
297.0
  9
$UNITMODE
 70
     0
  9
$VISRETAIN
 70
     1
  9
$PLINEGEN
 70
     0
  9
$PSLTSCALE
 70
     1
  0
ENDSEC
  0
SECTION
  2
TABLES
  0
TABLE
  2
VPORT
 70
     1
  0
VPORT
  2
*ACTIVE
 70
     0
 10
0.0
 20
0.0
 11
1.0
 21
1.0
 12
27.150185585888661
 22
20.945038141521991
 13
0.0
 23
0.0
 14
7.0
 24
7.0
 15
7.0
 25
7.0
 16
0.0
 26
0.0
 36
1.0
 17
0.0
 27
0.0
 37
0.0
 40
178.6241493843213
 41
1.5644444444444441
 42
50.0
 43
0.0
 44
0.0
 50
0.0
 51
0.0
 71
     0
 72
  2000
 73
     1
 74
     0
 75
     0
 76
     1
 77
     0
 78
     0
  0
ENDTAB
  0
TABLE
  2
LTYPE
 70
    16
  0
LTYPE
  2
CONTINUOUS
 70
     0
  3
Solid line
 72
    65
 73
     0
 40
0.0
  0
LTYPE
  2
CENTER2
 70
     0
  3
___ _ ___ _ ___ _ ___ _ ___ _ ___ _ ___ _ ___ _
 72
    65
 73
     4
 40
1.125
 49
0.75
 49
-0.125
 49
0.125
 49
-0.125
  0
LTYPE
  2
HIDDEN2
 70
     0
  3
_ _ _ _ _ _ _ _ _ _ _ _ _ _ _ _ _ _ _ _ _ _ _ _
 72
    65
 73
     2
 40
0.1875
 49
0.125
 49
-0.0625
  0
LTYPE
  2
AM_ISO02W050
 70
     0
  3
__ __ __ __ __ __ __ __ __ __ __ __ __ __ __
 72
    65
 73
     2
 40
7.5
 49
6.0
 49
-1.5
  0
LTYPE
  2
AMCONSTR
 70
     0
  3
_______________________
 72
    65
 73
     2
 40
9999.0
 49
9999.0
 49
0.0
  0
LTYPE
  2
ACISOWELD
 70
     0
  3
_ _ _ _ _
 72
    65
 73
     2
 40
2.0
 49
2.0
 49
-1.0
  0
LTYPE
  2
ACISOTGB
 70
     0
  3
__ . . __ . .
 72
    65
 73
     6
 40
9.0
 49
4.0
 49
-1.0
 49
1.0
 49
-1.0
 49
1.0
 49
-1.0
  0
LTYPE
  2
ACISOTGL
 70
     0
  3
_ _ _ _ _
 72
    65
 73
     2
 40
3.0
 49
2.0
 49
-1.0
  0
LTYPE
  2
AM_ISO08W050
 70
     0
  3
____ . ____ . ____ . ____ . ____ . ____ . ____
 72
    65
 73
     4
 40
18.0
 49
12.0
 49
-1.5
 49
3.0
 49
-1.5
  0
LTYPE
  2
AM_ISO09W050
 70
     0
  3
_____ . . _____ . . _____ . . ____ .. ____
 72
    65
 73
     6
 40
22.5
 49
12.0
 49
-1.5
 49
3.0
 49
-1.5
 49
3.0
 49
-1.5
  0
LTYPE
  2
AM_ISO08W050X2
 70
     0
  3
__ . __ . __ . __ . __ . __
 72
    65
 73
     4
 40
9.0
 49
6.0
 49
-0.75
 49
1.5
 49
-0.75
  0
LTYPE
  2
AM_ISO02W050X2
 70
     0
  3
 _ _ _ _ _ _ _ _ _ _ _ _
 72
    65
 73
     2
 40
3.75
 49
3.0
 49
-0.75
  0
LTYPE
  2
AMZIGZAG
 70
     0
  3
/\/-/\/-/\/-/\/-/\/-/\/
 72
    65
 73
     2
 40
11.0001
 49
0.0001
 49
-11.0
  0
ENDTAB
  0
TABLE
  2
LAYER
 70
    11
  0
LAYER
  2
0
 70
     0
 62
     7
  6
CONTINUOUS
  0
LAYER
  2
DEFPOINTS
 70
     0
 62
     7
  6
CONTINUOUS
  0
LAYER
  2
245
 70
     0
 62
     2
  6
CENTER2
  0
LAYER
  2
240
 70
     0
 62
     4
  6
CONTINUOUS
  0
LAYER
  2
241
 70
     0
 62
   211
  6
CONTINUOUS
  0
LAYER
  2
242
 70
     0
 62
     3
  6
CONTINUOUS
  0
LAYER
  2
243
 70
     0
 62
   211
  6
HIDDEN2
  0
LAYER
  2
244
 70
     0
 62
     3
  6
HIDDEN2
  0
LAYER
  2
247
 70
     0
 62
    60
  6
CONTINUOUS
  0
LAYER
  2
250
 70
     0
 62
     3
  6
CONTINUOUS
  0
ENDTAB
  0
TABLE
  2
STYLE
 70
     5
  0
STYLE
  2
STANDARD
 70
     0
 40
0.0
 41
1.0
 50
0.0
 71
     0
 42
3.0
  3
romans.shx
  4
extfont.shx
  0
STYLE
  2
ACISOGDT
 70
     0
 40
0.0
 41
1.0
 50
0.0
 71
     0
 42
3.0
  3
amgdt.shx
  4
extfont.shx
  0
STYLE
  2
YOKO
 70
     0
 40
0.0
 41
1.0
 50
0.0
 71
     0
 42
3.0
  3
romans.shx
  4
extfont.shx
  0
STYLE
  2

 70
     1
 40
0.0
 41
1.0
 50
0.0
 71
     0
 42
3.0
  3
genltshp.shx
  4

  0
ENDTAB
  0
TABLE
  2
VIEW
 70
     0
  0
ENDTAB
  0
TABLE
  2
UCS
 70
     0
  0
ENDTAB
  0
TABLE
  2
APPID
 70
    40
  0
APPID
  2
ACAD
 70
     0
  0
APPID
  2
GLOBAL
 70
     0
  0
APPID
  2
DETAIL
 70
     0
  0
APPID
  2
GRPNAME
 70
     0
  0
APPID
  2
GPARA
 70
     0
  0
APPID
  2
MCAD_NO_VIS
 70
     0
  0
APPID
  2
ACAD_TEMP_GRAPHIC
 70
     0
  0
APPID
  2
ACATTRIBSERVICES
 70
     0
  0
APPID
  2
GENIUS_GENSCREG_15
 70
     0
  0
APPID
  2
GENIUS_GENODEF_13
 70
     0
  0
APPID
  2
GENIUS_GENOBJ-N-SDF_13
 70
     0
  0
APPID
  2
GENIUS_GENREC_14
 70
     0
  0
APPID
  2
GENIUS_GENOBJ-N-REC_13
 70
     0
  0
APPID
  2
GENIUS_GENDIMSH_14
 70
     0
  0
APPID
  2
GENIUS_GENOBJ-N-DIM_13
 70
     0
  0
APPID
  2
GENIUS_GENDIM_13
 70
     0
  0
APPID
  2
GENIUS_GENDTOL_13
 70
     0
  0
APPID
  2
GENIUS_GENOLIS_13
 70
     0
  0
APPID
  2
GENIUS_GENOENT_13
 70
     0
  0
APPID
  2
GENIUS_GENOBJ-F-FEM_13
 70
     0
  0
APPID
  2
GENIUS_GENOREF_13
 70
     0
  0
APPID
  2
GENIUS_GEFFEM_13
 70
     0
  0
APPID
  2
GENIUS_GEFFEMP_13
 70
     0
  0
APPID
  2
AD_DRAW
 70
     0
  0
APPID
  2
DESIGNERASSEMBLIES
 70
     0
  0
APPID
  2
ACADM_DIM_EDIT
 70
     0
  0
APPID
  2
AMDT_DM_ADJ
 70
     0
  0
APPID
  2
ITEMNAME
 70
     0
  0
APPID
  2
GENIUS_GENOBJ-N-FIL_13
 70
     0
  0
APPID
  2
GENIUS_GENFIL_13
 70
     0
  0
APPID
  2
GENIUS_GENOBJ-N-CHA_13
 70
     0
  0
APPID
  2
ACAECLAYERSTANDARD
 70
     0
  0
APPID
  2
ACAD_NAV_VCDISPLAY
 70
     0
  0
APPID
  2
GENIUS_GENOBJ-N-CRS_13
 70
     0
  0
APPID
  2
ACAD_PSEXT
 70
     0
  0
APPID
  2
ACAD_DSTYLE_DIMINSPECT
 70
     0
  0
APPID
  2
ACAD_EXEMPT_FROM_CAD_STANDARDS
 70
     0
  0
APPID
  2
ACAD_MLEADERVER
 70
     0
  0
APPID
  2
ACAD_DSTYLE_DIMBREAK
 70
     0
  0
APPID
  2
ACAD_DSTYLE_DIMJAG
 70
     0
  0
ENDTAB
  0
TABLE
  2
DIMSTYLE
 70
     8
  0
DIMSTYLE
  2
BIGT
 70
     0
  3

  4

  5
OPEN
  6

  7

 40
1.0
 41
2.2299999999999991
 42
0.5
 43
7.0
 44
1.0
 45
0.0
 46
0.0
 47
0.0
 48
0.01
140
2.7999999999999989
141
0.0
142
0.0
143
25.399999999999999
144
1.0
145
0.0
146
1.0
147
1.0
 71
     0
 72
     0
 73
     0
 74
     0
 75
     0
 76
     0
 77
     3
 78
     9
170
     0
171
     2
172
     1
173
     0
174
     1
175
     0
176
   256
177
   256
178
    40
  0
DIMSTYLE
  2
AM_ISO
 70
     0
  3

  4
"
  5

  6

  7

 40
1.0
 41
2.5
 42
1.0
 43
10.0
 44
1.0
 45
0.0
 46
0.0
 47
0.1
 48
0.1
140
3.5
141
0.0
142
0.0
143
0.0393701
144
1.0
145
0.0
146
0.71
147
1.5
 71
     0
 72
     0
 73
     0
 74
     0
 75
     0
 76
     0
 77
     1
 78
     8
170
     0
171
     2
172
     1
173
     0
174
     0
175
     0
176
   256
177
   256
178
     2
  0
DIMSTYLE
  2
AM_ISO$3
 70
     0
  3

  4
"
  5

  6

  7

 40
1.0
 41
2.5
 42
1.0
 43
10.0
 44
1.0
 45
0.0
 46
0.0
 47
0.1
 48
0.1
140
3.5
141
0.0
142
0.0
143
0.0393701
144
1.0
145
0.0
146
0.71
147
1.5
 71
     0
 72
     0
 73
     0
 74
     1
 75
     0
 76
     0
 77
     1
 78
     8
170
     0
171
     2
172
     0
173
     0
174
     0
175
     0
176
   256
177
   256
178
     2
  0
DIMSTYLE
  2
AM_ISO$4
 70
     0
  3

  4
"
  5

  6

  7

 40
1.0
 41
2.5
 42
1.0
 43
10.0
 44
1.0
 45
0.0
 46
0.0
 47
0.1
 48
0.1
140
3.5
141
0.0
142
0.0
143
0.0393701
144
1.0
145
0.0
146
0.71
147
1.5
 71
     0
 72
     0
 73
     0
 74
     1
 75
     0
 76
     0
 77
     1
 78
     8
170
     0
171
     2
172
     0
173
     0
174
     0
175
     0
176
   256
177
   256
178
     2
  0
DIMSTYLE
  2
AM_ISO$6
 70
     0
  3

  4
"
  5

  6

  7

 40
1.0
 41
2.5
 42
1.0
 43
10.0
 44
1.0
 45
0.0
 46
0.0
 47
0.1
 48
0.1
140
3.5
141
0.0
142
0.0
143
0.0393701
144
1.0
145
0.0
146
0.71
147
1.5
 71
     0
 72
     0
 73
     0
 74
     0
 75
     0
 76
     0
 77
     0
 78
     8
170
     0
171
     2
172
     1
173
     0
174
     0
175
     0
176
   256
177
   256
178
     2
  0
DIMSTYLE
  2
AM_ISO$7
 70
     0
  3

  4
"
  5

  6

  7

 40
1.0
 41
2.5
 42
1.0
 43
10.0
 44
1.0
 45
0.0
 46
0.0
 47
0.1
 48
0.1
140
5.0
141
0.0
142
0.0
143
0.0393701
144
1.0
145
0.0
146
0.71
147
1.5
 71
     0
 72
     0
 73
     0
 74
     0
 75
     0
 76
     0
 77
     1
 78
     8
170
     0
171
     2
172
     1
173
     0
174
     0
175
     0
176
   256
177
   256
178
     2
  0
DIMSTYLE
  2
AM_ISO$SF
 70
     0
  3

  4
"
  5

  6

  7

 40
1.0
 41
2.5
 42
1.0
 43
10.0
 44
1.0
 45
0.0
 46
0.0
 47
0.1
 48
0.1
140
3.5
141
0.0
142
0.0
143
0.0393701
144
1.0
145
0.0
146
0.71
147
1.5
 71
     0
 72
     0
 73
     0
 74
     0
 75
     1
 76
     1
 77
     1
 78
     8
170
     0
171
     2
172
     1
173
     0
174
     0
175
     0
176
   256
177
   256
178
     2
  0
DIMSTYLE
  2
AM_ISO$SH
 70
     0
  3

  4
"
  5

  6
GENAXEH
  7

 40
1.0
 41
2.5
 42
1.0
 43
10.0
 44
1.0
 45
0.0
 46
0.0
 47
0.1
 48
0.1
140
3.5
141
0.0
142
0.0
143
0.0393701
144
2.0
145
0.0
146
0.71
147
1.5
 71
     0
 72
     0
 73
     0
 74
     0
 75
     1
 76
     1
 77
     1
 78
     8
170
     0
171
     2
172
     1
173
     1
174
     0
175
     0
176
   256
177
   256
178
     2
  0
ENDTAB
  0
ENDSEC
  0
SECTION
  2
BLOCKS
  0
BLOCK
  8
0
  2
$MODEL_SPACE
 70
     0
 10
0.0
 20
0.0
 30
0.0
  3
$MODEL_SPACE
  1

  0
ENDBLK
  5
1C
  8
0
  0
BLOCK
 67
     1
  8
0
  2
$PAPER_SPACE
 70
     0
 10
0.0
 20
0.0
 30
0.0
  3
$PAPER_SPACE
  1

  0
ENDBLK
  5
19
 67
     1
  8
0
  0
BLOCK
  8
0
  2
_OPEN
 70
     0
 10
0.0
 20
0.0
 30
0.0
  3
_OPEN
  1

  0
LINE
  5
3E1A
  8
0
  6
BYBLOCK
 62
     0
 10
-1.0
 20
0.1666666666666666
 30
0.0
 11
0.0
 21
0.0
 31
0.0
  0
LINE
  5
3E1B
  8
0
  6
BYBLOCK
 62
     0
 10
-1.0
 20
-0.1666666666666666
 30
0.0
 11
0.0
 21
0.0
 31
0.0
  0
LINE
  5
3E1C
  8
0
  6
BYBLOCK
 62
     0
 10
0.0
 20
0.0
 30
0.0
 11
-1.0
 21
0.0
 31
0.0
  0
ENDBLK
  5
3E1D
  8
0
  0
BLOCK
  8
0
  2
GENAXEH
 70
     0
 10
0.0
 20
0.0
 30
0.0
  3
GENAXEH
  1

  0
LINE
  5
3E45
  8
0
 10
-1.0
 20
0.0
 30
0.0
 11
1.0
 21
0.0
 31
0.0
  0
ENDBLK
  5
3E46
  8
0
  0
ENDSEC
  0
SECTION
  2
ENTITIES
  0
TEXT
  5
44F0
  8
241
  6
CONTINUOUS
 10
-91.0
 20
56.0
 30
0.0
 40
7.5
  1
MGT36-AU7/8-2.5
  7
YOKO
  0
LINE
  5
451A
  8
240
  6
CONTINUOUS
 10
63.499999999992262
 20
-16.999999999992529
 30
0.0
 11
63.500000000007716
 21
16.999999999996231
 31
0.0
  0
LINE
  5
451B
  8
245
  6
CENTER2
 10
-92.566831448673483
 20
0.0
 30
0.0
 11
66.033353562681768
 21
0.0
 31
0.0
  0
LINE
  5
451F
  8
240
  6
CONTINUOUS
 10
3.4468189122858282
 20
17.000000000003851
 30
0.0
 11
63.500000000007716
 21
16.999999999996231
 31
0.0
  0
LINE
  5
4629
  8
240
  6
CONTINUOUS
 10
3.4468189122876312
 20
-17.000000000004409
 30
0.0
 11
63.499999999992262
 21
-16.999999999992529
 31
0.0
  0
LINE
  5
462D
  8
245
  6
CENTER2
 10
-66.000000000001819
 20
19.999999999979991
 30
0.0
 11
-66.000000000005471
 21
-20.000000000012729
 31
0.0
1001
GENIUS_GENOREF_13
1005
4774
  0
LINE
  5
462E
  8
241
  6
CONTINUOUS
 10
-9.0000000000018172
 20
-20.000000000018829
 30
0.0
 11
-9.0000000000018172
 21
19.999999999986091
 31
0.0
  0
LINE
  5
462F
  8
240
  6
CONTINUOUS
 10
-9.0000000000018172
 20
26.499999999980169
 30
0.0
 11
-7.6262612902781131
 21
26.999999999978169
 31
0.0
  0
LINE
  5
4630
  8
240
  6
CONTINUOUS
 10
-0.0000000000024679
 20
26.999999999978169
 30
0.0
 11
-7.6262612902781131
 21
26.999999999978169
 31
0.0
  0
LINE
  5
4631
  8
240
  6
CONTINUOUS
 10
-0.0000000000024679
 20
26.999999999978169
 30
0.0
 11
2.4808930859970202
 21
17.74118095490083
 31
0.0
  0
LINE
  5
4632
  8
240
  6
CONTINUOUS
 10
-51.500000000020009
 20
19.999999999983629
 30
0.0
 11
-9.0000000000018172
 21
19.999999999986091
 31
0.0
  0
LINE
  5
4633
  8
240
  6
CONTINUOUS
 10
-55.000000000020009
 20
16.499999999983629
 30
0.0
 11
-51.500000000020009
 21
19.999999999983629
 31
0.0
  0
LINE
  5
4634
  8
240
  6
CONTINUOUS
 10
-55.000000000020009
 20
16.499999999983629
 30
0.0
 11
-66.000000000005471
 21
16.499999999983629
 31
0.0
  0
LINE
  5
4635
  8
240
  6
CONTINUOUS
 10
-76.999999999987267
 20
16.49999999998181
 30
0.0
 11
-66.000000000001819
 21
16.499999999956341
 31
0.0
  0
LINE
  5
4636
  8
240
  6
CONTINUOUS
 10
-76.999999999987267
 20
16.49999999998181
 30
0.0
 11
-80.499999999990905
 21
19.99999999998181
 31
0.0
  0
LINE
  5
4637
  8
241
  6
CONTINUOUS
 10
-7.6262612902773981
 20
26.999999999977721
 30
0.0
 11
-7.6262612902773981
 21
-27.000000000010921
 31
0.0
  0
LINE
  5
4638
  8
240
  6
CONTINUOUS
 10
-9.0000000000018172
 20
-26.500000000012921
 30
0.0
 11
-7.6262612902780802
 21
-27.000000000010921
 31
0.0
  0
LINE
  5
4639
  8
240
  6
CONTINUOUS
 10
-0.0000000000018804
 20
-27.000000000010921
 30
0.0
 11
-7.6262612902780802
 21
-27.000000000010921
 31
0.0
  0
LINE
  5
463A
  8
240
  6
CONTINUOUS
 10
-0.0000000000018804
 20
-27.000000000010921
 30
0.0
 11
2.4808930859987002
 21
-17.741180954902109
 31
0.0
  0
LINE
  5
463B
  8
240
  6
CONTINUOUS
 10
-51.500000000020009
 20
-20.000000000016371
 30
0.0
 11
-9.0000000000018172
 21
-20.000000000018829
 31
0.0
  0
LINE
  5
463C
  8
240
  6
CONTINUOUS
 10
-55.000000000020009
 20
-16.500000000016371
 30
0.0
 11
-51.500000000020009
 21
-20.000000000016371
 31
0.0
  0
LINE
  5
463D
  8
240
  6
CONTINUOUS
 10
-55.000000000020009
 20
-16.500000000016371
 30
0.0
 11
-66.000000000005471
 21
-16.500000000016371
 31
0.0
  0
LINE
  5
463E
  8
240
  6
CONTINUOUS
 10
-76.999999999987267
 20
-16.500000000014541
 30
0.0
 11
-66.000000000001819
 21
-16.499999999989079
 31
0.0
  0
LINE
  5
463F
  8
240
  6
CONTINUOUS
 10
-76.999999999987267
 20
-16.500000000014541
 30
0.0
 11
-80.499999999990905
 21
-20.000000000014541
 31
0.0
  0
LINE
  5
4640
  8
241
  6
CONTINUOUS
 10
-0.0000000000018435
 20
-27.000000000010921
 30
0.0
 11
0.0000000000018435
 21
26.999999999978169
 31
0.0
  0
LINE
  5
4641
  8
241
  6
CONTINUOUS
 10
2.706286843553241
 20
16.899999999996911
 30
0.0
 11
2.706286843553241
 21
-16.899999999997359
 31
0.0
  0
LINE
  5
4751
  8
240
  6
CONTINUOUS
 10
-90.000000000002771
 20
19.999999999995449
 30
0.0
 11
-80.499999999995453
 21
19.999999999995449
 31
0.0
  0
LINE
  5
4752
  8
240
  6
CONTINUOUS
 10
-90.000000000000824
 20
-20.00000000000864
 30
0.0
 11
-90.000000000002771
 21
19.999999999995449
 31
0.0
  0
LINE
  5
4753
  8
240
  6
CONTINUOUS
 10
-90.000000000000824
 20
-20.00000000000864
 30
0.0
 11
-80.499999999995453
 21
-20.00000000000864
 31
0.0
  0
LINE
  5
4754
  8
241
  6
CONTINUOUS
 10
-45.000000000005457
 20
-20.00000000001674
 30
0.0
 11
-45.000000000001791
 21
19.999999999983999
 31
0.0
  0
LINE
  5
4755
  8
241
  6
CONTINUOUS
 10
-31.500000000001808
 20
-20.000000000017529
 30
0.0
 11
-31.500000000001808
 21
19.99999999998478
 31
0.0
  0
LINE
  5
4756
  8
241
  6
CONTINUOUS
 10
-42.500000000005457
 20
19.999999999984151
 30
0.0
 11
-42.500000000005457
 21
-20.00000000001689
 31
0.0
  0
LINE
  5
4757
  8
241
  6
CONTINUOUS
 10
-29.000000000005471
 20
19.999999999984919
 30
0.0
 11
-29.000000000005461
 21
-20.000000000017671
 31
0.0
  0
ARC
  5
4758
  8
240
  6
CONTINUOUS
 10
3.4468189122878261
 20
-18.000000000004398
 30
0.0
 40
1.0
 50
90.000000000011269
 51
165.00000000001279
1001
GENIUS_GENOBJ-N-FIL_13
1002
{
1000
OWNER
1000
GEN
1002
}
1001
GENIUS_GENODEF_13
1002
{
1000
HIER
1070
     0
1002
}
1002
{
1000
MANEDIT
1070
     0
1002
}
1002
{
1000
NOSEL
1070
     0
1002
}
1002
{
1000
BEHIND
1070
     0
1002
}
1002
{
1000
OTHER
1070
     0
1002
}
1002
{
1000
REACTOR
1002
}
  0
ARC
  5
4759
  8
240
  6
CONTINUOUS
 10
3.4468189122859552
 20
18.000000000003851
 30
0.0
 40
1.0
 50
195.00000000002959
 51
269.99999999999272
1001
GENIUS_GENOBJ-N-FIL_13
1002
{
1000
OWNER
1000
GEN
1002
}
1001
GENIUS_GENODEF_13
1002
{
1000
HIER
1070
     0
1002
}
1002
{
1000
MANEDIT
1070
     0
1002
}
1002
{
1000
NOSEL
1070
     0
1002
}
1002
{
1000
BEHIND
1070
     0
1002
}
1002
{
1000
OTHER
1070
     0
1002
}
1002
{
1000
REACTOR
1002
}
  0
LINE
  5
475A
  8
240
  6
CONTINUOUS
 10
-9.0000000000018172
 20
19.999999999986091
 30
0.0
 11
-9.0000000000018172
 21
26.499999999980169
 31
0.0
  0
LINE
  5
475B
  8
240
  6
CONTINUOUS
 10
-9.0000000000018172
 20
-20.000000000018829
 30
0.0
 11
-9.0000000000018172
 21
-26.500000000012921
 31
0.0
  0
LINE
  5
4760
  8
247
  6
CONTINUOUS
 10
7.7062868435531859
 20
-11.750000000003791
 30
0.0
 11
7.7062868435532428
 21
-7.1153846156738112
 31
0.0
  0
LINE
  5
4761
  8
247
  6
CONTINUOUS
 10
5.206286843553241
 20
-10.954893499991719
 30
0.0
 11
7.3062868434692509
 21
-11.55705881006114
 31
0.0
  0
LINE
  5
4762
  8
247
  6
CONTINUOUS
 10
6.202440689667239
 20
-10.32515140352281
 30
0.0
 11
6.202440689667239
 21
-11.24053601887082
 31
0.0
  0
ARC
  5
4763
  8
247
  6
CONTINUOUS
 10
5.5910059108473433
 20
-10.08726340195059
 30
0.0
 40
0.3876715809326743
 50
72.997889675291987
 51
172.92416621851271
  0
ARC
  5
4764
  8
247
  6
CONTINUOUS
 10
5.5115099745812559
 20
-10.38247755680789
 30
0.0
 40
0.6933047965358772
 50
4.7429368522014004
 51
73.849226273266481
1001
GENIUS_GENOBJ-N-FIL_13
1002
{
1000
OWNER
1000
GEN
1002
}
1001
GENIUS_GENODEF_13
1002
{
1000
HIER
1070
     0
1002
}
1002
{
1000
MANEDIT
1070
     0
1002
}
1002
{
1000
NOSEL
1070
     0
1002
}
1002
{
1000
BEHIND
1070
     0
1002
}
1002
{
1000
OTHER
1070
     0
1002
}
1002
{
1000
REACTOR
1002
}
  0
LINE
  5
4765
  8
247
  6
CONTINUOUS
 10
7.3062868434692509
 20
-10.64167419471314
 30
0.0
 11
7.3062868434692509
 21
-11.55705881006114
 31
0.0
  0
LINE
  5
4766
  8
247
  6
CONTINUOUS
 10
5.206286843553241
 20
-10.95489349999173
 30
0.0
 11
5.206286843553241
 21
-10.03950888464373
 31
0.0
  0
ARC
  5
4767
  8
247
  6
CONTINUOUS
 10
6.5937038063211171
 20
-10.378306476270611
 30
0.0
 40
0.394857301075386
 50
65.990941652528775
 51
172.2634434590698
  0
ARC
  5
4768
  8
247
  6
CONTINUOUS
 10
6.5974871708858132
 20
-10.712446610430691
 30
0.0
 40
0.7123241612361686
 50
5.7019851642581454
 51
77.27733843682222
1001
GENIUS_GENOBJ-N-FIL_13
1002
{
1000
OWNER
1000
GEN
1002
}
1001
GENIUS_GENODEF_13
1002
{
1000
HIER
1070
     0
1002
}
1002
{
1000
MANEDIT
1070
     0
1002
}
1002
{
1000
NOSEL
1070
     0
1002
}
1002
{
1000
BEHIND
1070
     0
1002
}
1002
{
1000
OTHER
1070
     0
1002
}
1002
{
1000
REACTOR
1002
}
  0
LINE
  5
4769
  8
247
  6
CONTINUOUS
 10
7.3062868434692509
 20
-9.683981887067155
 30
0.0
 11
5.206286843553241
 21
-9.0818165769977437
 31
0.0
  0
LINE
  5
476A
  8
247
  6
CONTINUOUS
 10
5.206286843553241
 20
-7.5856627309117419
 30
0.0
 11
5.206286843553241
 21
-7.9816783643073634
 31
0.0
  0
LINE
  5
476B
  8
247
  6
CONTINUOUS
 10
7.3062868434692509
 20
-8.6087396539477439
 30
0.0
 11
7.3062868434692509
 21
-8.1779704231957524
 31
0.0
  0
ARC
  5
476C
  8
247
  6
CONTINUOUS
 10
6.6645864386366052
 20
-7.3818165770737423
 30
0.0
 40
1.576855057639547
 50
202.35948814152749
 51
254.99324854284589
  0
ARC
  5
476D
  8
247
  6
CONTINUOUS
 10
5.7721057020913804
 20
-7.8475113661370051
 30
0.0
 40
0.6234706797009447
 50
94.994589319075374
 51
155.16632895730319
1001
GENIUS_GENOBJ-N-FIL_13
1002
{
1000
OWNER
1000
GEN
1002
}
1001
GENIUS_GENODEF_13
1002
{
1000
HIER
1070
     0
1002
}
1002
{
1000
MANEDIT
1070
     0
1002
}
1002
{
1000
NOSEL
1070
     0
1002
}
1002
{
1000
BEHIND
1070
     0
1002
}
1002
{
1000
OTHER
1070
     0
1002
}
1002
{
1000
REACTOR
1002
}
  0
ARC
  5
476E
  8
247
  6
CONTINUOUS
 10
6.3683889655226809
 20
-8.4441839510365568
 30
0.0
 40
0.9749472149106983
 50
15.846096555779839
 51
82.325137004169122
  0
ARC
  5
476F
  8
247
  6
CONTINUOUS
 10
6.5777572455243103
 20
-8.0352116387759942
 30
0.0
 40
0.9271945638692009
 50
249.71360167049701
 51
321.7887456564099
1001
GENIUS_GENOBJ-N-FIL_13
1002
{
1000
OWNER
1000
GEN
1002
}
1001
GENIUS_GENODEF_13
1002
{
1000
HIER
1070
     0
1002
}
1002
{
1000
MANEDIT
1070
     0
1002
}
1002
{
1000
NOSEL
1070
     0
1002
}
1002
{
1000
BEHIND
1070
     0
1002
}
1002
{
1000
OTHER
1070
     0
1002
}
1002
{
1000
REACTOR
1002
}
  0
LINE
  5
4770
  8
247
  6
CONTINUOUS
 10
6.4985945358092172
 20
-7.9625858078197398
 30
0.0
 11
6.4985945358092172
 21
-7.4779704232237441
 31
0.0
  0
ARC
  5
4771
  8
247
  6
CONTINUOUS
 10
6.456286843553241
 20
-11.750000000003791
 30
0.0
 40
1.25
 50
180.0
 51
0.0
  0
LINE
  5
4772
  8
247
  6
CONTINUOUS
 10
5.206286843553241
 20
-11.750000000003791
 30
0.0
 11
5.206286843553241
 21
-11.30384615391778
 31
0.0
  0
ARC
  5
4773
  8
247
  6
CONTINUOUS
 10
6.456286843553241
 20
-7.1153846156737961
 30
0.0
 40
1.25
 50
0.0
 51
180.0
  0
POINT
  5
4774
  8
0
 10
-15041.480041667361
 20
9982.2519074072497
 30
0.0
1001
GENIUS_GENOLIS_13
1002
{
1000
ENT
1005
0
1005
0
1005
462D
1005
0
1002
}
1001
GENIUS_GENOENT_13
1002
{
1000
MYREF
1005
4774
1002
}
1002
{
1000
GRP
1005
0
1002
}
1001
GENIUS_GENOBJ-N-CRS_13
1002
{
1000
OWNER
1000
GEN
1002
}
1001
GENIUS_GENODEF_13
1002
{
1000
HIER
1070
    10
1002
}
1002
{
1000
MANEDIT
1070
     1
1002
}
1002
{
1000
NOSEL
1070
     0
1002
}
1002
{
1000
BEHIND
1070
     0
1002
}
1002
{
1000
OTHER
1070
     0
1002
}
1002
{
1000
REACTOR
1002
}
  0
LINE
  5
479C
  8
243
  6
HIDDEN2
 10
35.500000000001563
 20
8.8520000000000181
 30
0.0
 11
35.500000000001442
 21
-8.8519999999999932
 31
0.0
  0
LINE
  5
479E
  8
243
  6
HIDDEN2
 10
63.500000000004
 20
8.8520000000000199
 30
0.0
 11
35.500000000001563
 21
8.8520000000000181
 31
0.0
  0
LINE
  5
479F
  8
243
  6
HIDDEN2
 10
63.499999999995957
 20
-8.8519999999999754
 30
0.0
 11
35.500000000001442
 21
-8.8519999999999932
 31
0.0
  0
LINE
  5
47A5
  8
243
  6
HIDDEN2
 10
14.50000000001344
 20
6.6899999999934598
 30
0.0
 11
14.500000000016019
 21
-6.6900000000080118
 31
0.0
1001
GRPNAME
1000
0000002L
  0
LINE
  5
47A6
  8
243
  6
HIDDEN2
 10
14.50000000001344
 20
6.6899999999934598
 30
0.0
 11
35.500000000001542
 21
6.6899999999934598
 31
0.0
  0
LINE
  5
47A7
  8
243
  6
HIDDEN2
 10
14.500000000016019
 20
-6.6900000000080118
 30
0.0
 11
35.50000000000145
 21
-6.6900000000080109
 31
0.0
  0
LINE
  5
47A9
  8
244
  6
HIDDEN2
 10
14.50000000001344
 20
6.6899999999934598
 30
0.0
 11
35.50000000000145
 21
-6.6068942319468809
 31
0.0
  0
LINE
  5
47AA
  8
244
  6
HIDDEN2
 10
14.500000000016019
 20
-6.6900000000080118
 30
0.0
 11
35.500000000001549
 21
6.6068944955681728
 31
0.0
  0
LINE
  5
47BB
  8
245
  6
CENTER2
 10
26.500000000000188
 20
5.0785768413171581
 30
0.0
 11
26.500000000000188
 21
-5.0177887119358502
 31
0.0
  0
CIRCLE
  5
47BC
  8
242
  6
CONTINUOUS
 10
26.500000000000188
 20
-0.0000000000011653
 30
0.0
 40
3.0
  0
CIRCLE
  5
47BD
  8
241
  6
CONTINUOUS
 10
26.500000000000188
 20
-0.0000000000011653
 30
0.0
 40
2.5
  0
LINE
  5
47CA
  8
241
  6
CONTINUOUS
 10
42.899999999957643
 20
16.99999999999806
 30
0.0
 11
42.89999999995765
 21
-16.9999999999966
 31
0.0
  0
LINE
  5
47CB
  8
241
  6
CONTINUOUS
 10
44.499999999963457
 20
16.999999999998121
 30
0.0
 11
44.499999999963457
 21
-16.999999999996291
 31
0.0
  0
LINE
  5
47CC
  8
241
  6
CONTINUOUS
 10
45.899999999957643
 20
16.999999999998209
 30
0.0
 11
45.89999999995765
 21
-16.99999999999601
 31
0.0
  0
LINE
  5
47CD
  8
241
  6
CONTINUOUS
 10
47.499999999963521
 20
16.999999999998121
 30
0.0
 11
47.499999999963293
 21
-16.999999999995691
 31
0.0
  0
LINE
  5
47CE
  8
241
  6
CONTINUOUS
 10
57.970849737798417
 20
16.999999999997979
 30
0.0
 11
57.970849737798417
 21
-16.999999999997382
 31
0.0
  0
LINE
  5
47CF
  8
241
  6
CONTINUOUS
 10
59.029150262218778
 20
16.999999999998629
 30
0.0
 11
59.029150262217243
 21
-16.999999999998408
 31
0.0
  0
POLYLINE
  5
49E7
  8
242
  6
CONTINUOUS
 10
50.500000000003311
 20
-11.83215956624454
 30
0.0
 66
     1
 70
     8
  0
VERTEX
  8
242
  5
4D25
 10
50.5000
 20
-11.8322
 30
0.000000
  70
    32
  0
VERTEX
  8
242
  5
4D26
 10
50.5036
 20
-11.7281
 30
0.000000
  70
    32
  0
VERTEX
  8
242
  5
4D27
 10
50.5144
 20
-11.6242
 30
0.000000
  70
    32
  0
VERTEX
  8
242
  5
4D28
 10
50.5325
 20
-11.5209
 30
0.000000
  70
    32
  0
VERTEX
  8
242
  5
4D29
 10
50.5576
 20
-11.4183
 30
0.000000
  70
    32
  0
VERTEX
  8
242
  5
4D2A
 10
50.5899
 20
-11.3167
 30
0.000000
  70
    32
  0
VERTEX
  8
242
  5
4D2B
 10
50.6292
 20
-11.2164
 30
0.000000
  70
    32
  0
VERTEX
  8
242
  5
4D2C
 10
50.6754
 20
-11.1175
 30
0.000000
  70
    32
  0
VERTEX
  8
242
  5
4D2D
 10
50.7284
 20
-11.0204
 30
0.000000
  70
    32
  0
VERTEX
  8
242
  5
4D2E
 10
50.7880
 20
-10.9252
 30
0.000000
  70
    32
  0
VERTEX
  8
242
  5
4D2F
 10
50.8542
 20
-10.8322
 30
0.000000
  70
    32
  0
VERTEX
  8
242
  5
4D30
 10
50.9268
 20
-10.7416
 30
0.000000
  70
    32
  0
VERTEX
  8
242
  5
4D31
 10
51.0056
 20
-10.6536
 30
0.000000
  70
    32
  0
VERTEX
  8
242
  5
4D32
 10
51.0904
 20
-10.5685
 30
0.000000
  70
    32
  0
VERTEX
  8
242
  5
4D33
 10
51.1810
 20
-10.4864
 30
0.000000
  70
    32
  0
VERTEX
  8
242
  5
4D34
 10
51.2771
 20
-10.4076
 30
0.000000
  70
    32
  0
VERTEX
  8
242
  5
4D35
 10
51.3787
 20
-10.3322
 30
0.000000
  70
    32
  0
VERTEX
  8
242
  5
4D36
 10
51.4853
 20
-10.2604
 30
0.000000
  70
    32
  0
VERTEX
  8
242
  5
4D37
 10
51.5968
 20
-10.1924
 30
0.000000
  70
    32
  0
VERTEX
  8
242
  5
4D38
 10
51.7129
 20
-10.1283
 30
0.000000
  70
    32
  0
VERTEX
  8
242
  5
4D39
 10
51.8333
 20
-10.0683
 30
0.000000
  70
    32
  0
VERTEX
  8
242
  5
4D3A
 10
51.9577
 20
-10.0126
 30
0.000000
  70
    32
  0
VERTEX
  8
242
  5
4D3B
 10
52.0858
 20
-9.96132
 30
0.000000
  70
    32
  0
VERTEX
  8
242
  5
4D3C
 10
52.2173
 20
-9.91451
 30
0.000000
  70
    32
  0
VERTEX
  8
242
  5
4D3D
 10
52.3519
 20
-9.87232
 30
0.000000
  70
    32
  0
VERTEX
  8
242
  5
4D3E
 10
52.4893
 20
-9.83484
 30
0.000000
  70
    32
  0
VERTEX
  8
242
  5
4D3F
 10
52.6291
 20
-9.80218
 30
0.000000
  70
    32
  0
VERTEX
  8
242
  5
4D40
 10
52.7711
 20
-9.77441
 30
0.000000
  70
    32
  0
VERTEX
  8
242
  5
4D41
 10
52.9147
 20
-9.75160
 30
0.000000
  70
    32
  0
VERTEX
  8
242
  5
4D42
 10
53.0598
 20
-9.73380
 30
0.000000
  70
    32
  0
VERTEX
  8
242
  5
4D43
 10
53.2059
 20
-9.72105
 30
0.000000
  70
    32
  0
VERTEX
  8
242
  5
4D44
 10
53.3528
 20
-9.71339
 30
0.000000
  70
    32
  0
VERTEX
  8
242
  5
4D45
 10
53.5000
 20
-9.71084
 30
0.000000
  70
    32
  0
VERTEX
  8
242
  5
4D46
 10
53.6472
 20
-9.71339
 30
0.000000
  70
    32
  0
VERTEX
  8
242
  5
4D47
 10
53.7941
 20
-9.72105
 30
0.000000
  70
    32
  0
VERTEX
  8
242
  5
4D48
 10
53.9402
 20
-9.73380
 30
0.000000
  70
    32
  0
VERTEX
  8
242
  5
4D49
 10
54.0853
 20
-9.75160
 30
0.000000
  70
    32
  0
VERTEX
  8
242
  5
4D4A
 10
54.2289
 20
-9.77441
 30
0.000000
  70
    32
  0
VERTEX
  8
242
  5
4D4B
 10
54.3709
 20
-9.80218
 30
0.000000
  70
    32
  0
VERTEX
  8
242
  5
4D4C
 10
54.5107
 20
-9.83484
 30
0.000000
  70
    32
  0
VERTEX
  8
242
  5
4D4D
 10
54.6481
 20
-9.87232
 30
0.000000
  70
    32
  0
VERTEX
  8
242
  5
4D4E
 10
54.7827
 20
-9.91451
 30
0.000000
  70
    32
  0
VERTEX
  8
242
  5
4D4F
 10
54.9142
 20
-9.96132
 30
0.000000
  70
    32
  0
VERTEX
  8
242
  5
4D50
 10
55.0423
 20
-10.0126
 30
0.000000
  70
    32
  0
VERTEX
  8
242
  5
4D51
 10
55.1667
 20
-10.0683
 30
0.000000
  70
    32
  0
VERTEX
  8
242
  5
4D52
 10
55.2871
 20
-10.1283
 30
0.000000
  70
    32
  0
VERTEX
  8
242
  5
4D53
 10
55.4032
 20
-10.1924
 30
0.000000
  70
    32
  0
VERTEX
  8
242
  5
4D54
 10
55.5147
 20
-10.2604
 30
0.000000
  70
    32
  0
VERTEX
  8
242
  5
4D55
 10
55.6213
 20
-10.3322
 30
0.000000
  70
    32
  0
VERTEX
  8
242
  5
4D56
 10
55.7229
 20
-10.4076
 30
0.000000
  70
    32
  0
VERTEX
  8
242
  5
4D57
 10
55.8190
 20
-10.4864
 30
0.000000
  70
    32
  0
VERTEX
  8
242
  5
4D58
 10
55.9096
 20
-10.5685
 30
0.000000
  70
    32
  0
VERTEX
  8
242
  5
4D59
 10
55.9944
 20
-10.6536
 30
0.000000
  70
    32
  0
VERTEX
  8
242
  5
4D5A
 10
56.0732
 20
-10.7416
 30
0.000000
  70
    32
  0
VERTEX
  8
242
  5
4D5B
 10
56.1458
 20
-10.8322
 30
0.000000
  70
    32
  0
VERTEX
  8
242
  5
4D5C
 10
56.2120
 20
-10.9252
 30
0.000000
  70
    32
  0
VERTEX
  8
242
  5
4D5D
 10
56.2716
 20
-11.0204
 30
0.000000
  70
    32
  0
VERTEX
  8
242
  5
4D5E
 10
56.3246
 20
-11.1175
 30
0.000000
  70
    32
  0
VERTEX
  8
242
  5
4D5F
 10
56.3708
 20
-11.2164
 30
0.000000
  70
    32
  0
VERTEX
  8
242
  5
4D60
 10
56.4101
 20
-11.3167
 30
0.000000
  70
    32
  0
VERTEX
  8
242
  5
4D61
 10
56.4424
 20
-11.4183
 30
0.000000
  70
    32
  0
VERTEX
  8
242
  5
4D62
 10
56.4675
 20
-11.5209
 30
0.000000
  70
    32
  0
VERTEX
  8
242
  5
4D63
 10
56.4856
 20
-11.6242
 30
0.000000
  70
    32
  0
VERTEX
  8
242
  5
4D64
 10
56.4964
 20
-11.7281
 30
0.000000
  70
    32
  0
VERTEX
  8
242
  5
4D65
 10
56.5000
 20
-11.8322
 30
0.000000
  70
    32
  0
VERTEX
  8
242
  5
4D66
 10
56.4964
 20
-11.9362
 30
0.000000
  70
    32
  0
VERTEX
  8
242
  5
4D67
 10
56.4856
 20
-12.0401
 30
0.000000
  70
    32
  0
VERTEX
  8
242
  5
4D68
 10
56.4675
 20
-12.1434
 30
0.000000
  70
    32
  0
VERTEX
  8
242
  5
4D69
 10
56.4424
 20
-12.2460
 30
0.000000
  70
    32
  0
VERTEX
  8
242
  5
4D6A
 10
56.4101
 20
-12.3476
 30
0.000000
  70
    32
  0
VERTEX
  8
242
  5
4D6B
 10
56.3708
 20
-12.4479
 30
0.000000
  70
    32
  0
VERTEX
  8
242
  5
4D6C
 10
56.3246
 20
-12.5468
 30
0.000000
  70
    32
  0
VERTEX
  8
242
  5
4D6D
 10
56.2716
 20
-12.6440
 30
0.000000
  70
    32
  0
VERTEX
  8
242
  5
4D6E
 10
56.2120
 20
-12.7391
 30
0.000000
  70
    32
  0
VERTEX
  8
242
  5
4D6F
 10
56.1458
 20
-12.8321
 30
0.000000
  70
    32
  0
VERTEX
  8
242
  5
4D70
 10
56.0732
 20
-12.9227
 30
0.000000
  70
    32
  0
VERTEX
  8
242
  5
4D71
 10
55.9944
 20
-13.0107
 30
0.000000
  70
    32
  0
VERTEX
  8
242
  5
4D72
 10
55.9096
 20
-13.0958
 30
0.000000
  70
    32
  0
VERTEX
  8
242
  5
4D73
 10
55.8190
 20
-13.1779
 30
0.000000
  70
    32
  0
VERTEX
  8
242
  5
4D74
 10
55.7229
 20
-13.2568
 30
0.000000
  70
    32
  0
VERTEX
  8
242
  5
4D75
 10
55.6213
 20
-13.3322
 30
0.000000
  70
    32
  0
VERTEX
  8
242
  5
4D76
 10
55.5147
 20
-13.4040
 30
0.000000
  70
    32
  0
VERTEX
  8
242
  5
4D77
 10
55.4032
 20
-13.4720
 30
0.000000
  70
    32
  0
VERTEX
  8
242
  5
4D78
 10
55.2871
 20
-13.5360
 30
0.000000
  70
    32
  0
VERTEX
  8
242
  5
4D79
 10
55.1667
 20
-13.5960
 30
0.000000
  70
    32
  0
VERTEX
  8
242
  5
4D7A
 10
55.0423
 20
-13.6517
 30
0.000000
  70
    32
  0
VERTEX
  8
242
  5
4D7B
 10
54.9142
 20
-13.7030
 30
0.000000
  70
    32
  0
VERTEX
  8
242
  5
4D7C
 10
54.7827
 20
-13.7498
 30
0.000000
  70
    32
  0
VERTEX
  8
242
  5
4D7D
 10
54.6481
 20
-13.7920
 30
0.000000
  70
    32
  0
VERTEX
  8
242
  5
4D7E
 10
54.5107
 20
-13.8295
 30
0.000000
  70
    32
  0
VERTEX
  8
242
  5
4D7F
 10
54.3709
 20
-13.8621
 30
0.000000
  70
    32
  0
VERTEX
  8
242
  5
4D80
 10
54.2289
 20
-13.8899
 30
0.000000
  70
    32
  0
VERTEX
  8
242
  5
4D81
 10
54.0853
 20
-13.9127
 30
0.000000
  70
    32
  0
VERTEX
  8
242
  5
4D82
 10
53.9402
 20
-13.9305
 30
0.000000
  70
    32
  0
VERTEX
  8
242
  5
4D83
 10
53.7941
 20
-13.9433
 30
0.000000
  70
    32
  0
VERTEX
  8
242
  5
4D84
 10
53.6472
 20
-13.9509
 30
0.000000
  70
    32
  0
VERTEX
  8
242
  5
4D85
 10
53.5000
 20
-13.9535
 30
0.000000
  70
    32
  0
VERTEX
  8
242
  5
4D86
 10
53.3528
 20
-13.9509
 30
0.000000
  70
    32
  0
VERTEX
  8
242
  5
4D87
 10
53.2059
 20
-13.9433
 30
0.000000
  70
    32
  0
VERTEX
  8
242
  5
4D88
 10
53.0598
 20
-13.9305
 30
0.000000
  70
    32
  0
VERTEX
  8
242
  5
4D89
 10
52.9147
 20
-13.9127
 30
0.000000
  70
    32
  0
VERTEX
  8
242
  5
4D8A
 10
52.7711
 20
-13.8899
 30
0.000000
  70
    32
  0
VERTEX
  8
242
  5
4D8B
 10
52.6291
 20
-13.8621
 30
0.000000
  70
    32
  0
VERTEX
  8
242
  5
4D8C
 10
52.4893
 20
-13.8295
 30
0.000000
  70
    32
  0
VERTEX
  8
242
  5
4D8D
 10
52.3519
 20
-13.7920
 30
0.000000
  70
    32
  0
VERTEX
  8
242
  5
4D8E
 10
52.2173
 20
-13.7498
 30
0.000000
  70
    32
  0
VERTEX
  8
242
  5
4D8F
 10
52.0858
 20
-13.7030
 30
0.000000
  70
    32
  0
VERTEX
  8
242
  5
4D90
 10
51.9577
 20
-13.6517
 30
0.000000
  70
    32
  0
VERTEX
  8
242
  5
4D91
 10
51.8333
 20
-13.5960
 30
0.000000
  70
    32
  0
VERTEX
  8
242
  5
4D92
 10
51.7129
 20
-13.5360
 30
0.000000
  70
    32
  0
VERTEX
  8
242
  5
4D93
 10
51.5968
 20
-13.4720
 30
0.000000
  70
    32
  0
VERTEX
  8
242
  5
4D94
 10
51.4853
 20
-13.4040
 30
0.000000
  70
    32
  0
VERTEX
  8
242
  5
4D95
 10
51.3787
 20
-13.3322
 30
0.000000
  70
    32
  0
VERTEX
  8
242
  5
4D96
 10
51.2771
 20
-13.2568
 30
0.000000
  70
    32
  0
VERTEX
  8
242
  5
4D97
 10
51.1810
 20
-13.1779
 30
0.000000
  70
    32
  0
VERTEX
  8
242
  5
4D98
 10
51.0904
 20
-13.0958
 30
0.000000
  70
    32
  0
VERTEX
  8
242
  5
4D99
 10
51.0056
 20
-13.0107
 30
0.000000
  70
    32
  0
VERTEX
  8
242
  5
4D9A
 10
50.9268
 20
-12.9227
 30
0.000000
  70
    32
  0
VERTEX
  8
242
  5
4D9B
 10
50.8542
 20
-12.8321
 30
0.000000
  70
    32
  0
VERTEX
  8
242
  5
4D9C
 10
50.7880
 20
-12.7391
 30
0.000000
  70
    32
  0
VERTEX
  8
242
  5
4D9D
 10
50.7284
 20
-12.6440
 30
0.000000
  70
    32
  0
VERTEX
  8
242
  5
4D9E
 10
50.6754
 20
-12.5468
 30
0.000000
  70
    32
  0
VERTEX
  8
242
  5
4D9F
 10
50.6292
 20
-12.4479
 30
0.000000
  70
    32
  0
VERTEX
  8
242
  5
4DA0
 10
50.5899
 20
-12.3476
 30
0.000000
  70
    32
  0
VERTEX
  8
242
  5
4DA1
 10
50.5576
 20
-12.2460
 30
0.000000
  70
    32
  0
VERTEX
  8
242
  5
4DA2
 10
50.5325
 20
-12.1434
 30
0.000000
  70
    32
  0
VERTEX
  8
242
  5
4DA3
 10
50.5144
 20
-12.0401
 30
0.000000
  70
    32
  0
VERTEX
  8
242
  5
4DA4
 10
50.5036
 20
-11.9362
 30
0.000000
  70
    32
  0
VERTEX
  8
242
  5
4DA5
 10
50.5000
 20
-11.8322
 30
0.000000
  70
    32
  0
SEQEND
  8
242
  5
4DA6
  0
POLYLINE
  5
49E8
  8
241
  6
CONTINUOUS
 10
51.000000000003311
 20
-11.890121950639202
 30
0.0
 66
     1
 70
     8
  0
VERTEX
  8
241
  5
4DA7
 10
51.0000
 20
-11.8901
 30
0.000000
  70
    32
  0
VERTEX
  8
241
  5
4DA8
 10
51.0030
 20
-11.8034
 30
0.000000
  70
    32
  0
VERTEX
  8
241
  5
4DA9
 10
51.0120
 20
-11.7169
 30
0.000000
  70
    32
  0
VERTEX
  8
241
  5
4DAA
 10
51.0271
 20
-11.6307
 30
0.000000
  70
    32
  0
VERTEX
  8
241
  5
4DAB
 10
51.0480
 20
-11.5452
 30
0.000000
  70
    32
  0
VERTEX
  8
241
  5
4DAC
 10
51.0749
 20
-11.4606
 30
0.000000
  70
    32
  0
VERTEX
  8
241
  5
4DAD
 10
51.1076
 20
-11.3770
 30
0.000000
  70
    32
  0
VERTEX
  8
241
  5
4DAE
 10
51.1461
 20
-11.2946
 30
0.000000
  70
    32
  0
VERTEX
  8
241
  5
4DAF
 10
51.1903
 20
-11.2136
 30
0.000000
  70
    32
  0
VERTEX
  8
241
  5
4DB0
 10
51.2400
 20
-11.1343
 30
0.000000
  70
    32
  0
VERTEX
  8
241
  5
4DB1
 10
51.2952
 20
-11.0568
 30
0.000000
  70
    32
  0
VERTEX
  8
241
  5
4DB2
 10
51.3557
 20
-10.9813
 30
0.000000
  70
    32
  0
VERTEX
  8
241
  5
4DB3
 10
51.4213
 20
-10.9080
 30
0.000000
  70
    32
  0
VERTEX
  8
241
  5
4DB4
 10
51.4920
 20
-10.8371
 30
0.000000
  70
    32
  0
VERTEX
  8
241
  5
4DB5
 10
51.5675
 20
-10.7687
 30
0.000000
  70
    32
  0
VERTEX
  8
241
  5
4DB6
 10
51.6476
 20
-10.7030
 30
0.000000
  70
    32
  0
VERTEX
  8
241
  5
4DB7
 10
51.7322
 20
-10.6401
 30
0.000000
  70
    32
  0
VERTEX
  8
241
  5
4DB8
 10
51.8211
 20
-10.5803
 30
0.000000
  70
    32
  0
VERTEX
  8
241
  5
4DB9
 10
51.9140
 20
-10.5236
 30
0.000000
  70
    32
  0
VERTEX
  8
241
  5
4DBA
 10
52.0108
 20
-10.4702
 30
0.000000
  70
    32
  0
VERTEX
  8
241
  5
4DBB
 10
52.1111
 20
-10.4203
 30
0.000000
  70
    32
  0
VERTEX
  8
241
  5
4DBC
 10
52.2147
 20
-10.3739
 30
0.000000
  70
    32
  0
VERTEX
  8
241
  5
4DBD
 10
52.3215
 20
-10.3311
 30
0.000000
  70
    32
  0
VERTEX
  8
241
  5
4DBE
 10
52.4311
 20
-10.2921
 30
0.000000
  70
    32
  0
VERTEX
  8
241
  5
4DBF
 10
52.5433
 20
-10.2569
 30
0.000000
  70
    32
  0
VERTEX
  8
241
  5
4DC0
 10
52.6578
 20
-10.2257
 30
0.000000
  70
    32
  0
VERTEX
  8
241
  5
4DC1
 10
52.7743
 20
-10.1985
 30
0.000000
  70
    32
  0
VERTEX
  8
241
  5
4DC2
 10
52.8925
 20
-10.1753
 30
0.000000
  70
    32
  0
VERTEX
  8
241
  5
4DC3
 10
53.0123
 20
-10.1563
 30
0.000000
  70
    32
  0
VERTEX
  8
241
  5
4DC4
 10
53.1332
 20
-10.1415
 30
0.000000
  70
    32
  0
VERTEX
  8
241
  5
4DC5
 10
53.2550
 20
-10.1309
 30
0.000000
  70
    32
  0
VERTEX
  8
241
  5
4DC6
 10
53.3773
 20
-10.1245
 30
0.000000
  70
    32
  0
VERTEX
  8
241
  5
4DC7
 10
53.5000
 20
-10.1224
 30
0.000000
  70
    32
  0
VERTEX
  8
241
  5
4DC8
 10
53.6227
 20
-10.1245
 30
0.000000
  70
    32
  0
VERTEX
  8
241
  5
4DC9
 10
53.7450
 20
-10.1309
 30
0.000000
  70
    32
  0
VERTEX
  8
241
  5
4DCA
 10
53.8668
 20
-10.1415
 30
0.000000
  70
    32
  0
VERTEX
  8
241
  5
4DCB
 10
53.9877
 20
-10.1563
 30
0.000000
  70
    32
  0
VERTEX
  8
241
  5
4DCC
 10
54.1075
 20
-10.1753
 30
0.000000
  70
    32
  0
VERTEX
  8
241
  5
4DCD
 10
54.2257
 20
-10.1985
 30
0.000000
  70
    32
  0
VERTEX
  8
241
  5
4DCE
 10
54.3422
 20
-10.2257
 30
0.000000
  70
    32
  0
VERTEX
  8
241
  5
4DCF
 10
54.4567
 20
-10.2569
 30
0.000000
  70
    32
  0
VERTEX
  8
241
  5
4DD0
 10
54.5689
 20
-10.2921
 30
0.000000
  70
    32
  0
VERTEX
  8
241
  5
4DD1
 10
54.6785
 20
-10.3311
 30
0.000000
  70
    32
  0
VERTEX
  8
241
  5
4DD2
 10
54.7853
 20
-10.3739
 30
0.000000
  70
    32
  0
VERTEX
  8
241
  5
4DD3
 10
54.8889
 20
-10.4203
 30
0.000000
  70
    32
  0
VERTEX
  8
241
  5
4DD4
 10
54.9892
 20
-10.4702
 30
0.000000
  70
    32
  0
VERTEX
  8
241
  5
4DD5
 10
55.0860
 20
-10.5236
 30
0.000000
  70
    32
  0
VERTEX
  8
241
  5
4DD6
 10
55.1789
 20
-10.5803
 30
0.000000
  70
    32
  0
VERTEX
  8
241
  5
4DD7
 10
55.2678
 20
-10.6401
 30
0.000000
  70
    32
  0
VERTEX
  8
241
  5
4DD8
 10
55.3524
 20
-10.7030
 30
0.000000
  70
    32
  0
VERTEX
  8
241
  5
4DD9
 10
55.4325
 20
-10.7687
 30
0.000000
  70
    32
  0
VERTEX
  8
241
  5
4DDA
 10
55.5080
 20
-10.8371
 30
0.000000
  70
    32
  0
VERTEX
  8
241
  5
4DDB
 10
55.5787
 20
-10.9080
 30
0.000000
  70
    32
  0
VERTEX
  8
241
  5
4DDC
 10
55.6443
 20
-10.9813
 30
0.000000
  70
    32
  0
VERTEX
  8
241
  5
4DDD
 10
55.7048
 20
-11.0568
 30
0.000000
  70
    32
  0
VERTEX
  8
241
  5
4DDE
 10
55.7600
 20
-11.1343
 30
0.000000
  70
    32
  0
VERTEX
  8
241
  5
4DDF
 10
55.8097
 20
-11.2136
 30
0.000000
  70
    32
  0
VERTEX
  8
241
  5
4DE0
 10
55.8539
 20
-11.2946
 30
0.000000
  70
    32
  0
VERTEX
  8
241
  5
4DE1
 10
55.8924
 20
-11.3770
 30
0.000000
  70
    32
  0
VERTEX
  8
241
  5
4DE2
 10
55.9251
 20
-11.4606
 30
0.000000
  70
    32
  0
VERTEX
  8
241
  5
4DE3
 10
55.9520
 20
-11.5452
 30
0.000000
  70
    32
  0
VERTEX
  8
241
  5
4DE4
 10
55.9729
 20
-11.6307
 30
0.000000
  70
    32
  0
VERTEX
  8
241
  5
4DE5
 10
55.9880
 20
-11.7169
 30
0.000000
  70
    32
  0
VERTEX
  8
241
  5
4DE6
 10
55.9970
 20
-11.8034
 30
0.000000
  70
    32
  0
VERTEX
  8
241
  5
4DE7
 10
56.0000
 20
-11.8901
 30
0.000000
  70
    32
  0
VERTEX
  8
241
  5
4DE8
 10
55.9970
 20
-11.9769
 30
0.000000
  70
    32
  0
VERTEX
  8
241
  5
4DE9
 10
55.9880
 20
-12.0634
 30
0.000000
  70
    32
  0
VERTEX
  8
241
  5
4DEA
 10
55.9729
 20
-12.1495
 30
0.000000
  70
    32
  0
VERTEX
  8
241
  5
4DEB
 10
55.9520
 20
-12.2350
 30
0.000000
  70
    32
  0
VERTEX
  8
241
  5
4DEC
 10
55.9251
 20
-12.3197
 30
0.000000
  70
    32
  0
VERTEX
  8
241
  5
4DED
 10
55.8924
 20
-12.4033
 30
0.000000
  70
    32
  0
VERTEX
  8
241
  5
4DEE
 10
55.8539
 20
-12.4857
 30
0.000000
  70
    32
  0
VERTEX
  8
241
  5
4DEF
 10
55.8097
 20
-12.5666
 30
0.000000
  70
    32
  0
VERTEX
  8
241
  5
4DF0
 10
55.7600
 20
-12.6459
 30
0.000000
  70
    32
  0
VERTEX
  8
241
  5
4DF1
 10
55.7048
 20
-12.7234
 30
0.000000
  70
    32
  0
VERTEX
  8
241
  5
4DF2
 10
55.6443
 20
-12.7989
 30
0.000000
  70
    32
  0
VERTEX
  8
241
  5
4DF3
 10
55.5787
 20
-12.8722
 30
0.000000
  70
    32
  0
VERTEX
  8
241
  5
4DF4
 10
55.5080
 20
-12.9432
 30
0.000000
  70
    32
  0
VERTEX
  8
241
  5
4DF5
 10
55.4325
 20
-13.0116
 30
0.000000
  70
    32
  0
VERTEX
  8
241
  5
4DF6
 10
55.3524
 20
-13.0773
 30
0.000000
  70
    32
  0
VERTEX
  8
241
  5
4DF7
 10
55.2678
 20
-13.1401
 30
0.000000
  70
    32
  0
VERTEX
  8
241
  5
4DF8
 10
55.1789
 20
-13.2000
 30
0.000000
  70
    32
  0
VERTEX
  8
241
  5
4DF9
 10
55.0860
 20
-13.2566
 30
0.000000
  70
    32
  0
VERTEX
  8
241
  5
4DFA
 10
54.9892
 20
-13.3100
 30
0.000000
  70
    32
  0
VERTEX
  8
241
  5
4DFB
 10
54.8889
 20
-13.3600
 30
0.000000
  70
    32
  0
VERTEX
  8
241
  5
4DFC
 10
54.7853
 20
-13.4064
 30
0.000000
  70
    32
  0
VERTEX
  8
241
  5
4DFD
 10
54.6785
 20
-13.4492
 30
0.000000
  70
    32
  0
VERTEX
  8
241
  5
4DFE
 10
54.5689
 20
-13.4882
 30
0.000000
  70
    32
  0
VERTEX
  8
241
  5
4DFF
 10
54.4567
 20
-13.5233
 30
0.000000
  70
    32
  0
VERTEX
  8
241
  5
4E00
 10
54.3422
 20
-13.5546
 30
0.000000
  70
    32
  0
VERTEX
  8
241
  5
4E01
 10
54.2257
 20
-13.5818
 30
0.000000
  70
    32
  0
VERTEX
  8
241
  5
4E02
 10
54.1075
 20
-13.6049
 30
0.000000
  70
    32
  0
VERTEX
  8
241
  5
4E03
 10
53.9877
 20
-13.6239
 30
0.000000
  70
    32
  0
VERTEX
  8
241
  5
4E04
 10
53.8668
 20
-13.6388
 30
0.000000
  70
    32
  0
VERTEX
  8
241
  5
4E05
 10
53.7450
 20
-13.6494
 30
0.000000
  70
    32
  0
VERTEX
  8
241
  5
4E06
 10
53.6227
 20
-13.6558
 30
0.000000
  70
    32
  0
VERTEX
  8
241
  5
4E07
 10
53.5000
 20
-13.6579
 30
0.000000
  70
    32
  0
VERTEX
  8
241
  5
4E08
 10
53.3773
 20
-13.6558
 30
0.000000
  70
    32
  0
VERTEX
  8
241
  5
4E09
 10
53.2550
 20
-13.6494
 30
0.000000
  70
    32
  0
VERTEX
  8
241
  5
4E0A
 10
53.1332
 20
-13.6388
 30
0.000000
  70
    32
  0
VERTEX
  8
241
  5
4E0B
 10
53.0123
 20
-13.6239
 30
0.000000
  70
    32
  0
VERTEX
  8
241
  5
4E0C
 10
52.8925
 20
-13.6049
 30
0.000000
  70
    32
  0
VERTEX
  8
241
  5
4E0D
 10
52.7743
 20
-13.5818
 30
0.000000
  70
    32
  0
VERTEX
  8
241
  5
4E0E
 10
52.6578
 20
-13.5546
 30
0.000000
  70
    32
  0
VERTEX
  8
241
  5
4E0F
 10
52.5433
 20
-13.5233
 30
0.000000
  70
    32
  0
VERTEX
  8
241
  5
4E10
 10
52.4311
 20
-13.4882
 30
0.000000
  70
    32
  0
VERTEX
  8
241
  5
4E11
 10
52.3215
 20
-13.4492
 30
0.000000
  70
    32
  0
VERTEX
  8
241
  5
4E12
 10
52.2147
 20
-13.4064
 30
0.000000
  70
    32
  0
VERTEX
  8
241
  5
4E13
 10
52.1111
 20
-13.3600
 30
0.000000
  70
    32
  0
VERTEX
  8
241
  5
4E14
 10
52.0108
 20
-13.3100
 30
0.000000
  70
    32
  0
VERTEX
  8
241
  5
4E15
 10
51.9140
 20
-13.2566
 30
0.000000
  70
    32
  0
VERTEX
  8
241
  5
4E16
 10
51.8211
 20
-13.2000
 30
0.000000
  70
    32
  0
VERTEX
  8
241
  5
4E17
 10
51.7322
 20
-13.1401
 30
0.000000
  70
    32
  0
VERTEX
  8
241
  5
4E18
 10
51.6476
 20
-13.0773
 30
0.000000
  70
    32
  0
VERTEX
  8
241
  5
4E19
 10
51.5675
 20
-13.0116
 30
0.000000
  70
    32
  0
VERTEX
  8
241
  5
4E1A
 10
51.4920
 20
-12.9432
 30
0.000000
  70
    32
  0
VERTEX
  8
241
  5
4E1B
 10
51.4213
 20
-12.8722
 30
0.000000
  70
    32
  0
VERTEX
  8
241
  5
4E1C
 10
51.3557
 20
-12.7989
 30
0.000000
  70
    32
  0
VERTEX
  8
241
  5
4E1D
 10
51.2952
 20
-12.7234
 30
0.000000
  70
    32
  0
VERTEX
  8
241
  5
4E1E
 10
51.2400
 20
-12.6459
 30
0.000000
  70
    32
  0
VERTEX
  8
241
  5
4E1F
 10
51.1903
 20
-12.5666
 30
0.000000
  70
    32
  0
VERTEX
  8
241
  5
4E20
 10
51.1461
 20
-12.4857
 30
0.000000
  70
    32
  0
VERTEX
  8
241
  5
4E21
 10
51.1076
 20
-12.4033
 30
0.000000
  70
    32
  0
VERTEX
  8
241
  5
4E22
 10
51.0749
 20
-12.3197
 30
0.000000
  70
    32
  0
VERTEX
  8
241
  5
4E23
 10
51.0480
 20
-12.2350
 30
0.000000
  70
    32
  0
VERTEX
  8
241
  5
4E24
 10
51.0271
 20
-12.1495
 30
0.000000
  70
    32
  0
VERTEX
  8
241
  5
4E25
 10
51.0120
 20
-12.0634
 30
0.000000
  70
    32
  0
VERTEX
  8
241
  5
4E26
 10
51.0030
 20
-11.9769
 30
0.000000
  70
    32
  0
VERTEX
  8
241
  5
4E27
 10
51.0000
 20
-11.8901
 30
0.000000
  70
    32
  0
SEQEND
  8
241
  5
4E28
  0
LINE
  5
49E9
  8
245
  6
CENTER2
 10
49.57526098217734
 20
-12.020815280205939
 30
0.0
 11
57.357065365211227
 21
-12.020815280206129
 31
0.0
  0
LINE
  5
49EA
  8
245
  6
CENTER2
 10
53.500000000003247
 20
-14.532413374682481
 30
0.0
 11
53.500000000003368
 21
-8.7722265919863673
 31
0.0
  0
LINE
  5
49EB
  8
245
  6
CENTER2
 10
53.500000000003652
 20
14.532413374681941
 30
0.0
 11
53.500000000003652
 21
8.7722265919858273
 31
0.0
  0
LINE
  5
49EC
  8
245
  6
CENTER2
 10
49.575260982177682
 20
12.020815280205509
 30
0.0
 11
57.357065365211561
 21
12.020815280205509
 31
0.0
  0
POLYLINE
  5
49ED
  8
241
  6
CONTINUOUS
 10
51.000000000003652
 20
11.890121950638729
 30
0.0
 66
     1
 70
     8
  0
VERTEX
  8
241
  5
4E29
 10
51.0000
 20
11.8901
 30
0.000000
  70
    32
  0
VERTEX
  8
241
  5
4E2A
 10
51.0030
 20
11.8034
 30
0.000000
  70
    32
  0
VERTEX
  8
241
  5
4E2B
 10
51.0120
 20
11.7169
 30
0.000000
  70
    32
  0
VERTEX
  8
241
  5
4E2C
 10
51.0271
 20
11.6307
 30
0.000000
  70
    32
  0
VERTEX
  8
241
  5
4E2D
 10
51.0480
 20
11.5452
 30
0.000000
  70
    32
  0
VERTEX
  8
241
  5
4E2E
 10
51.0749
 20
11.4606
 30
0.000000
  70
    32
  0
VERTEX
  8
241
  5
4E2F
 10
51.1076
 20
11.3770
 30
0.000000
  70
    32
  0
VERTEX
  8
241
  5
4E30
 10
51.1461
 20
11.2946
 30
0.000000
  70
    32
  0
VERTEX
  8
241
  5
4E31
 10
51.1903
 20
11.2136
 30
0.000000
  70
    32
  0
VERTEX
  8
241
  5
4E32
 10
51.2400
 20
11.1343
 30
0.000000
  70
    32
  0
VERTEX
  8
241
  5
4E33
 10
51.2952
 20
11.0568
 30
0.000000
  70
    32
  0
VERTEX
  8
241
  5
4E34
 10
51.3557
 20
10.9813
 30
0.000000
  70
    32
  0
VERTEX
  8
241
  5
4E35
 10
51.4213
 20
10.9080
 30
0.000000
  70
    32
  0
VERTEX
  8
241
  5
4E36
 10
51.4920
 20
10.8371
 30
0.000000
  70
    32
  0
VERTEX
  8
241
  5
4E37
 10
51.5675
 20
10.7687
 30
0.000000
  70
    32
  0
VERTEX
  8
241
  5
4E38
 10
51.6476
 20
10.7030
 30
0.000000
  70
    32
  0
VERTEX
  8
241
  5
4E39
 10
51.7322
 20
10.6401
 30
0.000000
  70
    32
  0
VERTEX
  8
241
  5
4E3A
 10
51.8211
 20
10.5803
 30
0.000000
  70
    32
  0
VERTEX
  8
241
  5
4E3B
 10
51.9140
 20
10.5236
 30
0.000000
  70
    32
  0
VERTEX
  8
241
  5
4E3C
 10
52.0108
 20
10.4702
 30
0.000000
  70
    32
  0
VERTEX
  8
241
  5
4E3D
 10
52.1111
 20
10.4203
 30
0.000000
  70
    32
  0
VERTEX
  8
241
  5
4E3E
 10
52.2147
 20
10.3739
 30
0.000000
  70
    32
  0
VERTEX
  8
241
  5
4E3F
 10
52.3215
 20
10.3311
 30
0.000000
  70
    32
  0
VERTEX
  8
241
  5
4E40
 10
52.4311
 20
10.2921
 30
0.000000
  70
    32
  0
VERTEX
  8
241
  5
4E41
 10
52.5433
 20
10.2569
 30
0.000000
  70
    32
  0
VERTEX
  8
241
  5
4E42
 10
52.6578
 20
10.2257
 30
0.000000
  70
    32
  0
VERTEX
  8
241
  5
4E43
 10
52.7743
 20
10.1985
 30
0.000000
  70
    32
  0
VERTEX
  8
241
  5
4E44
 10
52.8925
 20
10.1753
 30
0.000000
  70
    32
  0
VERTEX
  8
241
  5
4E45
 10
53.0123
 20
10.1563
 30
0.000000
  70
    32
  0
VERTEX
  8
241
  5
4E46
 10
53.1332
 20
10.1415
 30
0.000000
  70
    32
  0
VERTEX
  8
241
  5
4E47
 10
53.2550
 20
10.1309
 30
0.000000
  70
    32
  0
VERTEX
  8
241
  5
4E48
 10
53.3773
 20
10.1245
 30
0.000000
  70
    32
  0
VERTEX
  8
241
  5
4E49
 10
53.5000
 20
10.1224
 30
0.000000
  70
    32
  0
VERTEX
  8
241
  5
4E4A
 10
53.6227
 20
10.1245
 30
0.000000
  70
    32
  0
VERTEX
  8
241
  5
4E4B
 10
53.7450
 20
10.1309
 30
0.000000
  70
    32
  0
VERTEX
  8
241
  5
4E4C
 10
53.8668
 20
10.1415
 30
0.000000
  70
    32
  0
VERTEX
  8
241
  5
4E4D
 10
53.9877
 20
10.1563
 30
0.000000
  70
    32
  0
VERTEX
  8
241
  5
4E4E
 10
54.1075
 20
10.1753
 30
0.000000
  70
    32
  0
VERTEX
  8
241
  5
4E4F
 10
54.2257
 20
10.1985
 30
0.000000
  70
    32
  0
VERTEX
  8
241
  5
4E50
 10
54.3422
 20
10.2257
 30
0.000000
  70
    32
  0
VERTEX
  8
241
  5
4E51
 10
54.4567
 20
10.2569
 30
0.000000
  70
    32
  0
VERTEX
  8
241
  5
4E52
 10
54.5689
 20
10.2921
 30
0.000000
  70
    32
  0
VERTEX
  8
241
  5
4E53
 10
54.6785
 20
10.3311
 30
0.000000
  70
    32
  0
VERTEX
  8
241
  5
4E54
 10
54.7853
 20
10.3739
 30
0.000000
  70
    32
  0
VERTEX
  8
241
  5
4E55
 10
54.8889
 20
10.4203
 30
0.000000
  70
    32
  0
VERTEX
  8
241
  5
4E56
 10
54.9892
 20
10.4702
 30
0.000000
  70
    32
  0
VERTEX
  8
241
  5
4E57
 10
55.0860
 20
10.5236
 30
0.000000
  70
    32
  0
VERTEX
  8
241
  5
4E58
 10
55.1789
 20
10.5803
 30
0.000000
  70
    32
  0
VERTEX
  8
241
  5
4E59
 10
55.2678
 20
10.6401
 30
0.000000
  70
    32
  0
VERTEX
  8
241
  5
4E5A
 10
55.3524
 20
10.7030
 30
0.000000
  70
    32
  0
VERTEX
  8
241
  5
4E5B
 10
55.4325
 20
10.7687
 30
0.000000
  70
    32
  0
VERTEX
  8
241
  5
4E5C
 10
55.5080
 20
10.8371
 30
0.000000
  70
    32
  0
VERTEX
  8
241
  5
4E5D
 10
55.5787
 20
10.9080
 30
0.000000
  70
    32
  0
VERTEX
  8
241
  5
4E5E
 10
55.6443
 20
10.9813
 30
0.000000
  70
    32
  0
VERTEX
  8
241
  5
4E5F
 10
55.7048
 20
11.0568
 30
0.000000
  70
    32
  0
VERTEX
  8
241
  5
4E60
 10
55.7600
 20
11.1343
 30
0.000000
  70
    32
  0
VERTEX
  8
241
  5
4E61
 10
55.8097
 20
11.2136
 30
0.000000
  70
    32
  0
VERTEX
  8
241
  5
4E62
 10
55.8539
 20
11.2946
 30
0.000000
  70
    32
  0
VERTEX
  8
241
  5
4E63
 10
55.8924
 20
11.3770
 30
0.000000
  70
    32
  0
VERTEX
  8
241
  5
4E64
 10
55.9251
 20
11.4606
 30
0.000000
  70
    32
  0
VERTEX
  8
241
  5
4E65
 10
55.9520
 20
11.5452
 30
0.000000
  70
    32
  0
VERTEX
  8
241
  5
4E66
 10
55.9729
 20
11.6307
 30
0.000000
  70
    32
  0
VERTEX
  8
241
  5
4E67
 10
55.9880
 20
11.7169
 30
0.000000
  70
    32
  0
VERTEX
  8
241
  5
4E68
 10
55.9970
 20
11.8034
 30
0.000000
  70
    32
  0
VERTEX
  8
241
  5
4E69
 10
56.0000
 20
11.8901
 30
0.000000
  70
    32
  0
VERTEX
  8
241
  5
4E6A
 10
55.9970
 20
11.9769
 30
0.000000
  70
    32
  0
VERTEX
  8
241
  5
4E6B
 10
55.9880
 20
12.0634
 30
0.000000
  70
    32
  0
VERTEX
  8
241
  5
4E6C
 10
55.9729
 20
12.1495
 30
0.000000
  70
    32
  0
VERTEX
  8
241
  5
4E6D
 10
55.9520
 20
12.2350
 30
0.000000
  70
    32
  0
VERTEX
  8
241
  5
4E6E
 10
55.9251
 20
12.3197
 30
0.000000
  70
    32
  0
VERTEX
  8
241
  5
4E6F
 10
55.8924
 20
12.4033
 30
0.000000
  70
    32
  0
VERTEX
  8
241
  5
4E70
 10
55.8539
 20
12.4857
 30
0.000000
  70
    32
  0
VERTEX
  8
241
  5
4E71
 10
55.8097
 20
12.5666
 30
0.000000
  70
    32
  0
VERTEX
  8
241
  5
4E72
 10
55.7600
 20
12.6459
 30
0.000000
  70
    32
  0
VERTEX
  8
241
  5
4E73
 10
55.7048
 20
12.7234
 30
0.000000
  70
    32
  0
VERTEX
  8
241
  5
4E74
 10
55.6443
 20
12.7989
 30
0.000000
  70
    32
  0
VERTEX
  8
241
  5
4E75
 10
55.5787
 20
12.8722
 30
0.000000
  70
    32
  0
VERTEX
  8
241
  5
4E76
 10
55.5080
 20
12.9432
 30
0.000000
  70
    32
  0
VERTEX
  8
241
  5
4E77
 10
55.4325
 20
13.0116
 30
0.000000
  70
    32
  0
VERTEX
  8
241
  5
4E78
 10
55.3524
 20
13.0773
 30
0.000000
  70
    32
  0
VERTEX
  8
241
  5
4E79
 10
55.2678
 20
13.1401
 30
0.000000
  70
    32
  0
VERTEX
  8
241
  5
4E7A
 10
55.1789
 20
13.2000
 30
0.000000
  70
    32
  0
VERTEX
  8
241
  5
4E7B
 10
55.0860
 20
13.2566
 30
0.000000
  70
    32
  0
VERTEX
  8
241
  5
4E7C
 10
54.9892
 20
13.3100
 30
0.000000
  70
    32
  0
VERTEX
  8
241
  5
4E7D
 10
54.8889
 20
13.3600
 30
0.000000
  70
    32
  0
VERTEX
  8
241
  5
4E7E
 10
54.7853
 20
13.4064
 30
0.000000
  70
    32
  0
VERTEX
  8
241
  5
4E7F
 10
54.6785
 20
13.4492
 30
0.000000
  70
    32
  0
VERTEX
  8
241
  5
4E80
 10
54.5689
 20
13.4882
 30
0.000000
  70
    32
  0
VERTEX
  8
241
  5
4E81
 10
54.4567
 20
13.5233
 30
0.000000
  70
    32
  0
VERTEX
  8
241
  5
4E82
 10
54.3422
 20
13.5546
 30
0.000000
  70
    32
  0
VERTEX
  8
241
  5
4E83
 10
54.2257
 20
13.5818
 30
0.000000
  70
    32
  0
VERTEX
  8
241
  5
4E84
 10
54.1075
 20
13.6049
 30
0.000000
  70
    32
  0
VERTEX
  8
241
  5
4E85
 10
53.9877
 20
13.6239
 30
0.000000
  70
    32
  0
VERTEX
  8
241
  5
4E86
 10
53.8668
 20
13.6388
 30
0.000000
  70
    32
  0
VERTEX
  8
241
  5
4E87
 10
53.7450
 20
13.6494
 30
0.000000
  70
    32
  0
VERTEX
  8
241
  5
4E88
 10
53.6227
 20
13.6558
 30
0.000000
  70
    32
  0
VERTEX
  8
241
  5
4E89
 10
53.5000
 20
13.6579
 30
0.000000
  70
    32
  0
VERTEX
  8
241
  5
4E8A
 10
53.3773
 20
13.6558
 30
0.000000
  70
    32
  0
VERTEX
  8
241
  5
4E8B
 10
53.2550
 20
13.6494
 30
0.000000
  70
    32
  0
VERTEX
  8
241
  5
4E8C
 10
53.1332
 20
13.6388
 30
0.000000
  70
    32
  0
VERTEX
  8
241
  5
4E8D
 10
53.0123
 20
13.6239
 30
0.000000
  70
    32
  0
VERTEX
  8
241
  5
4E8E
 10
52.8925
 20
13.6049
 30
0.000000
  70
    32
  0
VERTEX
  8
241
  5
4E8F
 10
52.7743
 20
13.5818
 30
0.000000
  70
    32
  0
VERTEX
  8
241
  5
4E90
 10
52.6578
 20
13.5546
 30
0.000000
  70
    32
  0
VERTEX
  8
241
  5
4E91
 10
52.5433
 20
13.5233
 30
0.000000
  70
    32
  0
VERTEX
  8
241
  5
4E92
 10
52.4311
 20
13.4882
 30
0.000000
  70
    32
  0
VERTEX
  8
241
  5
4E93
 10
52.3215
 20
13.4492
 30
0.000000
  70
    32
  0
VERTEX
  8
241
  5
4E94
 10
52.2147
 20
13.4064
 30
0.000000
  70
    32
  0
VERTEX
  8
241
  5
4E95
 10
52.1111
 20
13.3600
 30
0.000000
  70
    32
  0
VERTEX
  8
241
  5
4E96
 10
52.0108
 20
13.3100
 30
0.000000
  70
    32
  0
VERTEX
  8
241
  5
4E97
 10
51.9140
 20
13.2566
 30
0.000000
  70
    32
  0
VERTEX
  8
241
  5
4E98
 10
51.8211
 20
13.2000
 30
0.000000
  70
    32
  0
VERTEX
  8
241
  5
4E99
 10
51.7322
 20
13.1401
 30
0.000000
  70
    32
  0
VERTEX
  8
241
  5
4E9A
 10
51.6476
 20
13.0773
 30
0.000000
  70
    32
  0
VERTEX
  8
241
  5
4E9B
 10
51.5675
 20
13.0116
 30
0.000000
  70
    32
  0
VERTEX
  8
241
  5
4E9C
 10
51.4920
 20
12.9432
 30
0.000000
  70
    32
  0
VERTEX
  8
241
  5
4E9D
 10
51.4213
 20
12.8722
 30
0.000000
  70
    32
  0
VERTEX
  8
241
  5
4E9E
 10
51.3557
 20
12.7989
 30
0.000000
  70
    32
  0
VERTEX
  8
241
  5
4E9F
 10
51.2952
 20
12.7234
 30
0.000000
  70
    32
  0
VERTEX
  8
241
  5
4EA0
 10
51.2400
 20
12.6459
 30
0.000000
  70
    32
  0
VERTEX
  8
241
  5
4EA1
 10
51.1903
 20
12.5666
 30
0.000000
  70
    32
  0
VERTEX
  8
241
  5
4EA2
 10
51.1461
 20
12.4857
 30
0.000000
  70
    32
  0
VERTEX
  8
241
  5
4EA3
 10
51.1076
 20
12.4033
 30
0.000000
  70
    32
  0
VERTEX
  8
241
  5
4EA4
 10
51.0749
 20
12.3197
 30
0.000000
  70
    32
  0
VERTEX
  8
241
  5
4EA5
 10
51.0480
 20
12.2350
 30
0.000000
  70
    32
  0
VERTEX
  8
241
  5
4EA6
 10
51.0271
 20
12.1495
 30
0.000000
  70
    32
  0
VERTEX
  8
241
  5
4EA7
 10
51.0120
 20
12.0634
 30
0.000000
  70
    32
  0
VERTEX
  8
241
  5
4EA8
 10
51.0030
 20
11.9769
 30
0.000000
  70
    32
  0
VERTEX
  8
241
  5
4EA9
 10
51.0000
 20
11.8901
 30
0.000000
  70
    32
  0
SEQEND
  8
241
  5
4EAA
  0
POLYLINE
  5
49EE
  8
242
  6
CONTINUOUS
 10
50.500000000003652
 20
11.83215956624408
 30
0.0
 66
     1
 70
     8
  0
VERTEX
  8
242
  5
4EAB
 10
50.5000
 20
11.8322
 30
0.000000
  70
    32
  0
VERTEX
  8
242
  5
4EAC
 10
50.5036
 20
11.7281
 30
0.000000
  70
    32
  0
VERTEX
  8
242
  5
4EAD
 10
50.5144
 20
11.6242
 30
0.000000
  70
    32
  0
VERTEX
  8
242
  5
4EAE
 10
50.5325
 20
11.5209
 30
0.000000
  70
    32
  0
VERTEX
  8
242
  5
4EAF
 10
50.5576
 20
11.4183
 30
0.000000
  70
    32
  0
VERTEX
  8
242
  5
4EB0
 10
50.5899
 20
11.3167
 30
0.000000
  70
    32
  0
VERTEX
  8
242
  5
4EB1
 10
50.6292
 20
11.2164
 30
0.000000
  70
    32
  0
VERTEX
  8
242
  5
4EB2
 10
50.6754
 20
11.1175
 30
0.000000
  70
    32
  0
VERTEX
  8
242
  5
4EB3
 10
50.7284
 20
11.0204
 30
0.000000
  70
    32
  0
VERTEX
  8
242
  5
4EB4
 10
50.7880
 20
10.9252
 30
0.000000
  70
    32
  0
VERTEX
  8
242
  5
4EB5
 10
50.8542
 20
10.8322
 30
0.000000
  70
    32
  0
VERTEX
  8
242
  5
4EB6
 10
50.9268
 20
10.7416
 30
0.000000
  70
    32
  0
VERTEX
  8
242
  5
4EB7
 10
51.0056
 20
10.6536
 30
0.000000
  70
    32
  0
VERTEX
  8
242
  5
4EB8
 10
51.0904
 20
10.5685
 30
0.000000
  70
    32
  0
VERTEX
  8
242
  5
4EB9
 10
51.1810
 20
10.4864
 30
0.000000
  70
    32
  0
VERTEX
  8
242
  5
4EBA
 10
51.2771
 20
10.4076
 30
0.000000
  70
    32
  0
VERTEX
  8
242
  5
4EBB
 10
51.3787
 20
10.3322
 30
0.000000
  70
    32
  0
VERTEX
  8
242
  5
4EBC
 10
51.4853
 20
10.2604
 30
0.000000
  70
    32
  0
VERTEX
  8
242
  5
4EBD
 10
51.5968
 20
10.1924
 30
0.000000
  70
    32
  0
VERTEX
  8
242
  5
4EBE
 10
51.7129
 20
10.1283
 30
0.000000
  70
    32
  0
VERTEX
  8
242
  5
4EBF
 10
51.8333
 20
10.0683
 30
0.000000
  70
    32
  0
VERTEX
  8
242
  5
4EC0
 10
51.9577
 20
10.0126
 30
0.000000
  70
    32
  0
VERTEX
  8
242
  5
4EC1
 10
52.0858
 20
9.96132
 30
0.000000
  70
    32
  0
VERTEX
  8
242
  5
4EC2
 10
52.2173
 20
9.91451
 30
0.000000
  70
    32
  0
VERTEX
  8
242
  5
4EC3
 10
52.3519
 20
9.87232
 30
0.000000
  70
    32
  0
VERTEX
  8
242
  5
4EC4
 10
52.4893
 20
9.83484
 30
0.000000
  70
    32
  0
VERTEX
  8
242
  5
4EC5
 10
52.6291
 20
9.80218
 30
0.000000
  70
    32
  0
VERTEX
  8
242
  5
4EC6
 10
52.7711
 20
9.77441
 30
0.000000
  70
    32
  0
VERTEX
  8
242
  5
4EC7
 10
52.9147
 20
9.75160
 30
0.000000
  70
    32
  0
VERTEX
  8
242
  5
4EC8
 10
53.0598
 20
9.73380
 30
0.000000
  70
    32
  0
VERTEX
  8
242
  5
4EC9
 10
53.2059
 20
9.72105
 30
0.000000
  70
    32
  0
VERTEX
  8
242
  5
4ECA
 10
53.3528
 20
9.71339
 30
0.000000
  70
    32
  0
VERTEX
  8
242
  5
4ECB
 10
53.5000
 20
9.71084
 30
0.000000
  70
    32
  0
VERTEX
  8
242
  5
4ECC
 10
53.6472
 20
9.71339
 30
0.000000
  70
    32
  0
VERTEX
  8
242
  5
4ECD
 10
53.7941
 20
9.72105
 30
0.000000
  70
    32
  0
VERTEX
  8
242
  5
4ECE
 10
53.9402
 20
9.73380
 30
0.000000
  70
    32
  0
VERTEX
  8
242
  5
4ECF
 10
54.0853
 20
9.75160
 30
0.000000
  70
    32
  0
VERTEX
  8
242
  5
4ED0
 10
54.2289
 20
9.77441
 30
0.000000
  70
    32
  0
VERTEX
  8
242
  5
4ED1
 10
54.3709
 20
9.80218
 30
0.000000
  70
    32
  0
VERTEX
  8
242
  5
4ED2
 10
54.5107
 20
9.83484
 30
0.000000
  70
    32
  0
VERTEX
  8
242
  5
4ED3
 10
54.6481
 20
9.87232
 30
0.000000
  70
    32
  0
VERTEX
  8
242
  5
4ED4
 10
54.7827
 20
9.91451
 30
0.000000
  70
    32
  0
VERTEX
  8
242
  5
4ED5
 10
54.9142
 20
9.96132
 30
0.000000
  70
    32
  0
VERTEX
  8
242
  5
4ED6
 10
55.0423
 20
10.0126
 30
0.000000
  70
    32
  0
VERTEX
  8
242
  5
4ED7
 10
55.1667
 20
10.0683
 30
0.000000
  70
    32
  0
VERTEX
  8
242
  5
4ED8
 10
55.2871
 20
10.1283
 30
0.000000
  70
    32
  0
VERTEX
  8
242
  5
4ED9
 10
55.4032
 20
10.1924
 30
0.000000
  70
    32
  0
VERTEX
  8
242
  5
4EDA
 10
55.5147
 20
10.2604
 30
0.000000
  70
    32
  0
VERTEX
  8
242
  5
4EDB
 10
55.6213
 20
10.3322
 30
0.000000
  70
    32
  0
VERTEX
  8
242
  5
4EDC
 10
55.7229
 20
10.4076
 30
0.000000
  70
    32
  0
VERTEX
  8
242
  5
4EDD
 10
55.8190
 20
10.4864
 30
0.000000
  70
    32
  0
VERTEX
  8
242
  5
4EDE
 10
55.9096
 20
10.5685
 30
0.000000
  70
    32
  0
VERTEX
  8
242
  5
4EDF
 10
55.9944
 20
10.6536
 30
0.000000
  70
    32
  0
VERTEX
  8
242
  5
4EE0
 10
56.0732
 20
10.7416
 30
0.000000
  70
    32
  0
VERTEX
  8
242
  5
4EE1
 10
56.1458
 20
10.8322
 30
0.000000
  70
    32
  0
VERTEX
  8
242
  5
4EE2
 10
56.2120
 20
10.9252
 30
0.000000
  70
    32
  0
VERTEX
  8
242
  5
4EE3
 10
56.2716
 20
11.0204
 30
0.000000
  70
    32
  0
VERTEX
  8
242
  5
4EE4
 10
56.3246
 20
11.1175
 30
0.000000
  70
    32
  0
VERTEX
  8
242
  5
4EE5
 10
56.3708
 20
11.2164
 30
0.000000
  70
    32
  0
VERTEX
  8
242
  5
4EE6
 10
56.4101
 20
11.3167
 30
0.000000
  70
    32
  0
VERTEX
  8
242
  5
4EE7
 10
56.4424
 20
11.4183
 30
0.000000
  70
    32
  0
VERTEX
  8
242
  5
4EE8
 10
56.4675
 20
11.5209
 30
0.000000
  70
    32
  0
VERTEX
  8
242
  5
4EE9
 10
56.4856
 20
11.6242
 30
0.000000
  70
    32
  0
VERTEX
  8
242
  5
4EEA
 10
56.4964
 20
11.7281
 30
0.000000
  70
    32
  0
VERTEX
  8
242
  5
4EEB
 10
56.5000
 20
11.8322
 30
0.000000
  70
    32
  0
VERTEX
  8
242
  5
4EEC
 10
56.4964
 20
11.9362
 30
0.000000
  70
    32
  0
VERTEX
  8
242
  5
4EED
 10
56.4856
 20
12.0401
 30
0.000000
  70
    32
  0
VERTEX
  8
242
  5
4EEE
 10
56.4675
 20
12.1434
 30
0.000000
  70
    32
  0
VERTEX
  8
242
  5
4EEF
 10
56.4424
 20
12.2460
 30
0.000000
  70
    32
  0
VERTEX
  8
242
  5
4EF0
 10
56.4101
 20
12.3476
 30
0.000000
  70
    32
  0
VERTEX
  8
242
  5
4EF1
 10
56.3708
 20
12.4479
 30
0.000000
  70
    32
  0
VERTEX
  8
242
  5
4EF2
 10
56.3246
 20
12.5468
 30
0.000000
  70
    32
  0
VERTEX
  8
242
  5
4EF3
 10
56.2716
 20
12.6440
 30
0.000000
  70
    32
  0
VERTEX
  8
242
  5
4EF4
 10
56.2120
 20
12.7391
 30
0.000000
  70
    32
  0
VERTEX
  8
242
  5
4EF5
 10
56.1458
 20
12.8321
 30
0.000000
  70
    32
  0
VERTEX
  8
242
  5
4EF6
 10
56.0732
 20
12.9227
 30
0.000000
  70
    32
  0
VERTEX
  8
242
  5
4EF7
 10
55.9944
 20
13.0107
 30
0.000000
  70
    32
  0
VERTEX
  8
242
  5
4EF8
 10
55.9096
 20
13.0958
 30
0.000000
  70
    32
  0
VERTEX
  8
242
  5
4EF9
 10
55.8190
 20
13.1779
 30
0.000000
  70
    32
  0
VERTEX
  8
242
  5
4EFA
 10
55.7229
 20
13.2568
 30
0.000000
  70
    32
  0
VERTEX
  8
242
  5
4EFB
 10
55.6213
 20
13.3322
 30
0.000000
  70
    32
  0
VERTEX
  8
242
  5
4EFC
 10
55.5147
 20
13.4040
 30
0.000000
  70
    32
  0
VERTEX
  8
242
  5
4EFD
 10
55.4032
 20
13.4720
 30
0.000000
  70
    32
  0
VERTEX
  8
242
  5
4EFE
 10
55.2871
 20
13.5360
 30
0.000000
  70
    32
  0
VERTEX
  8
242
  5
4EFF
 10
55.1667
 20
13.5960
 30
0.000000
  70
    32
  0
VERTEX
  8
242
  5
4F00
 10
55.0423
 20
13.6517
 30
0.000000
  70
    32
  0
VERTEX
  8
242
  5
4F01
 10
54.9142
 20
13.7030
 30
0.000000
  70
    32
  0
VERTEX
  8
242
  5
4F02
 10
54.7827
 20
13.7498
 30
0.000000
  70
    32
  0
VERTEX
  8
242
  5
4F03
 10
54.6481
 20
13.7920
 30
0.000000
  70
    32
  0
VERTEX
  8
242
  5
4F04
 10
54.5107
 20
13.8295
 30
0.000000
  70
    32
  0
VERTEX
  8
242
  5
4F05
 10
54.3709
 20
13.8621
 30
0.000000
  70
    32
  0
VERTEX
  8
242
  5
4F06
 10
54.2289
 20
13.8899
 30
0.000000
  70
    32
  0
VERTEX
  8
242
  5
4F07
 10
54.0853
 20
13.9127
 30
0.000000
  70
    32
  0
VERTEX
  8
242
  5
4F08
 10
53.9402
 20
13.9305
 30
0.000000
  70
    32
  0
VERTEX
  8
242
  5
4F09
 10
53.7941
 20
13.9433
 30
0.000000
  70
    32
  0
VERTEX
  8
242
  5
4F0A
 10
53.6472
 20
13.9509
 30
0.000000
  70
    32
  0
VERTEX
  8
242
  5
4F0B
 10
53.5000
 20
13.9535
 30
0.000000
  70
    32
  0
VERTEX
  8
242
  5
4F0C
 10
53.3528
 20
13.9509
 30
0.000000
  70
    32
  0
VERTEX
  8
242
  5
4F0D
 10
53.2059
 20
13.9433
 30
0.000000
  70
    32
  0
VERTEX
  8
242
  5
4F0E
 10
53.0598
 20
13.9305
 30
0.000000
  70
    32
  0
VERTEX
  8
242
  5
4F0F
 10
52.9147
 20
13.9127
 30
0.000000
  70
    32
  0
VERTEX
  8
242
  5
4F10
 10
52.7711
 20
13.8899
 30
0.000000
  70
    32
  0
VERTEX
  8
242
  5
4F11
 10
52.6291
 20
13.8621
 30
0.000000
  70
    32
  0
VERTEX
  8
242
  5
4F12
 10
52.4893
 20
13.8295
 30
0.000000
  70
    32
  0
VERTEX
  8
242
  5
4F13
 10
52.3519
 20
13.7920
 30
0.000000
  70
    32
  0
VERTEX
  8
242
  5
4F14
 10
52.2173
 20
13.7498
 30
0.000000
  70
    32
  0
VERTEX
  8
242
  5
4F15
 10
52.0858
 20
13.7030
 30
0.000000
  70
    32
  0
VERTEX
  8
242
  5
4F16
 10
51.9577
 20
13.6517
 30
0.000000
  70
    32
  0
VERTEX
  8
242
  5
4F17
 10
51.8333
 20
13.5960
 30
0.000000
  70
    32
  0
VERTEX
  8
242
  5
4F18
 10
51.7129
 20
13.5360
 30
0.000000
  70
    32
  0
VERTEX
  8
242
  5
4F19
 10
51.5968
 20
13.4720
 30
0.000000
  70
    32
  0
VERTEX
  8
242
  5
4F1A
 10
51.4853
 20
13.4040
 30
0.000000
  70
    32
  0
VERTEX
  8
242
  5
4F1B
 10
51.3787
 20
13.3322
 30
0.000000
  70
    32
  0
VERTEX
  8
242
  5
4F1C
 10
51.2771
 20
13.2568
 30
0.000000
  70
    32
  0
VERTEX
  8
242
  5
4F1D
 10
51.1810
 20
13.1779
 30
0.000000
  70
    32
  0
VERTEX
  8
242
  5
4F1E
 10
51.0904
 20
13.0958
 30
0.000000
  70
    32
  0
VERTEX
  8
242
  5
4F1F
 10
51.0056
 20
13.0107
 30
0.000000
  70
    32
  0
VERTEX
  8
242
  5
4F20
 10
50.9268
 20
12.9227
 30
0.000000
  70
    32
  0
VERTEX
  8
242
  5
4F21
 10
50.8542
 20
12.8321
 30
0.000000
  70
    32
  0
VERTEX
  8
242
  5
4F22
 10
50.7880
 20
12.7391
 30
0.000000
  70
    32
  0
VERTEX
  8
242
  5
4F23
 10
50.7284
 20
12.6440
 30
0.000000
  70
    32
  0
VERTEX
  8
242
  5
4F24
 10
50.6754
 20
12.5468
 30
0.000000
  70
    32
  0
VERTEX
  8
242
  5
4F25
 10
50.6292
 20
12.4479
 30
0.000000
  70
    32
  0
VERTEX
  8
242
  5
4F26
 10
50.5899
 20
12.3476
 30
0.000000
  70
    32
  0
VERTEX
  8
242
  5
4F27
 10
50.5576
 20
12.2460
 30
0.000000
  70
    32
  0
VERTEX
  8
242
  5
4F28
 10
50.5325
 20
12.1434
 30
0.000000
  70
    32
  0
VERTEX
  8
242
  5
4F29
 10
50.5144
 20
12.0401
 30
0.000000
  70
    32
  0
VERTEX
  8
242
  5
4F2A
 10
50.5036
 20
11.9362
 30
0.000000
  70
    32
  0
VERTEX
  8
242
  5
4F2B
 10
50.5000
 20
11.8322
 30
0.000000
  70
    32
  0
SEQEND
  8
242
  5
4F2C
  0
LINE
  5
49EF
  8
250
  6
CONTINUOUS
 10
-0.0000000000024679
 20
27.499999999978169
 30
0.0
 11
-0.0000000000024669
 21
43.0
 31
0.0
  0
LINE
  5
49F0
  8
250
  6
CONTINUOUS
 10
63.500000000007716
 20
17.499999999996231
 30
0.0
 11
63.500000000007716
 21
43.0
 31
0.0
  0
LINE
  5
49F1
  8
250
  6
CONTINUOUS
 10
2.2299999999975331
 20
42.0
 30
0.0
 11
61.27000000000772
 21
42.0
 31
0.0
  0
LINE
  5
49F5
  8
250
  6
CONTINUOUS
 10
64.000000000003993
 20
8.8520000000000199
 30
0.0
 11
78.0
 21
8.8520000000000163
 31
0.0
  0
LINE
  5
49F6
  8
250
  6
CONTINUOUS
 10
63.999999999995971
 20
-8.8519999999999754
 30
0.0
 11
78.0
 21
-8.8519999999999772
 31
0.0
  0
LINE
  5
49F7
  8
250
  6
CONTINUOUS
 10
77.0
 20
6.6220000000000159
 30
0.0
 11
77.0
 21
-6.6219999999999768
 31
0.0
  0
LINE
  5
49FB
  8
250
  6
CONTINUOUS
 10
64.000000000007702
 20
16.999999999996231
 30
0.0
 11
85.0
 21
16.999999999996231
 31
0.0
  0
LINE
  5
49FC
  8
250
  6
CONTINUOUS
 10
63.999999999992269
 20
-16.999999999992529
 30
0.0
 11
85.0
 21
-16.999999999992529
 31
0.0
  0
LINE
  5
49FD
  8
250
  6
CONTINUOUS
 10
84.0
 20
14.76999999999623
 30
0.0
 11
84.0
 21
-14.76999999999253
 31
0.0
  0
LINE
  5
4A01
  8
250
  6
CONTINUOUS
 10
14.00000000001344
 20
6.6899999999934598
 30
0.0
 11
10.79075772083025
 21
6.6899999999934607
 31
0.0
  0
LINE
  5
4A02
  8
250
  6
CONTINUOUS
 10
14.000000000016019
 20
-6.6900000000080118
 30
0.0
 11
10.79075772083025
 21
-6.6900000000080109
 31
0.0
  0
LINE
  5
4A03
  8
250
  6
CONTINUOUS
 10
11.79075772083025
 20
8.9199999999934612
 30
0.0
 11
11.79075772083025
 21
11.14999999999346
 31
0.0
  0
LINE
  5
4A04
  8
250
  6
CONTINUOUS
 10
11.79075772083025
 20
-8.9200000000080131
 30
0.0
 11
11.79075772083025
 21
-11.15000000000801
 31
0.0
  0
LINE
  5
4A05
  8
250
  6
CONTINUOUS
 10
11.79075772083025
 20
6.6899999999934607
 30
0.0
 11
11.79075772083025
 21
-6.6900000000080109
 31
0.0
  0
TEXT
  5
4A09
  8
250
  6
CONTINUOUS
 10
28.4166666666693
 20
43.0
 30
0.0
 40
2.7999999999999989
  1
2.50
  0
LINE
  5
4A0A
  8
250
  6
CONTINUOUS
 10
61.27000000000772
 20
42.371666666666663
 30
0.0
 11
63.500000000007716
 21
42.0
 31
0.0
  0
LINE
  5
4A0B
  8
250
  6
CONTINUOUS
 10
61.27000000000772
 20
41.62833333333333
 30
0.0
 11
63.500000000007716
 21
42.0
 31
0.0
  0
LINE
  5
4A0C
  8
250
  6
CONTINUOUS
 10
63.500000000007716
 20
42.0
 30
0.0
 11
61.27000000000772
 21
42.0
 31
0.0
  0
LINE
  5
4A0D
  8
250
  6
CONTINUOUS
 10
2.2299999999975331
 20
41.62833333333333
 30
0.0
 11
-0.000000000002467
 21
42.0
 31
0.0
  0
LINE
  5
4A0E
  8
250
  6
CONTINUOUS
 10
2.2299999999975331
 20
42.371666666666663
 30
0.0
 11
-0.000000000002467
 21
42.0
 31
0.0
  0
LINE
  5
4A0F
  8
250
  6
CONTINUOUS
 10
-0.000000000002467
 20
42.0
 30
0.0
 11
2.2299999999975331
 21
42.0
 31
0.0
  0
TEXT
  5
4A10
  8
250
  6
CONTINUOUS
 10
75.999999999999986
 20
-7.2666666666666311
 30
0.0
 40
2.7999999999999989
  1
\U+2205.697
 50
90.0
  0
LINE
  5
4A11
  8
250
  6
CONTINUOUS
 10
77.371666666666655
 20
-6.6219999999999777
 30
0.0
 11
77.0
 21
-8.8519999999999772
 31
0.0
  0
LINE
  5
4A12
  8
250
  6
CONTINUOUS
 10
76.62833333333333
 20
-6.6219999999999777
 30
0.0
 11
77.0
 21
-8.8519999999999772
 31
0.0
  0
LINE
  5
4A13
  8
250
  6
CONTINUOUS
 10
77.0
 20
-8.8519999999999772
 30
0.0
 11
77.0
 21
-6.6219999999999777
 31
0.0
  0
LINE
  5
4A14
  8
250
  6
CONTINUOUS
 10
76.62833333333333
 20
6.622000000000015
 30
0.0
 11
77.0
 21
8.8520000000000163
 31
0.0
  0
LINE
  5
4A15
  8
250
  6
CONTINUOUS
 10
77.371666666666655
 20
6.622000000000015
 30
0.0
 11
77.0
 21
8.8520000000000163
 31
0.0
  0
LINE
  5
4A16
  8
250
  6
CONTINUOUS
 10
77.0
 20
8.8520000000000163
 30
0.0
 11
77.0
 21
6.622000000000015
 31
0.0
  0
TEXT
  5
4A17
  8
250
  6
CONTINUOUS
 10
82.999999999999986
 20
-7.1999999999981368
 30
0.0
 40
2.7999999999999989
  1
\U+22051.338
 50
90.0
  0
LINE
  5
4A18
  8
250
  6
CONTINUOUS
 10
84.371666666666684
 20
-14.76999999999253
 30
0.0
 11
84.0
 21
-16.999999999992529
 31
0.0
  0
LINE
  5
4A19
  8
250
  6
CONTINUOUS
 10
83.628333333333316
 20
-14.76999999999253
 30
0.0
 11
84.0
 21
-16.999999999992529
 31
0.0
  0
LINE
  5
4A1A
  8
250
  6
CONTINUOUS
 10
84.0
 20
-16.999999999992529
 30
0.0
 11
84.0
 21
-14.76999999999253
 31
0.0
  0
LINE
  5
4A1B
  8
250
  6
CONTINUOUS
 10
83.628333333333316
 20
14.76999999999623
 30
0.0
 11
84.0
 21
16.999999999996231
 31
0.0
  0
LINE
  5
4A1C
  8
250
  6
CONTINUOUS
 10
84.371666666666684
 20
14.76999999999623
 30
0.0
 11
84.0
 21
16.999999999996231
 31
0.0
  0
LINE
  5
4A1D
  8
250
  6
CONTINUOUS
 10
84.0
 20
16.999999999996231
 30
0.0
 11
84.0
 21
14.76999999999623
 31
0.0
  0
TEXT
  5
4A1E
  8
250
  6
CONTINUOUS
 10
10.79075772083025
 20
-7.6000000000072712
 30
0.0
 40
2.7999999999999989
  1
üá
 50
90.0
  0
TEXT
  5
4A1F
  8
250
  6
CONTINUOUS
 10
10.79075772083025
 20
-4.2666666666739381
 30
0.0
 40
2.7999999999999989
  1
0.523
 50
90.0
  0
LINE
  5
4A20
  8
250
  6
CONTINUOUS
 10
12.16242438749692
 20
8.9199999999934612
 30
0.0
 11
11.79075772083025
 21
6.6899999999934607
 31
0.0
  0
LINE
  5
4A21
  8
250
  6
CONTINUOUS
 10
11.419091054163591
 20
8.9199999999934612
 30
0.0
 11
11.79075772083025
 21
6.6899999999934607
 31
0.0
  0
LINE
  5
4A22
  8
250
  6
CONTINUOUS
 10
11.79075772083025
 20
6.6899999999934607
 30
0.0
 11
11.79075772083025
 21
8.9199999999934612
 31
0.0
  0
LINE
  5
4A23
  8
250
  6
CONTINUOUS
 10
11.41909105416358
 20
-8.9200000000080113
 30
0.0
 11
11.79075772083025
 21
-6.6900000000080109
 31
0.0
  0
LINE
  5
4A24
  8
250
  6
CONTINUOUS
 10
12.16242438749692
 20
-8.9200000000080113
 30
0.0
 11
11.79075772083025
 21
-6.6900000000080109
 31
0.0
  0
LINE
  5
4A25
  8
250
  6
CONTINUOUS
 10
11.79075772083025
 20
-6.6900000000080109
 30
0.0
 11
11.79075772083025
 21
-8.9200000000080113
 31
0.0
  0
VIEWPORT
  5
22
 67
     1
  8
0
 10
261.51769911504419
 20
148.5
 30
0.0
 40
523.0353982300885
 41
297.0
 68
     1
 69
     1
1001
ACAD
1000
MVIEW
1002
{
1070
    16
1010
0.0
1020
0.0
1030
0.0
1010
0.0
1020
0.0
1030
1.0
1040
0.0
1040
297.0
1040
261.51769911504419
1040
148.5
1040
50.0
1040
0.0
1040
0.0
1070
     0
1070
   100
1070
     1
1070
     1
1070
     0
1070
     0
1070
     0
1070
     0
1040
0.0
1040
0.0
1040
0.0
1040
1.0
1040
1.0
1040
10.0
1040
10.0
1070
     0
1002
{
1002
}
1002
}
1001
GENIUS_GENODEF_13
1002
{
1000
HIER
1070
     0
1002
}
1002
{
1000
MANEDIT
1070
     0
1002
}
1002
{
1000
NOSEL
1070
     0
1002
}
1002
{
1000
BEHIND
1070
     0
1002
}
1002
{
1000
OTHER
1070
     0
1002
}
1002
{
1000
REACTOR
1002
}
1001
GENIUS_GENOBJ-N-SDF_13
1002
{
1000
OWNER
1000
GEN
1002
}
1001
GENIUS_GENSCREG_15
1000
PF
1040
1.0
1000
DF
1040
1.0
1000
MIN
1011
0.0
1021
0.0
1031
0.0
1021
0.0
1031
0.0
1000
MAX
1011
523.0353982300885
1021
0.0
1031
0.0
1021
297.0
1031
0.0
1000
FLAGS
1070
     4
  0
ENDSEC
  0
EOF
