ISO-10303-21;
HEADER;
FILE_DESCRIPTION((''),'1');
FILE_NAME('V:/02_3D_Field-HP\X2\FF71FF6FFF8CFF9F5916\X0\2013/02_Step_Field-HP\X2\FF71FF6FFF8CFF9F5916\X0\2013/31_\X2\30E130AC30B730F330AF30ED30BF30C330D430F330B030DB30EB30C0\X0\ MGT/MGT_ANSI_STEP/MGT36-AU7_8-2.5.stp','2018-02-02T01:38:47',(''),(''),'Spatial Interop R21 SP3','Kubotek KeyCreator 2011 V10.0.2 (22737)',' ');
FILE_SCHEMA(('automotive_design'));
ENDSEC;
DATA;
#1=MECHANICAL_DESIGN_GEOMETRIC_PRESENTATION_REPRESENTATION(' ',(#10,#11,#12,#13,#14,#15,#16,#17,#18,#19,#20,#21,#22,#23,#24,#25),#6);
#2=PRODUCT_DEFINITION_CONTEXT('',#26,'design');
#3=APPLICATION_PROTOCOL_DEFINITION('INTERNATIONAL STANDARD','automotive_design',1994,#26);
#4=PRODUCT_CATEGORY_RELATIONSHIP('NONE','NONE',#27,#28);
#5=SHAPE_DEFINITION_REPRESENTATION(#29,#30);
#6= (GEOMETRIC_REPRESENTATION_CONTEXT(3)GLOBAL_UNCERTAINTY_ASSIGNED_CONTEXT((#33))GLOBAL_UNIT_ASSIGNED_CONTEXT((#35,#36,#37))REPRESENTATION_CONTEXT('NONE','WORKSPACE'));
#10=STYLED_ITEM('',(#39),#40);
#11=STYLED_ITEM('',(#41,#42),#43);
#12=STYLED_ITEM('',(#44,#45),#46);
#13=STYLED_ITEM('',(#47),#48);
#14=STYLED_ITEM('',(#49),#50);
#15=STYLED_ITEM('',(#51),#52);
#16=STYLED_ITEM('',(#53,#54),#55);
#17=STYLED_ITEM('',(#56,#57),#58);
#18=STYLED_ITEM('',(#59,#60),#61);
#19=STYLED_ITEM('',(#62,#63),#64);
#20=STYLED_ITEM('',(#65),#66);
#21=STYLED_ITEM('',(#67),#68);
#22=STYLED_ITEM('',(#69,#70),#71);
#23=STYLED_ITEM('',(#72),#73);
#24=STYLED_ITEM('',(#74,#75),#76);
#25=STYLED_ITEM('',(#77,#78),#79);
#26=APPLICATION_CONTEXT(' ');
#27=PRODUCT_CATEGORY('part','NONE');
#28=PRODUCT_RELATED_PRODUCT_CATEGORY('detail',' ',(#80));
#29=PRODUCT_DEFINITION_SHAPE('NONE','NONE',#81);
#30=ADVANCED_BREP_SHAPE_REPRESENTATION('Unnamed[1]',(#79,#82),#6);
#33=UNCERTAINTY_MEASURE_WITH_UNIT(LENGTH_MEASURE(1.0E-006),#35,'','');
#35= (CONVERSION_BASED_UNIT('MILLIMETRE',#85)LENGTH_UNIT()NAMED_UNIT(#88));
#36= (NAMED_UNIT(#90)PLANE_ANGLE_UNIT()SI_UNIT($,.RADIAN.));
#37= (NAMED_UNIT(#90)SOLID_ANGLE_UNIT()SI_UNIT($,.STERADIAN.));
#39=PRESENTATION_STYLE_ASSIGNMENT((#96));
#40=EDGE_CURVE('Unnamed[1]',#97,#97,#98,.T.);
#41=PRESENTATION_STYLE_ASSIGNMENT((#99));
#42=PRESENTATION_STYLE_ASSIGNMENT((#100));
#43=ADVANCED_FACE('Unnamed[1]',(#101,#102),#103,.T.);
#44=PRESENTATION_STYLE_ASSIGNMENT((#104));
#45=PRESENTATION_STYLE_ASSIGNMENT((#105));
#46=ADVANCED_FACE('Unnamed[1]',(#106),#107,.T.);
#47=PRESENTATION_STYLE_ASSIGNMENT((#108));
#48=EDGE_CURVE('Unnamed[1]',#109,#109,#110,.T.);
#49=PRESENTATION_STYLE_ASSIGNMENT((#111));
#50=EDGE_CURVE('Unnamed[1]',#112,#112,#113,.T.);
#51=PRESENTATION_STYLE_ASSIGNMENT((#114));
#52=EDGE_CURVE('Unnamed[1]',#115,#115,#116,.T.);
#53=PRESENTATION_STYLE_ASSIGNMENT((#117));
#54=PRESENTATION_STYLE_ASSIGNMENT((#118));
#55=ADVANCED_FACE('Unnamed[1]',(#119,#120),#121,.T.);
#56=PRESENTATION_STYLE_ASSIGNMENT((#122));
#57=PRESENTATION_STYLE_ASSIGNMENT((#123));
#58=ADVANCED_FACE('Unnamed[1]',(#124,#125),#126,.T.);
#59=PRESENTATION_STYLE_ASSIGNMENT((#127));
#60=PRESENTATION_STYLE_ASSIGNMENT((#128));
#61=ADVANCED_FACE('Unnamed[1]',(#129,#130),#131,.T.);
#62=PRESENTATION_STYLE_ASSIGNMENT((#132));
#63=PRESENTATION_STYLE_ASSIGNMENT((#133));
#64=ADVANCED_FACE('Unnamed[1]',(#134,#135),#136,.T.);
#65=PRESENTATION_STYLE_ASSIGNMENT((#137));
#66=EDGE_CURVE('Unnamed[1]',#138,#138,#139,.T.);
#67=PRESENTATION_STYLE_ASSIGNMENT((#140));
#68=EDGE_CURVE('Unnamed[1]',#141,#141,#142,.T.);
#69=PRESENTATION_STYLE_ASSIGNMENT((#143));
#70=PRESENTATION_STYLE_ASSIGNMENT((#144));
#71=ADVANCED_FACE('Unnamed[1]',(#145),#146,.T.);
#72=PRESENTATION_STYLE_ASSIGNMENT((#147));
#73=EDGE_CURVE('Unnamed[1]',#148,#148,#149,.T.);
#74=PRESENTATION_STYLE_ASSIGNMENT((#150));
#75=PRESENTATION_STYLE_ASSIGNMENT((#151));
#76=ADVANCED_FACE('Unnamed[1]',(#152,#153),#154,.T.);
#77=PRESENTATION_STYLE_ASSIGNMENT((#155));
#78=PRESENTATION_STYLE_ASSIGNMENT((#156));
#79=MANIFOLD_SOLID_BREP('Unnamed[1]',#157);
#80=PRODUCT('Unnamed[1]','Unnamed[1]','PART-Unnamed[1]-DESC',(#158));
#81=PRODUCT_DEFINITION('NONE','NONE',#159,#2);
#82=AXIS2_PLACEMENT_3D('',#160,#161,#162);
#85=LENGTH_MEASURE_WITH_UNIT(LENGTH_MEASURE(1.0),#163);
#88=DIMENSIONAL_EXPONENTS(1.0,0.0,0.0,0.0,0.0,0.0,0.0);
#90=DIMENSIONAL_EXPONENTS(0.0,0.0,0.0,0.0,0.0,0.0,0.0);
#96=CURVE_STYLE('',#164,POSITIVE_LENGTH_MEASURE(1000.0),#165);
#97=VERTEX_POINT('',#166);
#98=CIRCLE('',#167,26.9999999999782);
#99=SURFACE_STYLE_USAGE(.BOTH.,#168);
#100=CURVE_STYLE('',#169,POSITIVE_LENGTH_MEASURE(1000.0),#170);
#101=FACE_BOUND('',#171,.T.);
#102=FACE_BOUND('',#172,.T.);
#103=CONICAL_SURFACE('',#173,21.999999999991,1.23886707708094);
#104=SURFACE_STYLE_USAGE(.BOTH.,#174);
#105=CURVE_STYLE('',#175,POSITIVE_LENGTH_MEASURE(1000.0),#176);
#106=FACE_OUTER_BOUND('',#177,.T.);
#107=PLANE('',#178);
#108=CURVE_STYLE('',#179,POSITIVE_LENGTH_MEASURE(1000.0),#180);
#109=VERTEX_POINT('',#181);
#110=CIRCLE('',#182,26.9999999999782);
#111=CURVE_STYLE('',#183,POSITIVE_LENGTH_MEASURE(1000.0),#184);
#112=VERTEX_POINT('',#185);
#113=CIRCLE('',#186,16.9999999999962);
#114=CURVE_STYLE('',#187,POSITIVE_LENGTH_MEASURE(1000.0),#188);
#115=VERTEX_POINT('',#189);
#116=CIRCLE('',#190,19.9999999999954);
#117=SURFACE_STYLE_USAGE(.BOTH.,#191);
#118=CURVE_STYLE('',#192,POSITIVE_LENGTH_MEASURE(1000.0),#193);
#119=FACE_BOUND('',#194,.T.);
#120=FACE_BOUND('',#195,.T.);
#121=CYLINDRICAL_SURFACE('',#196,17.0);
#122=SURFACE_STYLE_USAGE(.BOTH.,#197);
#123=CURVE_STYLE('',#198,POSITIVE_LENGTH_MEASURE(1000.0),#199);
#124=FACE_BOUND('',#200,.T.);
#125=FACE_BOUND('',#201,.T.);
#126=CYLINDRICAL_SURFACE('',#202,19.9999999999954);
#127=SURFACE_STYLE_USAGE(.BOTH.,#203);
#128=CURVE_STYLE('',#204,POSITIVE_LENGTH_MEASURE(1000.0),#205);
#129=FACE_BOUND('',#206,.T.);
#130=FACE_BOUND('',#207,.T.);
#131=CYLINDRICAL_SURFACE('',#208,26.9999999999782);
#132=SURFACE_STYLE_USAGE(.BOTH.,#209);
#133=CURVE_STYLE('',#210,POSITIVE_LENGTH_MEASURE(1000.0),#211);
#134=FACE_BOUND('',#212,.T.);
#135=FACE_BOUND('',#213,.T.);
#136=CONICAL_SURFACE('',#214,26.7499999999792,0.349065850398424);
#137=CURVE_STYLE('',#215,POSITIVE_LENGTH_MEASURE(1000.0),#216);
#138=VERTEX_POINT('',#217);
#139=CIRCLE('',#218,17.0000000000039);
#140=CURVE_STYLE('',#219,POSITIVE_LENGTH_MEASURE(1000.0),#220);
#141=VERTEX_POINT('',#221);
#142=CIRCLE('',#222,19.9999999999954);
#143=SURFACE_STYLE_USAGE(.BOTH.,#223);
#144=CURVE_STYLE('',#224,POSITIVE_LENGTH_MEASURE(1000.0),#225);
#145=FACE_OUTER_BOUND('',#226,.T.);
#146=PLANE('',#227);
#147=CURVE_STYLE('',#228,POSITIVE_LENGTH_MEASURE(1000.0),#229);
#148=VERTEX_POINT('',#230);
#149=CIRCLE('',#231,26.4999999999802);
#150=SURFACE_STYLE_USAGE(.BOTH.,#232);
#151=CURVE_STYLE('',#233,POSITIVE_LENGTH_MEASURE(1000.0),#234);
#152=FACE_OUTER_BOUND('',#235,.T.);
#153=FACE_BOUND('',#236,.T.);
#154=PLANE('',#237);
#155=SURFACE_STYLE_USAGE(.BOTH.,#238);
#156=CURVE_STYLE('',#239,POSITIVE_LENGTH_MEASURE(1000.0),#240);
#157=CLOSED_SHELL('',(#71,#58,#76,#64,#61,#43,#55,#46));
#158=PRODUCT_CONTEXT('',#26,'mechanical');
#159=PRODUCT_DEFINITION_FORMATION_WITH_SPECIFIED_SOURCE(' ','NONE',#80,.NOT_KNOWN.);
#160=CARTESIAN_POINT('',(0.0,0.0,0.0));
#161=DIRECTION('',(0.0,0.0,1.0));
#162=DIRECTION('',(1.0,0.0,0.0));
#163= (NAMED_UNIT(#88)LENGTH_UNIT()SI_UNIT(.MILLI.,.METRE.));
#164=DRAUGHTING_PRE_DEFINED_CURVE_FONT('continuous');
#165=COLOUR_RGB('',0.0,1.0,0.0);
#166=CARTESIAN_POINT('',(-4.35522741122334E-015,26.9999999999782,71.1262612902858));
#167=AXIS2_PLACEMENT_3D('',#242,#243,#244);
#168=SURFACE_SIDE_STYLE('',(#245));
#169=DRAUGHTING_PRE_DEFINED_CURVE_FONT('continuous');
#170=COLOUR_RGB('',0.0,1.0,0.0);
#171=EDGE_LOOP('',(#246));
#172=EDGE_LOOP('',(#247));
#173=AXIS2_PLACEMENT_3D('',#248,#249,#250);
#174=SURFACE_SIDE_STYLE('',(#251));
#175=DRAUGHTING_PRE_DEFINED_CURVE_FONT('continuous');
#176=COLOUR_RGB('',0.0,1.0,0.0);
#177=EDGE_LOOP('',(#252));
#178=AXIS2_PLACEMENT_3D('',#253,#254,#255);
#179=DRAUGHTING_PRE_DEFINED_CURVE_FONT('continuous');
#180=COLOUR_RGB('',0.0,1.0,0.0);
#181=CARTESIAN_POINT('',(-3.88825358729347E-015,26.9999999999782,63.5000000000102));
#182=AXIS2_PLACEMENT_3D('',#256,#257,#258);
#183=DRAUGHTING_PRE_DEFINED_CURVE_FONT('continuous');
#184=COLOUR_RGB('',0.0,1.0,0.0);
#185=CARTESIAN_POINT('',(0.0,16.9999999999962,0.0));
#186=AXIS2_PLACEMENT_3D('',#259,#260,#261);
#187=DRAUGHTING_PRE_DEFINED_CURVE_FONT('continuous');
#188=COLOUR_RGB('',0.0,1.0,0.0);
#189=CARTESIAN_POINT('',(-9.39916418345658E-015,19.9999999999954,153.50000000001));
#190=AXIS2_PLACEMENT_3D('',#262,#263,#264);
#191=SURFACE_SIDE_STYLE('',(#265));
#192=DRAUGHTING_PRE_DEFINED_CURVE_FONT('continuous');
#193=COLOUR_RGB('',0.0,1.0,0.0);
#194=EDGE_LOOP('',(#266));
#195=EDGE_LOOP('',(#267));
#196=AXIS2_PLACEMENT_3D('',#268,#269,#270);
#197=SURFACE_SIDE_STYLE('',(#271));
#198=DRAUGHTING_PRE_DEFINED_CURVE_FONT('continuous');
#199=COLOUR_RGB('',0.0,1.0,0.0);
#200=EDGE_LOOP('',(#272));
#201=EDGE_LOOP('',(#273));
#202=AXIS2_PLACEMENT_3D('',#274,#275,#276);
#203=SURFACE_SIDE_STYLE('',(#277));
#204=DRAUGHTING_PRE_DEFINED_CURVE_FONT('continuous');
#205=COLOUR_RGB('',0.0,1.0,0.0);
#206=EDGE_LOOP('',(#278));
#207=EDGE_LOOP('',(#279));
#208=AXIS2_PLACEMENT_3D('',#280,#281,#282);
#209=SURFACE_SIDE_STYLE('',(#283));
#210=DRAUGHTING_PRE_DEFINED_CURVE_FONT('continuous');
#211=COLOUR_RGB('',0.0,1.0,0.0);
#212=EDGE_LOOP('',(#284));
#213=EDGE_LOOP('',(#285));
#214=AXIS2_PLACEMENT_3D('',#286,#287,#288);
#215=DRAUGHTING_PRE_DEFINED_CURVE_FONT('continuous');
#216=COLOUR_RGB('',0.0,1.0,0.0);
#217=CARTESIAN_POINT('',(-3.67719679988475E-015,17.0000000000038,60.0531810877219));
#218=AXIS2_PLACEMENT_3D('',#289,#290,#291);
#219=DRAUGHTING_PRE_DEFINED_CURVE_FONT('continuous');
#220=COLOUR_RGB('',0.0,1.0,0.0);
#221=CARTESIAN_POINT('',(-4.43934464690974E-015,19.9999999999954,72.5000000000095));
#222=AXIS2_PLACEMENT_3D('',#292,#293,#294);
#223=SURFACE_SIDE_STYLE('',(#295));
#224=DRAUGHTING_PRE_DEFINED_CURVE_FONT('continuous');
#225=COLOUR_RGB('',0.0,1.0,0.0);
#226=EDGE_LOOP('',(#296));
#227=AXIS2_PLACEMENT_3D('',#297,#298,#299);
#228=DRAUGHTING_PRE_DEFINED_CURVE_FONT('continuous');
#229=COLOUR_RGB('',0.0,1.0,0.0);
#230=CARTESIAN_POINT('',(-4.43934464690974E-015,26.4999999999802,72.5000000000095));
#231=AXIS2_PLACEMENT_3D('',#300,#301,#302);
#232=SURFACE_SIDE_STYLE('',(#303));
#233=DRAUGHTING_PRE_DEFINED_CURVE_FONT('continuous');
#234=COLOUR_RGB('',0.0,1.0,0.0);
#235=EDGE_LOOP('',(#304));
#236=EDGE_LOOP('',(#305));
#237=AXIS2_PLACEMENT_3D('',#306,#307,#308);
#238=SURFACE_SIDE_STYLE('',(#309));
#239=DRAUGHTING_PRE_DEFINED_CURVE_FONT('continuous');
#240=COLOUR_RGB('',0.0,1.0,0.0);
#242=CARTESIAN_POINT('',(-4.35522741122334E-015,-8.71045482244668E-015,71.1262612902858));
#243=DIRECTION('',(6.12323399573677E-017,1.22464679914732E-016,-1.0));
#244=DIRECTION('',(-1.2325951644075E-032,1.0,1.22464679914732E-016));
#245=SURFACE_STYLE_FILL_AREA(#310);
#246=ORIENTED_EDGE('',*,*,#66,.F.);
#247=ORIENTED_EDGE('',*,*,#48,.T.);
#248=CARTESIAN_POINT('',(-3.78272519358911E-015,-7.56545038717822E-015,61.776590543866));
#249=DIRECTION('',(-6.12323399573676E-017,-1.22464679914792E-016,1.0));
#250=DIRECTION('',(-1.23259516440752E-032,1.0,1.22464679914792E-016));
#251=SURFACE_STYLE_FILL_AREA(#311);
#252=ORIENTED_EDGE('',*,*,#50,.T.);
#253=CARTESIAN_POINT('',(-2.36658271566304E-028,8.49999999999812,3.86535248253495E-012));
#254=DIRECTION('',(6.12323399573677E-017,-4.5462488620665E-013,-1.0));
#255=DIRECTION('',(2.78329184325544E-029,1.0,-4.5462488620665E-013));
#256=CARTESIAN_POINT('',(-3.88825358729347E-015,-7.77650717458694E-015,63.5000000000102));
#257=DIRECTION('',(6.12323399573677E-017,1.22464679914732E-016,-1.0));
#258=DIRECTION('',(-1.2325951644075E-032,1.0,1.22464679914732E-016));
#259=CARTESIAN_POINT('',(0.0,0.0,0.0));
#260=DIRECTION('',(6.12323399573677E-017,1.22464679914752E-016,-1.0));
#261=DIRECTION('',(-1.23259516440758E-032,1.0,1.22464679914752E-016));
#262=CARTESIAN_POINT('',(-9.39916418345658E-015,-1.87983283669132E-014,153.50000000001));
#263=DIRECTION('',(6.12323399573677E-017,1.22464679914748E-016,-1.0));
#264=DIRECTION('',(-1.23259516440811E-032,1.0,1.22464679914748E-016));
#265=SURFACE_STYLE_FILL_AREA(#312);
#266=ORIENTED_EDGE('',*,*,#50,.F.);
#267=ORIENTED_EDGE('',*,*,#66,.T.);
#268=CARTESIAN_POINT('',(-1.83859839994237E-015,-3.67719679988475E-015,30.0265905438609));
#269=DIRECTION('',(6.12323399573676E-017,1.22464679914724E-016,-1.0));
#270=DIRECTION('',(-1.23259516440783E-032,1.0,1.22464679914724E-016));
#271=SURFACE_STYLE_FILL_AREA(#313);
#272=ORIENTED_EDGE('',*,*,#68,.F.);
#273=ORIENTED_EDGE('',*,*,#52,.T.);
#274=CARTESIAN_POINT('',(-6.91925441518316E-015,-1.38385088303663E-014,113.00000000001));
#275=DIRECTION('',(6.12323399573677E-017,1.22464679914748E-016,-1.0));
#276=DIRECTION('',(-1.23259516440811E-032,1.0,1.22464679914748E-016));
#277=SURFACE_STYLE_FILL_AREA(#314);
#278=ORIENTED_EDGE('',*,*,#48,.F.);
#279=ORIENTED_EDGE('',*,*,#40,.T.);
#280=CARTESIAN_POINT('',(-4.12174049925841E-015,-8.24348099851681E-015,67.313130645148));
#281=DIRECTION('',(6.12323399573677E-017,1.22464679914732E-016,-1.0));
#282=DIRECTION('',(-1.2325951644075E-032,1.0,1.22464679914732E-016));
#283=SURFACE_STYLE_FILL_AREA(#315);
#284=ORIENTED_EDGE('',*,*,#40,.F.);
#285=ORIENTED_EDGE('',*,*,#73,.T.);
#286=CARTESIAN_POINT('',(-4.39728602906654E-015,-8.79457205813308E-015,71.8131306451477));
#287=DIRECTION('',(6.12323399573677E-017,1.22464679914794E-016,-1.0));
#288=DIRECTION('',(-1.23259516440812E-032,1.0,1.22464679914793E-016));
#289=CARTESIAN_POINT('',(-3.67719679988475E-015,-7.3543935997695E-015,60.0531810877219));
#290=DIRECTION('',(6.12323399573677E-017,1.22464679914697E-016,-1.0));
#291=DIRECTION('',(-1.23259516440808E-032,1.0,1.22464679914697E-016));
#292=CARTESIAN_POINT('',(-4.43934464690974E-015,-8.87868929381948E-015,72.5000000000095));
#293=DIRECTION('',(6.12323399573677E-017,1.22464679914748E-016,-1.0));
#294=DIRECTION('',(-1.23259516440811E-032,1.0,1.22464679914748E-016));
#295=SURFACE_STYLE_FILL_AREA(#316);
#296=ORIENTED_EDGE('',*,*,#52,.F.);
#297=CARTESIAN_POINT('',(-9.39916418345655E-015,9.99999999999771,153.50000000001));
#298=DIRECTION('',(-6.12323399573677E-017,-4.91499134473728E-014,1.0));
#299=DIRECTION('',(3.0143913618155E-030,-1.0,-4.91499134473728E-014));
#300=CARTESIAN_POINT('',(-4.43934464690974E-015,-8.87868929381948E-015,72.5000000000095));
#301=DIRECTION('',(6.12323399573677E-017,1.22464679914734E-016,-1.0));
#302=DIRECTION('',(-1.23259516440808E-032,1.0,1.22464679914734E-016));
#303=SURFACE_STYLE_FILL_AREA(#317);
#304=ORIENTED_EDGE('',*,*,#73,.F.);
#305=ORIENTED_EDGE('',*,*,#68,.T.);
#306=CARTESIAN_POINT('',(-4.43934464690974E-015,23.2499999999878,72.5000000000095));
#307=DIRECTION('',(-6.12323399573677E-017,1.50820987685946E-016,1.0));
#308=DIRECTION('',(-4.40796925992276E-033,-1.0,1.50820987685946E-016));
#309=SURFACE_STYLE_FILL_AREA(#318);
#310=FILL_AREA_STYLE('',(#319));
#311=FILL_AREA_STYLE('',(#320));
#312=FILL_AREA_STYLE('',(#321));
#313=FILL_AREA_STYLE('',(#322));
#314=FILL_AREA_STYLE('',(#323));
#315=FILL_AREA_STYLE('',(#324));
#316=FILL_AREA_STYLE('',(#325));
#317=FILL_AREA_STYLE('',(#326));
#318=FILL_AREA_STYLE('',(#327));
#319=FILL_AREA_STYLE_COLOUR('',#328);
#320=FILL_AREA_STYLE_COLOUR('',#329);
#321=FILL_AREA_STYLE_COLOUR('',#330);
#322=FILL_AREA_STYLE_COLOUR('',#331);
#323=FILL_AREA_STYLE_COLOUR('',#332);
#324=FILL_AREA_STYLE_COLOUR('',#333);
#325=FILL_AREA_STYLE_COLOUR('',#334);
#326=FILL_AREA_STYLE_COLOUR('',#335);
#327=FILL_AREA_STYLE_COLOUR('',#336);
#328=COLOUR_RGB('',0.0,1.0,0.0);
#329=COLOUR_RGB('',0.0,1.0,0.0);
#330=COLOUR_RGB('',0.0,1.0,0.0);
#331=COLOUR_RGB('',0.0,1.0,0.0);
#332=COLOUR_RGB('',0.0,1.0,0.0);
#333=COLOUR_RGB('',0.0,1.0,0.0);
#334=COLOUR_RGB('',0.0,1.0,0.0);
#335=COLOUR_RGB('',0.0,1.0,0.0);
#336=COLOUR_RGB('',0.0,1.0,0.0);
ENDSEC;
END-ISO-10303-21;
