  0
SECTION
  2
HEADER
  9
$ACADVER
  1
AC1009
  9
$INSBASE
 10
0.0
 20
0.0
 30
0.0
  9
$EXTMIN
 10
-92.220854310484356
 20
-26.999999999994539
 30
0.0
  9
$EXTMAX
 10
85.0
 20
64.928571428571431
 30
0.0
  9
$LIMMIN
 10
0.0
 20
0.0
  9
$LIMMAX
 10
297.0
 20
210.0
  9
$ORTHOMODE
 70
     0
  9
$REGENMODE
 70
     1
  9
$FILLMODE
 70
     1
  9
$QTEXTMODE
 70
     0
  9
$MIRRTEXT
 70
     1
  9
$DRAGMODE
 70
     2
  9
$LTSCALE
 40
10.0
  9
$OSMODE
 70
    37
  9
$ATTMODE
 70
     1
  9
$TEXTSIZE
 40
3.0
  9
$TRACEWID
 40
1.0
  9
$TEXTSTYLE
  7
YOKO
  9
$CLAYER
  8
240
  9
$CELTYPE
  6
BYLAYER
  9
$CECOLOR
 62
   256
  9
$DIMSCALE
 40
1.0
  9
$DIMASZ
 40
2.2299999999999991
  9
$DIMEXO
 40
0.5
  9
$DIMDLI
 40
7.0
  9
$DIMRND
 40
0.0
  9
$DIMDLE
 40
0.0
  9
$DIMEXE
 40
1.0
  9
$DIMTP
 40
0.0
  9
$DIMTM
 40
0.01
  9
$DIMTXT
 40
2.7999999999999989
  9
$DIMCEN
 40
0.0
  9
$DIMTSZ
 40
0.0
  9
$DIMTOL
 70
     0
  9
$DIMLIM
 70
     0
  9
$DIMTIH
 70
     0
  9
$DIMTOH
 70
     0
  9
$DIMSE1
 70
     0
  9
$DIMSE2
 70
     0
  9
$DIMTAD
 70
     3
  9
$DIMZIN
 70
     9
  9
$DIMBLK
  1
OPEN
  9
$DIMASO
 70
     1
  9
$DIMSHO
 70
     1
  9
$DIMPOST
  1

  9
$DIMAPOST
  1

  9
$DIMALT
 70
     0
  9
$DIMALTD
 70
     2
  9
$DIMALTF
 40
25.399999999999999
  9
$DIMLFAC
 40
1.0
  9
$DIMTOFL
 70
     1
  9
$DIMTVP
 40
0.0
  9
$DIMTIX
 70
     1
  9
$DIMSOXD
 70
     0
  9
$DIMSAH
 70
     0
  9
$DIMBLK1
  1

  9
$DIMBLK2
  1

  9
$DIMSTYLE
  2
BIGT
  9
$DIMCLRD
 70
   256
  9
$DIMCLRE
 70
   256
  9
$DIMCLRT
 70
    40
  9
$DIMTFAC
 40
1.0
  9
$DIMGAP
 40
1.0
  9
$LUNITS
 70
     2
  9
$LUPREC
 70
     6
  9
$SKETCHINC
 40
1.0
  9
$FILLETRAD
 40
1.0
  9
$AUNITS
 70
     0
  9
$AUPREC
 70
     6
  9
$MENU
  1
.
  9
$ELEVATION
 40
0.0
  9
$PELEVATION
 40
0.0
  9
$THICKNESS
 40
0.0
  9
$LIMCHECK
 70
     0
  9
$BLIPMODE
 70
     0
  9
$CHAMFERA
 40
0.2
  9
$CHAMFERB
 40
0.2
  9
$SKPOLY
 70
     0
  9
$TDCREATE
 40
2458145.7326321071
  9
$TDUPDATE
 40
2458148.5923881941
  9
$TDINDWG
 40
0.0116628472
  9
$TDUSRTIMER
 40
0.0116628241
  9
$USRTIMER
 70
     1
  9
$ANGBASE
 50
0.0
  9
$ANGDIR
 70
     0
  9
$PDMODE
 70
     1
  9
$PDSIZE
 40
0.0
  9
$PLINEWID
 40
0.0
  9
$COORDS
 70
     1
  9
$SPLFRAME
 70
     0
  9
$SPLINETYPE
 70
     6
  9
$SPLINESEGS
 70
     4
  9
$ATTDIA
 70
     1
  9
$ATTREQ
 70
     1
  9
$HANDLING
 70
     1
  9
$HANDSEED
  5
47ED
  9
$SURFTAB1
 70
     6
  9
$SURFTAB2
 70
     6
  9
$SURFTYPE
 70
     6
  9
$SURFU
 70
     6
  9
$SURFV
 70
     6
  9
$UCSNAME
  2

  9
$UCSORG
 10
0.0
 20
0.0
 30
0.0
  9
$UCSXDIR
 10
1.0
 20
0.0
 30
0.0
  9
$UCSYDIR
 10
0.0
 20
1.0
 30
0.0
  9
$PUCSNAME
  2

  9
$PUCSORG
 10
0.0
 20
0.0
 30
0.0
  9
$PUCSXDIR
 10
1.0
 20
0.0
 30
0.0
  9
$PUCSYDIR
 10
0.0
 20
1.0
 30
0.0
  9
$USERI1
 70
     1
  9
$USERI2
 70
     0
  9
$USERI3
 70
     0
  9
$USERI4
 70
     0
  9
$USERI5
 70
     0
  9
$USERR1
 40
0.0
  9
$USERR2
 40
0.0
  9
$USERR3
 40
0.0
  9
$USERR4
 40
0.0
  9
$USERR5
 40
0.0
  9
$WORLDVIEW
 70
     1
  9
$SHADEDGE
 70
     3
  9
$SHADEDIF
 70
    70
  9
$TILEMODE
 70
     1
  9
$MAXACTVP
 70
    16
  9
$PLIMCHECK
 70
     0
  9
$PEXTMIN
 10
1.0000000000000000E+020
 20
1.0000000000000000E+020
 30
1.0000000000000000E+020
  9
$PEXTMAX
 10
-1.0000000000000000E+020
 20
-1.0000000000000000E+020
 30
-1.0000000000000000E+020
  9
$PLIMMIN
 10
0.0
 20
0.0
  9
$PLIMMAX
 10
420.0
 20
297.0
  9
$UNITMODE
 70
     0
  9
$VISRETAIN
 70
     1
  9
$PLINEGEN
 70
     0
  9
$PSLTSCALE
 70
     1
  0
ENDSEC
  0
SECTION
  2
TABLES
  0
TABLE
  2
VPORT
 70
     1
  0
VPORT
  2
*ACTIVE
 70
     0
 10
0.0
 20
0.0
 11
1.0
 21
1.0
 12
-2.8146588649040321
 22
7.8400358515723658
 13
0.0
 23
0.0
 14
7.0
 24
7.0
 15
7.0
 25
7.0
 16
0.0
 26
0.0
 36
1.0
 17
0.0
 27
0.0
 37
0.0
 40
170.00866099122689
 41
1.5644444444444441
 42
50.0
 43
0.0
 44
0.0
 50
0.0
 51
0.0
 71
     0
 72
  2000
 73
     1
 74
     0
 75
     0
 76
     1
 77
     0
 78
     0
  0
ENDTAB
  0
TABLE
  2
LTYPE
 70
    18
  0
LTYPE
  2
CONTINUOUS
 70
     0
  3
Solid line
 72
    65
 73
     0
 40
0.0
  0
LTYPE
  2
CENTER2
 70
     0
  3
___ _ ___ _ ___ _ ___ _ ___ _ ___ _ ___ _ ___ _
 72
    65
 73
     4
 40
1.125
 49
0.75
 49
-0.125
 49
0.125
 49
-0.125
  0
LTYPE
  2
HIDDEN2
 70
     0
  3
_ _ _ _ _ _ _ _ _ _ _ _ _ _ _ _ _ _ _ _ _ _ _ _
 72
    65
 73
     2
 40
0.1875
 49
0.125
 49
-0.0625
  0
LTYPE
  2
AM_ISO02W050
 70
     0
  3
__ __ __ __ __ __ __ __ __ __ __ __ __ __ __
 72
    65
 73
     2
 40
7.5
 49
6.0
 49
-1.5
  0
LTYPE
  2
AMCONSTR
 70
     0
  3
_______________________
 72
    65
 73
     2
 40
9999.0
 49
9999.0
 49
0.0
  0
LTYPE
  2
ACISOWELD
 70
     0
  3
_ _ _ _ _
 72
    65
 73
     2
 40
2.0
 49
2.0
 49
-1.0
  0
LTYPE
  2
ACISOTGB
 70
     0
  3
__ . . __ . .
 72
    65
 73
     6
 40
9.0
 49
4.0
 49
-1.0
 49
1.0
 49
-1.0
 49
1.0
 49
-1.0
  0
LTYPE
  2
ACISOTGL
 70
     0
  3
_ _ _ _ _
 72
    65
 73
     2
 40
3.0
 49
2.0
 49
-1.0
  0
LTYPE
  2
AM_ISO08W050
 70
     0
  3
____ . ____ . ____ . ____ . ____ . ____ . ____
 72
    65
 73
     4
 40
18.0
 49
12.0
 49
-1.5
 49
3.0
 49
-1.5
  0
LTYPE
  2
AM_ISO09W050
 70
     0
  3
_____ . . _____ . . _____ . . ____ .. ____
 72
    65
 73
     6
 40
22.5
 49
12.0
 49
-1.5
 49
3.0
 49
-1.5
 49
3.0
 49
-1.5
  0
LTYPE
  2
AM_ISO08W050X2
 70
     0
  3
__ . __ . __ . __ . __ . __
 72
    65
 73
     4
 40
9.0
 49
6.0
 49
-0.75
 49
1.5
 49
-0.75
  0
LTYPE
  2
AM_ISO02W050X2
 70
     0
  3
 _ _ _ _ _ _ _ _ _ _ _ _
 72
    65
 73
     2
 40
3.75
 49
3.0
 49
-0.75
  0
LTYPE
  2
AMZIGZAG
 70
     0
  3
/\/-/\/-/\/-/\/-/\/-/\/
 72
    65
 73
     2
 40
11.0001
 49
0.0001
 49
-11.0
  0
ENDTAB
  0
TABLE
  2
LAYER
 70
    10
  0
LAYER
  2
0
 70
     0
 62
     7
  6
CONTINUOUS
  0
LAYER
  2
DEFPOINTS
 70
     0
 62
     7
  6
CONTINUOUS
  0
LAYER
  2
245
 70
     0
 62
     2
  6
CENTER2
  0
LAYER
  2
240
 70
     0
 62
     4
  6
CONTINUOUS
  0
LAYER
  2
241
 70
     0
 62
   211
  6
CONTINUOUS
  0
LAYER
  2
242
 70
     0
 62
     3
  6
CONTINUOUS
  0
LAYER
  2
243
 70
     0
 62
   211
  6
HIDDEN2
  0
LAYER
  2
244
 70
     0
 62
     3
  6
HIDDEN2
  0
LAYER
  2
247
 70
     0
 62
    60
  6
CONTINUOUS
  0
LAYER
  2
250
 70
     0
 62
     3
  6
CONTINUOUS
  0
ENDTAB
  0
TABLE
  2
STYLE
 70
     7
  0
STYLE
  2
STANDARD
 70
     0
 40
0.0
 41
1.0
 50
0.0
 71
     0
 42
3.0
  3
romans.shx
  4
extfont.shx
  0
STYLE
  2
ACISOGDT
 70
     0
 40
0.0
 41
1.0
 50
0.0
 71
     0
 42
3.0
  3
amgdt.shx
  4
extfont.shx
  0
STYLE
  2
YOKO
 70
     0
 40
0.0
 41
1.0
 50
0.0
 71
     0
 42
3.0
  3
romans.shx
  4
extfont.shx
  0
STYLE
  2

 70
     1
 40
0.0
 41
1.0
 50
0.0
 71
     0
 42
3.0
  3
genltshp.shx
  4

  0
ENDTAB
  0
TABLE
  2
VIEW
 70
     0
  0
ENDTAB
  0
TABLE
  2
UCS
 70
     0
  0
ENDTAB
  0
TABLE
  2
APPID
 70
    39
  0
APPID
  2
ACAD
 70
     0
  0
APPID
  2
GLOBAL
 70
     0
  0
APPID
  2
DETAIL
 70
     0
  0
APPID
  2
GRPNAME
 70
     0
  0
APPID
  2
GPARA
 70
     0
  0
APPID
  2
MCAD_NO_VIS
 70
     0
  0
APPID
  2
ACAD_TEMP_GRAPHIC
 70
     0
  0
APPID
  2
ACATTRIBSERVICES
 70
     0
  0
APPID
  2
GENIUS_GENSCREG_15
 70
     0
  0
APPID
  2
GENIUS_GENODEF_13
 70
     0
  0
APPID
  2
GENIUS_GENOBJ-N-SDF_13
 70
     0
  0
APPID
  2
GENIUS_GENREC_14
 70
     0
  0
APPID
  2
GENIUS_GENOBJ-N-REC_13
 70
     0
  0
APPID
  2
GENIUS_GENDIMSH_14
 70
     0
  0
APPID
  2
GENIUS_GENOBJ-N-DIM_13
 70
     0
  0
APPID
  2
GENIUS_GENDIM_13
 70
     0
  0
APPID
  2
GENIUS_GENDTOL_13
 70
     0
  0
APPID
  2
GENIUS_GENOLIS_13
 70
     0
  0
APPID
  2
GENIUS_GENOENT_13
 70
     0
  0
APPID
  2
GENIUS_GENOBJ-F-FEM_13
 70
     0
  0
APPID
  2
GENIUS_GENOREF_13
 70
     0
  0
APPID
  2
GENIUS_GEFFEM_13
 70
     0
  0
APPID
  2
GENIUS_GEFFEMP_13
 70
     0
  0
APPID
  2
AD_DRAW
 70
     0
  0
APPID
  2
DESIGNERASSEMBLIES
 70
     0
  0
APPID
  2
ACADM_DIM_EDIT
 70
     0
  0
APPID
  2
AMDT_DM_ADJ
 70
     0
  0
APPID
  2
ITEMNAME
 70
     0
  0
APPID
  2
GENIUS_GENOBJ-N-FIL_13
 70
     0
  0
APPID
  2
GENIUS_GENFIL_13
 70
     0
  0
APPID
  2
GENIUS_GENOBJ-N-CHA_13
 70
     0
  0
APPID
  2
ACAECLAYERSTANDARD
 70
     0
  0
APPID
  2
ACAD_NAV_VCDISPLAY
 70
     0
  0
APPID
  2
GENIUS_GENOBJ-N-CRS_13
 70
     0
  0
APPID
  2
ACAD_DSTYLE_DIMJAG
 70
     0
  0
APPID
  2
ACAD_DSTYLE_DIMBREAK
 70
     0
  0
APPID
  2
ACAD_EXEMPT_FROM_CAD_STANDARDS
 70
     0
  0
APPID
  2
ACAD_DSTYLE_DIMINSPECT
 70
     0
  0
APPID
  2
ACAD_MLEADERVER
 70
     0
  0
ENDTAB
  0
TABLE
  2
DIMSTYLE
 70
    24
  0
DIMSTYLE
  2
BIGT
 70
     0
  3

  4

  5
OPEN
  6

  7

 40
1.0
 41
2.2299999999999991
 42
0.5
 43
7.0
 44
1.0
 45
0.0
 46
0.0
 47
0.0
 48
0.01
140
2.7999999999999989
141
0.0
142
0.0
143
25.399999999999999
144
1.0
145
0.0
146
1.0
147
1.0
 71
     0
 72
     0
 73
     0
 74
     0
 75
     0
 76
     0
 77
     3
 78
     9
170
     0
171
     2
172
     1
173
     0
174
     1
175
     0
176
   256
177
   256
178
    40
  0
DIMSTYLE
  2
AM_ISO
 70
     0
  3

  4
"
  5

  6

  7

 40
1.0
 41
2.5
 42
1.0
 43
10.0
 44
1.0
 45
0.0
 46
0.0
 47
0.1
 48
0.1
140
3.5
141
0.0
142
0.0
143
0.0393701
144
1.0
145
0.0
146
0.71
147
1.5
 71
     0
 72
     0
 73
     0
 74
     0
 75
     0
 76
     0
 77
     1
 78
     8
170
     0
171
     2
172
     1
173
     0
174
     0
175
     0
176
   256
177
   256
178
     2
  0
DIMSTYLE
  2
AM_ISO$3
 70
     0
  3

  4
"
  5

  6

  7

 40
1.0
 41
2.5
 42
1.0
 43
10.0
 44
1.0
 45
0.0
 46
0.0
 47
0.1
 48
0.1
140
3.5
141
0.0
142
0.0
143
0.0393701
144
1.0
145
0.0
146
0.71
147
1.5
 71
     0
 72
     0
 73
     0
 74
     1
 75
     0
 76
     0
 77
     1
 78
     8
170
     0
171
     2
172
     0
173
     0
174
     0
175
     0
176
   256
177
   256
178
     2
  0
DIMSTYLE
  2
AM_ISO$4
 70
     0
  3

  4
"
  5

  6

  7

 40
1.0
 41
2.5
 42
1.0
 43
10.0
 44
1.0
 45
0.0
 46
0.0
 47
0.1
 48
0.1
140
3.5
141
0.0
142
0.0
143
0.0393701
144
1.0
145
0.0
146
0.71
147
1.5
 71
     0
 72
     0
 73
     0
 74
     1
 75
     0
 76
     0
 77
     1
 78
     8
170
     0
171
     2
172
     0
173
     0
174
     0
175
     0
176
   256
177
   256
178
     2
  0
DIMSTYLE
  2
AM_ISO$6
 70
     0
  3

  4
"
  5

  6

  7

 40
1.0
 41
2.5
 42
1.0
 43
10.0
 44
1.0
 45
0.0
 46
0.0
 47
0.1
 48
0.1
140
3.5
141
0.0
142
0.0
143
0.0393701
144
1.0
145
0.0
146
0.71
147
1.5
 71
     0
 72
     0
 73
     0
 74
     0
 75
     0
 76
     0
 77
     0
 78
     8
170
     0
171
     2
172
     1
173
     0
174
     0
175
     0
176
   256
177
   256
178
     2
  0
DIMSTYLE
  2
AM_ISO$7
 70
     0
  3

  4
"
  5

  6

  7

 40
1.0
 41
2.5
 42
1.0
 43
10.0
 44
1.0
 45
0.0
 46
0.0
 47
0.1
 48
0.1
140
5.0
141
0.0
142
0.0
143
0.0393701
144
1.0
145
0.0
146
0.71
147
1.5
 71
     0
 72
     0
 73
     0
 74
     0
 75
     0
 76
     0
 77
     1
 78
     8
170
     0
171
     2
172
     1
173
     0
174
     0
175
     0
176
   256
177
   256
178
     2
  0
DIMSTYLE
  2
AM_ISO$SF
 70
     0
  3

  4
"
  5

  6

  7

 40
1.0
 41
2.5
 42
1.0
 43
10.0
 44
1.0
 45
0.0
 46
0.0
 47
0.1
 48
0.1
140
3.5
141
0.0
142
0.0
143
0.0393701
144
1.0
145
0.0
146
0.71
147
1.5
 71
     0
 72
     0
 73
     0
 74
     0
 75
     1
 76
     1
 77
     1
 78
     8
170
     0
171
     2
172
     1
173
     0
174
     0
175
     0
176
   256
177
   256
178
     2
  0
DIMSTYLE
  2
AM_ISO$SH
 70
     0
  3

  4
"
  5

  6
GENAXEH
  7

 40
1.0
 41
2.5
 42
1.0
 43
10.0
 44
1.0
 45
0.0
 46
0.0
 47
0.1
 48
0.1
140
3.5
141
0.0
142
0.0
143
0.0393701
144
2.0
145
0.0
146
0.71
147
1.5
 71
     0
 72
     0
 73
     0
 74
     0
 75
     1
 76
     1
 77
     1
 78
     8
170
     0
171
     2
172
     1
173
     1
174
     0
175
     0
176
   256
177
   256
178
     2
  0
DIMSTYLE
  2
STANDARD
 70
     0
  3

  4

  5

  6

  7

 40
1.0
 41
2.0
 42
2.0
 43
3.75
 44
2.0
 45
0.0
 46
0.0
 47
0.0
 48
0.0
140
4.0
141
0.09
142
0.0
143
25.399999999999999
144
1.0
145
0.0
146
1.0
147
1.0
 71
     0
 72
     0
 73
     1
 74
     1
 75
     0
 76
     0
 77
     0
 78
     8
170
     0
171
     2
172
     0
173
     1
174
     0
175
     0
176
   256
177
   256
178
   256
  0
ENDTAB
  0
ENDSEC
  0
SECTION
  2
BLOCKS
  0
BLOCK
  8
0
  2
$MODEL_SPACE
 70
     0
 10
0.0
 20
0.0
 30
0.0
  3
$MODEL_SPACE
  1

  0
ENDBLK
  5
1C
  8
0
  0
BLOCK
 67
     1
  8
0
  2
$PAPER_SPACE
 70
     0
 10
0.0
 20
0.0
 30
0.0
  3
$PAPER_SPACE
  1

  0
ENDBLK
  5
19
 67
     1
  8
0
  0
BLOCK
  8
0
  2
_OPEN
 70
     0
 10
0.0
 20
0.0
 30
0.0
  3
_OPEN
  1

  0
LINE
  5
3E1A
  8
0
  6
BYBLOCK
 62
     0
 10
-1.0
 20
0.1666666666666666
 30
0.0
 11
0.0
 21
0.0
 31
0.0
  0
LINE
  5
3E1B
  8
0
  6
BYBLOCK
 62
     0
 10
-1.0
 20
-0.1666666666666666
 30
0.0
 11
0.0
 21
0.0
 31
0.0
  0
LINE
  5
3E1C
  8
0
  6
BYBLOCK
 62
     0
 10
0.0
 20
0.0
 30
0.0
 11
-1.0
 21
0.0
 31
0.0
  0
ENDBLK
  5
3E1D
  8
0
  0
BLOCK
  8
0
  2
GENAXEH
 70
     0
 10
0.0
 20
0.0
 30
0.0
  3
GENAXEH
  1

  0
LINE
  5
3E45
  8
0
 10
-1.0
 20
0.0
 30
0.0
 11
1.0
 21
0.0
 31
0.0
  0
ENDBLK
  5
3E46
  8
0
  0
ENDSEC
  0
SECTION
  2
ENTITIES
  0
TEXT
  5
42BF
  8
241
  6
CONTINUOUS
 10
-90.706710985125014
 20
56.0
 30
0.0
 40
7.5
  1
MGT36-AU1.1/8-2.5
  7
YOKO
  0
LINE
  5
42C0
  8
245
  6
CENTER2
 10
-66.000000000001819
 20
19.999999999996358
 30
0.0
 11
-66.000000000005471
 21
-19.999999999996358
 31
0.0
1001
GENIUS_GENOREF_13
1005
433C
  0
LINE
  5
42C1
  8
241
  6
CONTINUOUS
 10
-42.500000000005457
 20
-19.800000000004719
 30
0.0
 11
-42.500000000005457
 21
19.800000000004719
 31
0.0
  0
LINE
  5
42C2
  8
241
  6
CONTINUOUS
 10
-45.000000000005457
 20
-19.800000000004719
 30
0.0
 11
-45.000000000001812
 21
19.800000000004719
 31
0.0
  0
LINE
  5
42C3
  8
241
  6
CONTINUOUS
 10
-9.0000000000018172
 20
-20.000000000002451
 30
0.0
 11
-9.0000000000018172
 21
20.000000000002451
 31
0.0
  0
LINE
  5
42C4
  8
240
  6
CONTINUOUS
 10
-9.0000000000018172
 20
26.49999999999654
 30
0.0
 11
-7.6262612902781219
 21
26.999999999994539
 31
0.0
  0
LINE
  5
42C5
  8
240
  6
CONTINUOUS
 10
0.0000000000014212
 20
26.999999999994539
 30
0.0
 11
-7.6262612902781219
 21
26.999999999994539
 31
0.0
  0
LINE
  5
42C6
  8
240
  6
CONTINUOUS
 10
-51.500000000020009
 20
20.0
 30
0.0
 11
-9.0000000000018172
 21
20.000000000002451
 31
0.0
  0
LINE
  5
42C7
  8
240
  6
CONTINUOUS
 10
-55.000000000020009
 20
16.5
 30
0.0
 11
-51.500000000020009
 21
20.0
 31
0.0
  0
LINE
  5
42C8
  8
240
  6
CONTINUOUS
 10
-55.000000000020009
 20
16.5
 30
0.0
 11
-66.000000000005471
 21
16.5
 31
0.0
  0
LINE
  5
42C9
  8
240
  6
CONTINUOUS
 10
-76.999999999987267
 20
16.499999999998181
 30
0.0
 11
-66.000000000001819
 21
16.499999999972712
 31
0.0
  0
LINE
  5
42CA
  8
240
  6
CONTINUOUS
 10
-76.999999999987267
 20
16.499999999998181
 30
0.0
 11
-80.499999999995453
 21
20.000000000002728
 31
0.0
  0
LINE
  5
42CB
  8
245
  6
CENTER2
 10
-92.220854310484356
 20
0.0
 30
0.0
 11
68.112823223807155
 21
0.0
 31
0.0
  0
LINE
  5
42CC
  8
241
  6
CONTINUOUS
 10
-0.0000000000018435
 20
26.999999999994539
 30
0.0
 11
0.0000000000018435
 21
-26.999999999994539
 31
0.0
  0
LINE
  5
42CD
  8
241
  6
CONTINUOUS
 10
-7.6262612902773981
 20
26.999999999994539
 30
0.0
 11
-7.6262612902773981
 21
-26.999999999994088
 31
0.0
  0
LINE
  5
42CE
  8
241
  6
CONTINUOUS
 10
-29.000000000005461
 20
-19.80000000000382
 30
0.0
 11
-29.000000000005461
 21
19.800000000004271
 31
0.0
  0
LINE
  5
42CF
  8
241
  6
CONTINUOUS
 10
-31.500000000001808
 20
-19.80000000000382
 30
0.0
 11
-31.500000000001808
 21
19.800000000004271
 31
0.0
  0
LINE
  5
42D0
  8
240
  6
CONTINUOUS
 10
-9.0000000000018172
 20
-26.499999999996561
 30
0.0
 11
-7.6262612902781202
 21
-26.999999999994539
 31
0.0
  0
LINE
  5
42D1
  8
240
  6
CONTINUOUS
 10
0.0000000000014211
 20
-26.999999999994539
 30
0.0
 11
-7.6262612902781202
 21
-26.999999999994539
 31
0.0
  0
LINE
  5
42D2
  8
240
  6
CONTINUOUS
 10
-55.000000000020009
 20
-16.5
 30
0.0
 11
-51.500000000020009
 21
-20.0
 31
0.0
  0
LINE
  5
42D3
  8
240
  6
CONTINUOUS
 10
-55.000000000020009
 20
-16.5
 30
0.0
 11
-66.000000000005471
 21
-16.5
 31
0.0
  0
LINE
  5
42D4
  8
240
  6
CONTINUOUS
 10
-76.999999999987267
 20
-16.499999999998181
 30
0.0
 11
-66.000000000001819
 21
-16.499999999972712
 31
0.0
  0
LINE
  5
42D5
  8
240
  6
CONTINUOUS
 10
-76.999999999987267
 20
-16.499999999998181
 30
0.0
 11
-80.499999999990905
 21
-19.999999999998181
 31
0.0
  0
LINE
  5
42D6
  8
240
  6
CONTINUOUS
 10
-51.500000000020009
 20
-20.0
 30
0.0
 11
-9.0000000000018172
 21
-20.000000000002451
 31
0.0
  0
LINE
  5
42D7
  8
240
  6
CONTINUOUS
 10
-90.000000000000824
 20
20.000000000002728
 30
0.0
 11
-90.000000000002771
 21
-20.000000000001361
 31
0.0
  0
LINE
  5
42D8
  8
240
  6
CONTINUOUS
 10
-90.000000000000824
 20
20.000000000002728
 30
0.0
 11
-80.499999999995453
 21
20.000000000002728
 31
0.0
  0
LINE
  5
42D9
  8
240
  6
CONTINUOUS
 10
-90.000000000002771
 20
-20.000000000001361
 30
0.0
 11
-80.499999999995453
 21
-20.000000000001361
 31
0.0
  0
LINE
  5
42DA
  8
240
  6
CONTINUOUS
 10
-9.0000000000018172
 20
20.000000000002451
 30
0.0
 11
-9.0000000000018172
 21
26.49999999999654
 31
0.0
  0
LINE
  5
42DB
  8
240
  6
CONTINUOUS
 10
-9.0000000000018172
 20
-20.000000000002451
 30
0.0
 11
-9.0000000000018172
 21
-26.499999999996561
 31
0.0
  0
LINE
  5
42DC
  8
247
  6
CONTINUOUS
 10
10.97423603598503
 20
-16.75000000000356
 30
0.0
 11
10.974236035985079
 21
-12.115384615673589
 31
0.0
  0
LINE
  5
42DD
  8
247
  6
CONTINUOUS
 10
8.4742360359850863
 20
-15.954893499991501
 30
0.0
 11
10.574236035901089
 21
-16.557058810060919
 31
0.0
  0
LINE
  5
42DE
  8
247
  6
CONTINUOUS
 10
9.4703898820990844
 20
-15.32515140352259
 30
0.0
 11
9.4703898820990844
 21
-16.240536018870579
 31
0.0
  0
ARC
  5
42DF
  8
247
  6
CONTINUOUS
 10
8.858955103279186
 20
-15.087263401950359
 30
0.0
 40
0.3876715809326743
 50
72.997889675291987
 51
172.92416621851271
  0
ARC
  5
42E0
  8
247
  6
CONTINUOUS
 10
8.7794591670131013
 20
-15.382477556807659
 30
0.0
 40
0.6933047965358772
 50
4.7429368522013959
 51
73.849226273266481
1001
GENIUS_GENOBJ-N-FIL_13
1002
{
1000
OWNER
1000
GEN
1002
}
1001
GENIUS_GENODEF_13
1002
{
1000
HIER
1070
     0
1002
}
1002
{
1000
MANEDIT
1070
     0
1002
}
1002
{
1000
NOSEL
1070
     0
1002
}
1002
{
1000
BEHIND
1070
     0
1002
}
1002
{
1000
OTHER
1070
     0
1002
}
1002
{
1000
REACTOR
1002
}
  0
LINE
  5
42E1
  8
247
  6
CONTINUOUS
 10
10.574236035901089
 20
-15.641674194712911
 30
0.0
 11
10.574236035901089
 21
-16.557058810060919
 31
0.0
  0
LINE
  5
42E2
  8
247
  6
CONTINUOUS
 10
8.4742360359850863
 20
-15.95489349999151
 30
0.0
 11
8.4742360359850863
 21
-15.039508884643499
 31
0.0
  0
ARC
  5
42E3
  8
247
  6
CONTINUOUS
 10
9.8616529987529571
 20
-15.37830647627039
 30
0.0
 40
0.394857301075386
 50
65.990941652528775
 51
172.2634434590698
  0
ARC
  5
42E4
  8
247
  6
CONTINUOUS
 10
9.8654363633176558
 20
-15.712446610430471
 30
0.0
 40
0.7123241612361686
 50
5.7019851642581392
 51
77.27733843682222
1001
GENIUS_GENOBJ-N-FIL_13
1002
{
1000
OWNER
1000
GEN
1002
}
1001
GENIUS_GENODEF_13
1002
{
1000
HIER
1070
     0
1002
}
1002
{
1000
MANEDIT
1070
     0
1002
}
1002
{
1000
NOSEL
1070
     0
1002
}
1002
{
1000
BEHIND
1070
     0
1002
}
1002
{
1000
OTHER
1070
     0
1002
}
1002
{
1000
REACTOR
1002
}
  0
LINE
  5
42E5
  8
247
  6
CONTINUOUS
 10
10.574236035901089
 20
-14.683981887066929
 30
0.0
 11
8.4742360359850863
 21
-14.08181657699752
 31
0.0
  0
LINE
  5
42E6
  8
247
  6
CONTINUOUS
 10
8.4742360359850863
 20
-12.585662730911521
 30
0.0
 11
8.4742360359850863
 21
-12.98167836430714
 31
0.0
  0
LINE
  5
42E7
  8
247
  6
CONTINUOUS
 10
10.574236035901089
 20
-13.60873965394752
 30
0.0
 11
10.574236035901089
 21
-13.17797042319553
 31
0.0
  0
ARC
  5
42E8
  8
247
  6
CONTINUOUS
 10
9.9325356310684452
 20
-12.38181657707351
 30
0.0
 40
1.576855057639547
 50
202.35948814152749
 51
254.99324854284589
  0
ARC
  5
42E9
  8
247
  6
CONTINUOUS
 10
9.0400548945232231
 20
-12.84751136613678
 30
0.0
 40
0.6234706797009447
 50
94.994589319075374
 51
155.16632895730319
1001
GENIUS_GENOBJ-N-FIL_13
1002
{
1000
OWNER
1000
GEN
1002
}
1001
GENIUS_GENODEF_13
1002
{
1000
HIER
1070
     0
1002
}
1002
{
1000
MANEDIT
1070
     0
1002
}
1002
{
1000
NOSEL
1070
     0
1002
}
1002
{
1000
BEHIND
1070
     0
1002
}
1002
{
1000
OTHER
1070
     0
1002
}
1002
{
1000
REACTOR
1002
}
  0
ARC
  5
42EA
  8
247
  6
CONTINUOUS
 10
9.6363381579545262
 20
-13.444183951036329
 30
0.0
 40
0.9749472149106983
 50
15.846096555779839
 51
82.325137004169108
  0
ARC
  5
42EB
  8
247
  6
CONTINUOUS
 10
9.8457064379561512
 20
-13.03521163877577
 30
0.0
 40
0.9271945638692009
 50
249.71360167049701
 51
321.7887456564099
1001
GENIUS_GENOBJ-N-FIL_13
1002
{
1000
OWNER
1000
GEN
1002
}
1001
GENIUS_GENODEF_13
1002
{
1000
HIER
1070
     0
1002
}
1002
{
1000
MANEDIT
1070
     0
1002
}
1002
{
1000
NOSEL
1070
     0
1002
}
1002
{
1000
BEHIND
1070
     0
1002
}
1002
{
1000
OTHER
1070
     0
1002
}
1002
{
1000
REACTOR
1002
}
  0
LINE
  5
42EC
  8
247
  6
CONTINUOUS
 10
9.7665437282410608
 20
-12.96258580781952
 30
0.0
 11
9.7665437282410608
 21
-12.477970423223519
 31
0.0
  0
ARC
  5
42ED
  8
247
  6
CONTINUOUS
 10
9.7242360359850863
 20
-16.75000000000356
 30
0.0
 40
1.25
 50
180.0
 51
0.0
  0
LINE
  5
42EE
  8
247
  6
CONTINUOUS
 10
8.4742360359850863
 20
-16.75000000000356
 30
0.0
 11
8.4742360359850863
 21
-16.303846153917561
 31
0.0
  0
ARC
  5
42EF
  8
247
  6
CONTINUOUS
 10
9.7242360359850863
 20
-12.11538461567357
 30
0.0
 40
1.25
 50
0.0
 51
180.0
  0
POINT
  5
433C
  8
0
 10
-15041.480041667361
 20
9982.2519074072643
 30
0.0
1001
GENIUS_GENOLIS_13
1002
{
1000
ENT
1005
0
1005
0
1005
42C0
1005
0
1002
}
1001
GENIUS_GENOENT_13
1002
{
1000
MYREF
1005
433C
1002
}
1002
{
1000
GRP
1005
0
1002
}
1001
GENIUS_GENOBJ-N-CRS_13
1002
{
1000
OWNER
1000
GEN
1002
}
1001
GENIUS_GENODEF_13
1002
{
1000
HIER
1070
    10
1002
}
1002
{
1000
MANEDIT
1070
     1
1002
}
1002
{
1000
NOSEL
1070
     0
1002
}
1002
{
1000
BEHIND
1070
     0
1002
}
1002
{
1000
OTHER
1070
     0
1002
}
1002
{
1000
REACTOR
1002
}
  0
LINE
  5
435C
  8
240
  6
CONTINUOUS
 10
1.275121720060618
 20
-22.24118095489743
 30
0.0
 11
0.0000000000014211
 21
-26.999999999994539
 31
0.0
  0
LINE
  5
435D
  8
240
  6
CONTINUOUS
 10
1.2751217200605529
 20
22.241180954897668
 30
0.0
 11
0.0000000000014211
 21
26.999999999994539
 31
0.0
  0
LINE
  5
435E
  8
240
  6
CONTINUOUS
 10
2.241047546349701
 20
-21.499999999999869
 30
0.0
 11
63.499999999995438
 21
-21.499999999999471
 31
0.0
  0
LINE
  5
435F
  8
240
  6
CONTINUOUS
 10
2.24104754634963
 20
21.50000000000011
 30
0.0
 11
63.500000000006878
 21
21.499999999999311
 31
0.0
  0
LINE
  5
4360
  8
241
  6
CONTINUOUS
 10
43.499999999964501
 20
21.500000000000089
 30
0.0
 11
43.499999999964267
 21
-21.499999999999599
 31
0.0
  0
LINE
  5
4361
  8
241
  6
CONTINUOUS
 10
41.899999999958681
 20
21.50080139838391
 30
0.0
 11
41.899999999958681
 21
-21.499999999999609
 31
0.0
  0
LINE
  5
4362
  8
241
  6
CONTINUOUS
 10
40.499999999964267
 20
21.500801398375671
 30
0.0
 11
40.499999999964722
 21
-21.49999999999962
 31
0.0
  0
LINE
  5
4363
  8
241
  6
CONTINUOUS
 10
38.899999999958567
 20
21.499999999999631
 30
0.0
 11
38.899999999958787
 21
-21.499999999999631
 31
0.0
  0
POLYLINE
  5
4364
  8
241
  6
CONTINUOUS
 10
47.12500000000481
 20
15.01511748334118
 30
0.0
 66
     1
 70
     8
  0
VERTEX
  8
241
  5
45E5
 10
47.1250
 20
15.0151
 30
0.000000
  70
    32
  0
VERTEX
  8
241
  5
45E6
 10
47.1291
 20
14.8980
 30
0.000000
  70
    32
  0
VERTEX
  8
241
  5
45E7
 10
47.1413
 20
14.7812
 30
0.000000
  70
    32
  0
VERTEX
  8
241
  5
45E8
 10
47.1615
 20
14.6649
 30
0.000000
  70
    32
  0
VERTEX
  8
241
  5
45E9
 10
47.1898
 20
14.5495
 30
0.000000
  70
    32
  0
VERTEX
  8
241
  5
45EA
 10
47.2261
 20
14.4352
 30
0.000000
  70
    32
  0
VERTEX
  8
241
  5
45EB
 10
47.2703
 20
14.3224
 30
0.000000
  70
    32
  0
VERTEX
  8
241
  5
45EC
 10
47.3223
 20
14.2111
 30
0.000000
  70
    32
  0
VERTEX
  8
241
  5
45ED
 10
47.3819
 20
14.1018
 30
0.000000
  70
    32
  0
VERTEX
  8
241
  5
45EE
 10
47.4490
 20
13.9948
 30
0.000000
  70
    32
  0
VERTEX
  8
241
  5
45EF
 10
47.5235
 20
13.8901
 30
0.000000
  70
    32
  0
VERTEX
  8
241
  5
45F0
 10
47.6052
 20
13.7882
 30
0.000000
  70
    32
  0
VERTEX
  8
241
  5
45F1
 10
47.6938
 20
13.6893
 30
0.000000
  70
    32
  0
VERTEX
  8
241
  5
45F2
 10
47.7892
 20
13.5935
 30
0.000000
  70
    32
  0
VERTEX
  8
241
  5
45F3
 10
47.8911
 20
13.5011
 30
0.000000
  70
    32
  0
VERTEX
  8
241
  5
45F4
 10
47.9993
 20
13.4125
 30
0.000000
  70
    32
  0
VERTEX
  8
241
  5
45F5
 10
48.1135
 20
13.3276
 30
0.000000
  70
    32
  0
VERTEX
  8
241
  5
45F6
 10
48.2335
 20
13.2468
 30
0.000000
  70
    32
  0
VERTEX
  8
241
  5
45F7
 10
48.3589
 20
13.1703
 30
0.000000
  70
    32
  0
VERTEX
  8
241
  5
45F8
 10
48.4895
 20
13.0983
 30
0.000000
  70
    32
  0
VERTEX
  8
241
  5
45F9
 10
48.6250
 20
13.0308
 30
0.000000
  70
    32
  0
VERTEX
  8
241
  5
45FA
 10
48.7649
 20
12.9682
 30
0.000000
  70
    32
  0
VERTEX
  8
241
  5
45FB
 10
48.9090
 20
12.9104
 30
0.000000
  70
    32
  0
VERTEX
  8
241
  5
45FC
 10
49.0570
 20
12.8578
 30
0.000000
  70
    32
  0
VERTEX
  8
241
  5
45FD
 10
49.2084
 20
12.8103
 30
0.000000
  70
    32
  0
VERTEX
  8
241
  5
45FE
 10
49.3630
 20
12.7681
 30
0.000000
  70
    32
  0
VERTEX
  8
241
  5
45FF
 10
49.5203
 20
12.7314
 30
0.000000
  70
    32
  0
VERTEX
  8
241
  5
4600
 10
49.6799
 20
12.7002
 30
0.000000
  70
    32
  0
VERTEX
  8
241
  5
4601
 10
49.8416
 20
12.6745
 30
0.000000
  70
    32
  0
VERTEX
  8
241
  5
4602
 10
50.0048
 20
12.6545
 30
0.000000
  70
    32
  0
VERTEX
  8
241
  5
4603
 10
50.1692
 20
12.6401
 30
0.000000
  70
    32
  0
VERTEX
  8
241
  5
4604
 10
50.3344
 20
12.6315
 30
0.000000
  70
    32
  0
VERTEX
  8
241
  5
4605
 10
50.5000
 20
12.6286
 30
0.000000
  70
    32
  0
VERTEX
  8
241
  5
4606
 10
50.6656
 20
12.6315
 30
0.000000
  70
    32
  0
VERTEX
  8
241
  5
4607
 10
50.8308
 20
12.6401
 30
0.000000
  70
    32
  0
VERTEX
  8
241
  5
4608
 10
50.9952
 20
12.6545
 30
0.000000
  70
    32
  0
VERTEX
  8
241
  5
4609
 10
51.1584
 20
12.6745
 30
0.000000
  70
    32
  0
VERTEX
  8
241
  5
460A
 10
51.3201
 20
12.7002
 30
0.000000
  70
    32
  0
VERTEX
  8
241
  5
460B
 10
51.4797
 20
12.7314
 30
0.000000
  70
    32
  0
VERTEX
  8
241
  5
460C
 10
51.6370
 20
12.7681
 30
0.000000
  70
    32
  0
VERTEX
  8
241
  5
460D
 10
51.7916
 20
12.8103
 30
0.000000
  70
    32
  0
VERTEX
  8
241
  5
460E
 10
51.9430
 20
12.8578
 30
0.000000
  70
    32
  0
VERTEX
  8
241
  5
460F
 10
52.0910
 20
12.9104
 30
0.000000
  70
    32
  0
VERTEX
  8
241
  5
4610
 10
52.2351
 20
12.9682
 30
0.000000
  70
    32
  0
VERTEX
  8
241
  5
4611
 10
52.3750
 20
13.0308
 30
0.000000
  70
    32
  0
VERTEX
  8
241
  5
4612
 10
52.5105
 20
13.0983
 30
0.000000
  70
    32
  0
VERTEX
  8
241
  5
4613
 10
52.6411
 20
13.1703
 30
0.000000
  70
    32
  0
VERTEX
  8
241
  5
4614
 10
52.7665
 20
13.2468
 30
0.000000
  70
    32
  0
VERTEX
  8
241
  5
4615
 10
52.8865
 20
13.3276
 30
0.000000
  70
    32
  0
VERTEX
  8
241
  5
4616
 10
53.0007
 20
13.4125
 30
0.000000
  70
    32
  0
VERTEX
  8
241
  5
4617
 10
53.1089
 20
13.5011
 30
0.000000
  70
    32
  0
VERTEX
  8
241
  5
4618
 10
53.2108
 20
13.5935
 30
0.000000
  70
    32
  0
VERTEX
  8
241
  5
4619
 10
53.3062
 20
13.6893
 30
0.000000
  70
    32
  0
VERTEX
  8
241
  5
461A
 10
53.3948
 20
13.7882
 30
0.000000
  70
    32
  0
VERTEX
  8
241
  5
461B
 10
53.4765
 20
13.8901
 30
0.000000
  70
    32
  0
VERTEX
  8
241
  5
461C
 10
53.5510
 20
13.9948
 30
0.000000
  70
    32
  0
VERTEX
  8
241
  5
461D
 10
53.6181
 20
14.1018
 30
0.000000
  70
    32
  0
VERTEX
  8
241
  5
461E
 10
53.6777
 20
14.2111
 30
0.000000
  70
    32
  0
VERTEX
  8
241
  5
461F
 10
53.7297
 20
14.3224
 30
0.000000
  70
    32
  0
VERTEX
  8
241
  5
4620
 10
53.7739
 20
14.4352
 30
0.000000
  70
    32
  0
VERTEX
  8
241
  5
4621
 10
53.8102
 20
14.5495
 30
0.000000
  70
    32
  0
VERTEX
  8
241
  5
4622
 10
53.8385
 20
14.6649
 30
0.000000
  70
    32
  0
VERTEX
  8
241
  5
4623
 10
53.8587
 20
14.7812
 30
0.000000
  70
    32
  0
VERTEX
  8
241
  5
4624
 10
53.8709
 20
14.8980
 30
0.000000
  70
    32
  0
VERTEX
  8
241
  5
4625
 10
53.8750
 20
15.0151
 30
0.000000
  70
    32
  0
VERTEX
  8
241
  5
4626
 10
53.8709
 20
15.1322
 30
0.000000
  70
    32
  0
VERTEX
  8
241
  5
4627
 10
53.8587
 20
15.2490
 30
0.000000
  70
    32
  0
VERTEX
  8
241
  5
4628
 10
53.8385
 20
15.3653
 30
0.000000
  70
    32
  0
VERTEX
  8
241
  5
4629
 10
53.8102
 20
15.4807
 30
0.000000
  70
    32
  0
VERTEX
  8
241
  5
462A
 10
53.7739
 20
15.5950
 30
0.000000
  70
    32
  0
VERTEX
  8
241
  5
462B
 10
53.7297
 20
15.7079
 30
0.000000
  70
    32
  0
VERTEX
  8
241
  5
462C
 10
53.6777
 20
15.8191
 30
0.000000
  70
    32
  0
VERTEX
  8
241
  5
462D
 10
53.6181
 20
15.9284
 30
0.000000
  70
    32
  0
VERTEX
  8
241
  5
462E
 10
53.5510
 20
16.0355
 30
0.000000
  70
    32
  0
VERTEX
  8
241
  5
462F
 10
53.4765
 20
16.1401
 30
0.000000
  70
    32
  0
VERTEX
  8
241
  5
4630
 10
53.3948
 20
16.2420
 30
0.000000
  70
    32
  0
VERTEX
  8
241
  5
4631
 10
53.3062
 20
16.3410
 30
0.000000
  70
    32
  0
VERTEX
  8
241
  5
4632
 10
53.2108
 20
16.4367
 30
0.000000
  70
    32
  0
VERTEX
  8
241
  5
4633
 10
53.1089
 20
16.5291
 30
0.000000
  70
    32
  0
VERTEX
  8
241
  5
4634
 10
53.0007
 20
16.6178
 30
0.000000
  70
    32
  0
VERTEX
  8
241
  5
4635
 10
52.8865
 20
16.7026
 30
0.000000
  70
    32
  0
VERTEX
  8
241
  5
4636
 10
52.7665
 20
16.7834
 30
0.000000
  70
    32
  0
VERTEX
  8
241
  5
4637
 10
52.6411
 20
16.8599
 30
0.000000
  70
    32
  0
VERTEX
  8
241
  5
4638
 10
52.5105
 20
16.9320
 30
0.000000
  70
    32
  0
VERTEX
  8
241
  5
4639
 10
52.3750
 20
16.9994
 30
0.000000
  70
    32
  0
VERTEX
  8
241
  5
463A
 10
52.2351
 20
17.0621
 30
0.000000
  70
    32
  0
VERTEX
  8
241
  5
463B
 10
52.0910
 20
17.1198
 30
0.000000
  70
    32
  0
VERTEX
  8
241
  5
463C
 10
51.9430
 20
17.1725
 30
0.000000
  70
    32
  0
VERTEX
  8
241
  5
463D
 10
51.7916
 20
17.2199
 30
0.000000
  70
    32
  0
VERTEX
  8
241
  5
463E
 10
51.6370
 20
17.2621
 30
0.000000
  70
    32
  0
VERTEX
  8
241
  5
463F
 10
51.4797
 20
17.2988
 30
0.000000
  70
    32
  0
VERTEX
  8
241
  5
4640
 10
51.3201
 20
17.3301
 30
0.000000
  70
    32
  0
VERTEX
  8
241
  5
4641
 10
51.1584
 20
17.3557
 30
0.000000
  70
    32
  0
VERTEX
  8
241
  5
4642
 10
50.9952
 20
17.3758
 30
0.000000
  70
    32
  0
VERTEX
  8
241
  5
4643
 10
50.8308
 20
17.3901
 30
0.000000
  70
    32
  0
VERTEX
  8
241
  5
4644
 10
50.6656
 20
17.3987
 30
0.000000
  70
    32
  0
VERTEX
  8
241
  5
4645
 10
50.5000
 20
17.4016
 30
0.000000
  70
    32
  0
VERTEX
  8
241
  5
4646
 10
50.3344
 20
17.3987
 30
0.000000
  70
    32
  0
VERTEX
  8
241
  5
4647
 10
50.1692
 20
17.3901
 30
0.000000
  70
    32
  0
VERTEX
  8
241
  5
4648
 10
50.0048
 20
17.3758
 30
0.000000
  70
    32
  0
VERTEX
  8
241
  5
4649
 10
49.8416
 20
17.3557
 30
0.000000
  70
    32
  0
VERTEX
  8
241
  5
464A
 10
49.6799
 20
17.3301
 30
0.000000
  70
    32
  0
VERTEX
  8
241
  5
464B
 10
49.5203
 20
17.2988
 30
0.000000
  70
    32
  0
VERTEX
  8
241
  5
464C
 10
49.3630
 20
17.2621
 30
0.000000
  70
    32
  0
VERTEX
  8
241
  5
464D
 10
49.2084
 20
17.2199
 30
0.000000
  70
    32
  0
VERTEX
  8
241
  5
464E
 10
49.0570
 20
17.1725
 30
0.000000
  70
    32
  0
VERTEX
  8
241
  5
464F
 10
48.9090
 20
17.1198
 30
0.000000
  70
    32
  0
VERTEX
  8
241
  5
4650
 10
48.7649
 20
17.0621
 30
0.000000
  70
    32
  0
VERTEX
  8
241
  5
4651
 10
48.6250
 20
16.9994
 30
0.000000
  70
    32
  0
VERTEX
  8
241
  5
4652
 10
48.4895
 20
16.9320
 30
0.000000
  70
    32
  0
VERTEX
  8
241
  5
4653
 10
48.3589
 20
16.8599
 30
0.000000
  70
    32
  0
VERTEX
  8
241
  5
4654
 10
48.2335
 20
16.7834
 30
0.000000
  70
    32
  0
VERTEX
  8
241
  5
4655
 10
48.1135
 20
16.7026
 30
0.000000
  70
    32
  0
VERTEX
  8
241
  5
4656
 10
47.9993
 20
16.6178
 30
0.000000
  70
    32
  0
VERTEX
  8
241
  5
4657
 10
47.8911
 20
16.5291
 30
0.000000
  70
    32
  0
VERTEX
  8
241
  5
4658
 10
47.7892
 20
16.4367
 30
0.000000
  70
    32
  0
VERTEX
  8
241
  5
4659
 10
47.6938
 20
16.3410
 30
0.000000
  70
    32
  0
VERTEX
  8
241
  5
465A
 10
47.6052
 20
16.2420
 30
0.000000
  70
    32
  0
VERTEX
  8
241
  5
465B
 10
47.5235
 20
16.1401
 30
0.000000
  70
    32
  0
VERTEX
  8
241
  5
465C
 10
47.4490
 20
16.0355
 30
0.000000
  70
    32
  0
VERTEX
  8
241
  5
465D
 10
47.3819
 20
15.9284
 30
0.000000
  70
    32
  0
VERTEX
  8
241
  5
465E
 10
47.3223
 20
15.8191
 30
0.000000
  70
    32
  0
VERTEX
  8
241
  5
465F
 10
47.2703
 20
15.7079
 30
0.000000
  70
    32
  0
VERTEX
  8
241
  5
4660
 10
47.2261
 20
15.5950
 30
0.000000
  70
    32
  0
VERTEX
  8
241
  5
4661
 10
47.1898
 20
15.4807
 30
0.000000
  70
    32
  0
VERTEX
  8
241
  5
4662
 10
47.1615
 20
15.3653
 30
0.000000
  70
    32
  0
VERTEX
  8
241
  5
4663
 10
47.1413
 20
15.2490
 30
0.000000
  70
    32
  0
VERTEX
  8
241
  5
4664
 10
47.1291
 20
15.1322
 30
0.000000
  70
    32
  0
VERTEX
  8
241
  5
4665
 10
47.1250
 20
15.0151
 30
0.000000
  70
    32
  0
SEQEND
  8
241
  5
4666
  0
POLYLINE
  5
4365
  8
242
  6
CONTINUOUS
 10
46.50000000000481
 20
14.97664406399158
 30
0.0
 66
     1
 70
     8
  0
VERTEX
  8
242
  5
4667
 10
46.5000
 20
14.9766
 30
0.000000
  70
    32
  0
VERTEX
  8
242
  5
4668
 10
46.5048
 20
14.8360
 30
0.000000
  70
    32
  0
VERTEX
  8
242
  5
4669
 10
46.5193
 20
14.6956
 30
0.000000
  70
    32
  0
VERTEX
  8
242
  5
466A
 10
46.5433
 20
14.5560
 30
0.000000
  70
    32
  0
VERTEX
  8
242
  5
466B
 10
46.5769
 20
14.4173
 30
0.000000
  70
    32
  0
VERTEX
  8
242
  5
466C
 10
46.6199
 20
14.2800
 30
0.000000
  70
    32
  0
VERTEX
  8
242
  5
466D
 10
46.6722
 20
14.1444
 30
0.000000
  70
    32
  0
VERTEX
  8
242
  5
466E
 10
46.7338
 20
14.0108
 30
0.000000
  70
    32
  0
VERTEX
  8
242
  5
466F
 10
46.8045
 20
13.8795
 30
0.000000
  70
    32
  0
VERTEX
  8
242
  5
4670
 10
46.8840
 20
13.7509
 30
0.000000
  70
    32
  0
VERTEX
  8
242
  5
4671
 10
46.9723
 20
13.6252
 30
0.000000
  70
    32
  0
VERTEX
  8
242
  5
4672
 10
47.0691
 20
13.5028
 30
0.000000
  70
    32
  0
VERTEX
  8
242
  5
4673
 10
47.1741
 20
13.3839
 30
0.000000
  70
    32
  0
VERTEX
  8
242
  5
4674
 10
47.2872
 20
13.2688
 30
0.000000
  70
    32
  0
VERTEX
  8
242
  5
4675
 10
47.4080
 20
13.1579
 30
0.000000
  70
    32
  0
VERTEX
  8
242
  5
4676
 10
47.5362
 20
13.0514
 30
0.000000
  70
    32
  0
VERTEX
  8
242
  5
4677
 10
47.6716
 20
12.9494
 30
0.000000
  70
    32
  0
VERTEX
  8
242
  5
4678
 10
47.8138
 20
12.8524
 30
0.000000
  70
    32
  0
VERTEX
  8
242
  5
4679
 10
47.9624
 20
12.7605
 30
0.000000
  70
    32
  0
VERTEX
  8
242
  5
467A
 10
48.1172
 20
12.6739
 30
0.000000
  70
    32
  0
VERTEX
  8
242
  5
467B
 10
48.2777
 20
12.5929
 30
0.000000
  70
    32
  0
VERTEX
  8
242
  5
467C
 10
48.4436
 20
12.5176
 30
0.000000
  70
    32
  0
VERTEX
  8
242
  5
467D
 10
48.6144
 20
12.4483
 30
0.000000
  70
    32
  0
VERTEX
  8
242
  5
467E
 10
48.7898
 20
12.3850
 30
0.000000
  70
    32
  0
VERTEX
  8
242
  5
467F
 10
48.9693
 20
12.3280
 30
0.000000
  70
    32
  0
VERTEX
  8
242
  5
4680
 10
49.1524
 20
12.2773
 30
0.000000
  70
    32
  0
VERTEX
  8
242
  5
4681
 10
49.3389
 20
12.2332
 30
0.000000
  70
    32
  0
VERTEX
  8
242
  5
4682
 10
49.5281
 20
12.1957
 30
0.000000
  70
    32
  0
VERTEX
  8
242
  5
4683
 10
49.7196
 20
12.1648
 30
0.000000
  70
    32
  0
VERTEX
  8
242
  5
4684
 10
49.9131
 20
12.1408
 30
0.000000
  70
    32
  0
VERTEX
  8
242
  5
4685
 10
50.1079
 20
12.1235
 30
0.000000
  70
    32
  0
VERTEX
  8
242
  5
4686
 10
50.3037
 20
12.1132
 30
0.000000
  70
    32
  0
VERTEX
  8
242
  5
4687
 10
50.5000
 20
12.1097
 30
0.000000
  70
    32
  0
VERTEX
  8
242
  5
4688
 10
50.6963
 20
12.1132
 30
0.000000
  70
    32
  0
VERTEX
  8
242
  5
4689
 10
50.8921
 20
12.1235
 30
0.000000
  70
    32
  0
VERTEX
  8
242
  5
468A
 10
51.0869
 20
12.1408
 30
0.000000
  70
    32
  0
VERTEX
  8
242
  5
468B
 10
51.2804
 20
12.1648
 30
0.000000
  70
    32
  0
VERTEX
  8
242
  5
468C
 10
51.4719
 20
12.1957
 30
0.000000
  70
    32
  0
VERTEX
  8
242
  5
468D
 10
51.6611
 20
12.2332
 30
0.000000
  70
    32
  0
VERTEX
  8
242
  5
468E
 10
51.8476
 20
12.2773
 30
0.000000
  70
    32
  0
VERTEX
  8
242
  5
468F
 10
52.0307
 20
12.3280
 30
0.000000
  70
    32
  0
VERTEX
  8
242
  5
4690
 10
52.2102
 20
12.3850
 30
0.000000
  70
    32
  0
VERTEX
  8
242
  5
4691
 10
52.3856
 20
12.4483
 30
0.000000
  70
    32
  0
VERTEX
  8
242
  5
4692
 10
52.5564
 20
12.5176
 30
0.000000
  70
    32
  0
VERTEX
  8
242
  5
4693
 10
52.7223
 20
12.5929
 30
0.000000
  70
    32
  0
VERTEX
  8
242
  5
4694
 10
52.8828
 20
12.6739
 30
0.000000
  70
    32
  0
VERTEX
  8
242
  5
4695
 10
53.0376
 20
12.7605
 30
0.000000
  70
    32
  0
VERTEX
  8
242
  5
4696
 10
53.1862
 20
12.8524
 30
0.000000
  70
    32
  0
VERTEX
  8
242
  5
4697
 10
53.3284
 20
12.9494
 30
0.000000
  70
    32
  0
VERTEX
  8
242
  5
4698
 10
53.4638
 20
13.0514
 30
0.000000
  70
    32
  0
VERTEX
  8
242
  5
4699
 10
53.5920
 20
13.1579
 30
0.000000
  70
    32
  0
VERTEX
  8
242
  5
469A
 10
53.7128
 20
13.2688
 30
0.000000
  70
    32
  0
VERTEX
  8
242
  5
469B
 10
53.8259
 20
13.3839
 30
0.000000
  70
    32
  0
VERTEX
  8
242
  5
469C
 10
53.9309
 20
13.5028
 30
0.000000
  70
    32
  0
VERTEX
  8
242
  5
469D
 10
54.0277
 20
13.6252
 30
0.000000
  70
    32
  0
VERTEX
  8
242
  5
469E
 10
54.1160
 20
13.7509
 30
0.000000
  70
    32
  0
VERTEX
  8
242
  5
469F
 10
54.1955
 20
13.8795
 30
0.000000
  70
    32
  0
VERTEX
  8
242
  5
46A0
 10
54.2662
 20
14.0108
 30
0.000000
  70
    32
  0
VERTEX
  8
242
  5
46A1
 10
54.3278
 20
14.1444
 30
0.000000
  70
    32
  0
VERTEX
  8
242
  5
46A2
 10
54.3801
 20
14.2800
 30
0.000000
  70
    32
  0
VERTEX
  8
242
  5
46A3
 10
54.4231
 20
14.4173
 30
0.000000
  70
    32
  0
VERTEX
  8
242
  5
46A4
 10
54.4567
 20
14.5560
 30
0.000000
  70
    32
  0
VERTEX
  8
242
  5
46A5
 10
54.4807
 20
14.6956
 30
0.000000
  70
    32
  0
VERTEX
  8
242
  5
46A6
 10
54.4952
 20
14.8360
 30
0.000000
  70
    32
  0
VERTEX
  8
242
  5
46A7
 10
54.5000
 20
14.9766
 30
0.000000
  70
    32
  0
VERTEX
  8
242
  5
46A8
 10
54.4952
 20
15.1173
 30
0.000000
  70
    32
  0
VERTEX
  8
242
  5
46A9
 10
54.4807
 20
15.2576
 30
0.000000
  70
    32
  0
VERTEX
  8
242
  5
46AA
 10
54.4567
 20
15.3973
 30
0.000000
  70
    32
  0
VERTEX
  8
242
  5
46AB
 10
54.4231
 20
15.5359
 30
0.000000
  70
    32
  0
VERTEX
  8
242
  5
46AC
 10
54.3801
 20
15.6732
 30
0.000000
  70
    32
  0
VERTEX
  8
242
  5
46AD
 10
54.3278
 20
15.8089
 30
0.000000
  70
    32
  0
VERTEX
  8
242
  5
46AE
 10
54.2662
 20
15.9425
 30
0.000000
  70
    32
  0
VERTEX
  8
242
  5
46AF
 10
54.1955
 20
16.0738
 30
0.000000
  70
    32
  0
VERTEX
  8
242
  5
46B0
 10
54.1160
 20
16.2024
 30
0.000000
  70
    32
  0
VERTEX
  8
242
  5
46B1
 10
54.0277
 20
16.3281
 30
0.000000
  70
    32
  0
VERTEX
  8
242
  5
46B2
 10
53.9309
 20
16.4505
 30
0.000000
  70
    32
  0
VERTEX
  8
242
  5
46B3
 10
53.8259
 20
16.5694
 30
0.000000
  70
    32
  0
VERTEX
  8
242
  5
46B4
 10
53.7128
 20
16.6845
 30
0.000000
  70
    32
  0
VERTEX
  8
242
  5
46B5
 10
53.5920
 20
16.7954
 30
0.000000
  70
    32
  0
VERTEX
  8
242
  5
46B6
 10
53.4638
 20
16.9019
 30
0.000000
  70
    32
  0
VERTEX
  8
242
  5
46B7
 10
53.3284
 20
17.0038
 30
0.000000
  70
    32
  0
VERTEX
  8
242
  5
46B8
 10
53.1862
 20
17.1009
 30
0.000000
  70
    32
  0
VERTEX
  8
242
  5
46B9
 10
53.0376
 20
17.1928
 30
0.000000
  70
    32
  0
VERTEX
  8
242
  5
46BA
 10
52.8828
 20
17.2794
 30
0.000000
  70
    32
  0
VERTEX
  8
242
  5
46BB
 10
52.7223
 20
17.3604
 30
0.000000
  70
    32
  0
VERTEX
  8
242
  5
46BC
 10
52.5564
 20
17.4357
 30
0.000000
  70
    32
  0
VERTEX
  8
242
  5
46BD
 10
52.3856
 20
17.5050
 30
0.000000
  70
    32
  0
VERTEX
  8
242
  5
46BE
 10
52.2102
 20
17.5683
 30
0.000000
  70
    32
  0
VERTEX
  8
242
  5
46BF
 10
52.0307
 20
17.6253
 30
0.000000
  70
    32
  0
VERTEX
  8
242
  5
46C0
 10
51.8476
 20
17.6760
 30
0.000000
  70
    32
  0
VERTEX
  8
242
  5
46C1
 10
51.6611
 20
17.7201
 30
0.000000
  70
    32
  0
VERTEX
  8
242
  5
46C2
 10
51.4719
 20
17.7576
 30
0.000000
  70
    32
  0
VERTEX
  8
242
  5
46C3
 10
51.2804
 20
17.7885
 30
0.000000
  70
    32
  0
VERTEX
  8
242
  5
46C4
 10
51.0869
 20
17.8125
 30
0.000000
  70
    32
  0
VERTEX
  8
242
  5
46C5
 10
50.8921
 20
17.8297
 30
0.000000
  70
    32
  0
VERTEX
  8
242
  5
46C6
 10
50.6963
 20
17.8401
 30
0.000000
  70
    32
  0
VERTEX
  8
242
  5
46C7
 10
50.5000
 20
17.8435
 30
0.000000
  70
    32
  0
VERTEX
  8
242
  5
46C8
 10
50.3037
 20
17.8401
 30
0.000000
  70
    32
  0
VERTEX
  8
242
  5
46C9
 10
50.1079
 20
17.8297
 30
0.000000
  70
    32
  0
VERTEX
  8
242
  5
46CA
 10
49.9131
 20
17.8125
 30
0.000000
  70
    32
  0
VERTEX
  8
242
  5
46CB
 10
49.7196
 20
17.7885
 30
0.000000
  70
    32
  0
VERTEX
  8
242
  5
46CC
 10
49.5281
 20
17.7576
 30
0.000000
  70
    32
  0
VERTEX
  8
242
  5
46CD
 10
49.3389
 20
17.7201
 30
0.000000
  70
    32
  0
VERTEX
  8
242
  5
46CE
 10
49.1524
 20
17.6760
 30
0.000000
  70
    32
  0
VERTEX
  8
242
  5
46CF
 10
48.9693
 20
17.6253
 30
0.000000
  70
    32
  0
VERTEX
  8
242
  5
46D0
 10
48.7898
 20
17.5683
 30
0.000000
  70
    32
  0
VERTEX
  8
242
  5
46D1
 10
48.6144
 20
17.5050
 30
0.000000
  70
    32
  0
VERTEX
  8
242
  5
46D2
 10
48.4436
 20
17.4357
 30
0.000000
  70
    32
  0
VERTEX
  8
242
  5
46D3
 10
48.2777
 20
17.3604
 30
0.000000
  70
    32
  0
VERTEX
  8
242
  5
46D4
 10
48.1172
 20
17.2794
 30
0.000000
  70
    32
  0
VERTEX
  8
242
  5
46D5
 10
47.9624
 20
17.1928
 30
0.000000
  70
    32
  0
VERTEX
  8
242
  5
46D6
 10
47.8138
 20
17.1009
 30
0.000000
  70
    32
  0
VERTEX
  8
242
  5
46D7
 10
47.6716
 20
17.0038
 30
0.000000
  70
    32
  0
VERTEX
  8
242
  5
46D8
 10
47.5362
 20
16.9019
 30
0.000000
  70
    32
  0
VERTEX
  8
242
  5
46D9
 10
47.4080
 20
16.7954
 30
0.000000
  70
    32
  0
VERTEX
  8
242
  5
46DA
 10
47.2872
 20
16.6845
 30
0.000000
  70
    32
  0
VERTEX
  8
242
  5
46DB
 10
47.1741
 20
16.5694
 30
0.000000
  70
    32
  0
VERTEX
  8
242
  5
46DC
 10
47.0691
 20
16.4505
 30
0.000000
  70
    32
  0
VERTEX
  8
242
  5
46DD
 10
46.9723
 20
16.3281
 30
0.000000
  70
    32
  0
VERTEX
  8
242
  5
46DE
 10
46.8840
 20
16.2024
 30
0.000000
  70
    32
  0
VERTEX
  8
242
  5
46DF
 10
46.8045
 20
16.0738
 30
0.000000
  70
    32
  0
VERTEX
  8
242
  5
46E0
 10
46.7338
 20
15.9425
 30
0.000000
  70
    32
  0
VERTEX
  8
242
  5
46E1
 10
46.6722
 20
15.8089
 30
0.000000
  70
    32
  0
VERTEX
  8
242
  5
46E2
 10
46.6199
 20
15.6732
 30
0.000000
  70
    32
  0
VERTEX
  8
242
  5
46E3
 10
46.5769
 20
15.5359
 30
0.000000
  70
    32
  0
VERTEX
  8
242
  5
46E4
 10
46.5433
 20
15.3973
 30
0.000000
  70
    32
  0
VERTEX
  8
242
  5
46E5
 10
46.5193
 20
15.2576
 30
0.000000
  70
    32
  0
VERTEX
  8
242
  5
46E6
 10
46.5048
 20
15.1173
 30
0.000000
  70
    32
  0
VERTEX
  8
242
  5
46E7
 10
46.5000
 20
14.9766
 30
0.000000
  70
    32
  0
SEQEND
  8
242
  5
46E8
  0
LINE
  5
4366
  8
245
  6
CENTER2
 10
45.375274146277057
 20
15.203597193862921
 30
0.0
 11
55.185811260878701
 21
15.203597193862921
 31
0.0
  0
LINE
  5
4367
  8
245
  6
CENTER2
 10
50.500000000004412
 20
18.798731290190489
 30
0.0
 11
50.500000000004462
 21
10.618000583178141
 31
0.0
  0
LINE
  5
4368
  8
240
  6
CONTINUOUS
 10
63.499999999995438
 20
-21.499999999999471
 30
0.0
 11
63.500000000006878
 21
21.499999999999311
 31
0.0
  0
POLYLINE
  5
436A
  8
241
  6
CONTINUOUS
 10
47.12500000000481
 20
-15.015117483341179
 30
0.0
 66
     1
 70
     8
  0
VERTEX
  8
241
  5
46E9
 10
47.1250
 20
-15.0151
 30
0.000000
  70
    32
  0
VERTEX
  8
241
  5
46EA
 10
47.1291
 20
-14.8980
 30
0.000000
  70
    32
  0
VERTEX
  8
241
  5
46EB
 10
47.1413
 20
-14.7812
 30
0.000000
  70
    32
  0
VERTEX
  8
241
  5
46EC
 10
47.1615
 20
-14.6649
 30
0.000000
  70
    32
  0
VERTEX
  8
241
  5
46ED
 10
47.1898
 20
-14.5495
 30
0.000000
  70
    32
  0
VERTEX
  8
241
  5
46EE
 10
47.2261
 20
-14.4352
 30
0.000000
  70
    32
  0
VERTEX
  8
241
  5
46EF
 10
47.2703
 20
-14.3224
 30
0.000000
  70
    32
  0
VERTEX
  8
241
  5
46F0
 10
47.3223
 20
-14.2111
 30
0.000000
  70
    32
  0
VERTEX
  8
241
  5
46F1
 10
47.3819
 20
-14.1018
 30
0.000000
  70
    32
  0
VERTEX
  8
241
  5
46F2
 10
47.4490
 20
-13.9948
 30
0.000000
  70
    32
  0
VERTEX
  8
241
  5
46F3
 10
47.5235
 20
-13.8901
 30
0.000000
  70
    32
  0
VERTEX
  8
241
  5
46F4
 10
47.6052
 20
-13.7882
 30
0.000000
  70
    32
  0
VERTEX
  8
241
  5
46F5
 10
47.6938
 20
-13.6893
 30
0.000000
  70
    32
  0
VERTEX
  8
241
  5
46F6
 10
47.7892
 20
-13.5935
 30
0.000000
  70
    32
  0
VERTEX
  8
241
  5
46F7
 10
47.8911
 20
-13.5011
 30
0.000000
  70
    32
  0
VERTEX
  8
241
  5
46F8
 10
47.9993
 20
-13.4125
 30
0.000000
  70
    32
  0
VERTEX
  8
241
  5
46F9
 10
48.1135
 20
-13.3276
 30
0.000000
  70
    32
  0
VERTEX
  8
241
  5
46FA
 10
48.2335
 20
-13.2468
 30
0.000000
  70
    32
  0
VERTEX
  8
241
  5
46FB
 10
48.3589
 20
-13.1703
 30
0.000000
  70
    32
  0
VERTEX
  8
241
  5
46FC
 10
48.4895
 20
-13.0983
 30
0.000000
  70
    32
  0
VERTEX
  8
241
  5
46FD
 10
48.6250
 20
-13.0308
 30
0.000000
  70
    32
  0
VERTEX
  8
241
  5
46FE
 10
48.7649
 20
-12.9682
 30
0.000000
  70
    32
  0
VERTEX
  8
241
  5
46FF
 10
48.9090
 20
-12.9104
 30
0.000000
  70
    32
  0
VERTEX
  8
241
  5
4700
 10
49.0570
 20
-12.8578
 30
0.000000
  70
    32
  0
VERTEX
  8
241
  5
4701
 10
49.2084
 20
-12.8103
 30
0.000000
  70
    32
  0
VERTEX
  8
241
  5
4702
 10
49.3630
 20
-12.7681
 30
0.000000
  70
    32
  0
VERTEX
  8
241
  5
4703
 10
49.5203
 20
-12.7314
 30
0.000000
  70
    32
  0
VERTEX
  8
241
  5
4704
 10
49.6799
 20
-12.7002
 30
0.000000
  70
    32
  0
VERTEX
  8
241
  5
4705
 10
49.8416
 20
-12.6745
 30
0.000000
  70
    32
  0
VERTEX
  8
241
  5
4706
 10
50.0048
 20
-12.6545
 30
0.000000
  70
    32
  0
VERTEX
  8
241
  5
4707
 10
50.1692
 20
-12.6401
 30
0.000000
  70
    32
  0
VERTEX
  8
241
  5
4708
 10
50.3344
 20
-12.6315
 30
0.000000
  70
    32
  0
VERTEX
  8
241
  5
4709
 10
50.5000
 20
-12.6286
 30
0.000000
  70
    32
  0
VERTEX
  8
241
  5
470A
 10
50.6656
 20
-12.6315
 30
0.000000
  70
    32
  0
VERTEX
  8
241
  5
470B
 10
50.8308
 20
-12.6401
 30
0.000000
  70
    32
  0
VERTEX
  8
241
  5
470C
 10
50.9952
 20
-12.6545
 30
0.000000
  70
    32
  0
VERTEX
  8
241
  5
470D
 10
51.1584
 20
-12.6745
 30
0.000000
  70
    32
  0
VERTEX
  8
241
  5
470E
 10
51.3201
 20
-12.7002
 30
0.000000
  70
    32
  0
VERTEX
  8
241
  5
470F
 10
51.4797
 20
-12.7314
 30
0.000000
  70
    32
  0
VERTEX
  8
241
  5
4710
 10
51.6370
 20
-12.7681
 30
0.000000
  70
    32
  0
VERTEX
  8
241
  5
4711
 10
51.7916
 20
-12.8103
 30
0.000000
  70
    32
  0
VERTEX
  8
241
  5
4712
 10
51.9430
 20
-12.8578
 30
0.000000
  70
    32
  0
VERTEX
  8
241
  5
4713
 10
52.0910
 20
-12.9104
 30
0.000000
  70
    32
  0
VERTEX
  8
241
  5
4714
 10
52.2351
 20
-12.9682
 30
0.000000
  70
    32
  0
VERTEX
  8
241
  5
4715
 10
52.3750
 20
-13.0308
 30
0.000000
  70
    32
  0
VERTEX
  8
241
  5
4716
 10
52.5105
 20
-13.0983
 30
0.000000
  70
    32
  0
VERTEX
  8
241
  5
4717
 10
52.6411
 20
-13.1703
 30
0.000000
  70
    32
  0
VERTEX
  8
241
  5
4718
 10
52.7665
 20
-13.2468
 30
0.000000
  70
    32
  0
VERTEX
  8
241
  5
4719
 10
52.8865
 20
-13.3276
 30
0.000000
  70
    32
  0
VERTEX
  8
241
  5
471A
 10
53.0007
 20
-13.4125
 30
0.000000
  70
    32
  0
VERTEX
  8
241
  5
471B
 10
53.1089
 20
-13.5011
 30
0.000000
  70
    32
  0
VERTEX
  8
241
  5
471C
 10
53.2108
 20
-13.5935
 30
0.000000
  70
    32
  0
VERTEX
  8
241
  5
471D
 10
53.3062
 20
-13.6893
 30
0.000000
  70
    32
  0
VERTEX
  8
241
  5
471E
 10
53.3948
 20
-13.7882
 30
0.000000
  70
    32
  0
VERTEX
  8
241
  5
471F
 10
53.4765
 20
-13.8901
 30
0.000000
  70
    32
  0
VERTEX
  8
241
  5
4720
 10
53.5510
 20
-13.9948
 30
0.000000
  70
    32
  0
VERTEX
  8
241
  5
4721
 10
53.6181
 20
-14.1018
 30
0.000000
  70
    32
  0
VERTEX
  8
241
  5
4722
 10
53.6777
 20
-14.2111
 30
0.000000
  70
    32
  0
VERTEX
  8
241
  5
4723
 10
53.7297
 20
-14.3224
 30
0.000000
  70
    32
  0
VERTEX
  8
241
  5
4724
 10
53.7739
 20
-14.4352
 30
0.000000
  70
    32
  0
VERTEX
  8
241
  5
4725
 10
53.8102
 20
-14.5495
 30
0.000000
  70
    32
  0
VERTEX
  8
241
  5
4726
 10
53.8385
 20
-14.6649
 30
0.000000
  70
    32
  0
VERTEX
  8
241
  5
4727
 10
53.8587
 20
-14.7812
 30
0.000000
  70
    32
  0
VERTEX
  8
241
  5
4728
 10
53.8709
 20
-14.8980
 30
0.000000
  70
    32
  0
VERTEX
  8
241
  5
4729
 10
53.8750
 20
-15.0151
 30
0.000000
  70
    32
  0
VERTEX
  8
241
  5
472A
 10
53.8709
 20
-15.1322
 30
0.000000
  70
    32
  0
VERTEX
  8
241
  5
472B
 10
53.8587
 20
-15.2490
 30
0.000000
  70
    32
  0
VERTEX
  8
241
  5
472C
 10
53.8385
 20
-15.3653
 30
0.000000
  70
    32
  0
VERTEX
  8
241
  5
472D
 10
53.8102
 20
-15.4807
 30
0.000000
  70
    32
  0
VERTEX
  8
241
  5
472E
 10
53.7739
 20
-15.5950
 30
0.000000
  70
    32
  0
VERTEX
  8
241
  5
472F
 10
53.7297
 20
-15.7079
 30
0.000000
  70
    32
  0
VERTEX
  8
241
  5
4730
 10
53.6777
 20
-15.8191
 30
0.000000
  70
    32
  0
VERTEX
  8
241
  5
4731
 10
53.6181
 20
-15.9284
 30
0.000000
  70
    32
  0
VERTEX
  8
241
  5
4732
 10
53.5510
 20
-16.0355
 30
0.000000
  70
    32
  0
VERTEX
  8
241
  5
4733
 10
53.4765
 20
-16.1401
 30
0.000000
  70
    32
  0
VERTEX
  8
241
  5
4734
 10
53.3948
 20
-16.2420
 30
0.000000
  70
    32
  0
VERTEX
  8
241
  5
4735
 10
53.3062
 20
-16.3410
 30
0.000000
  70
    32
  0
VERTEX
  8
241
  5
4736
 10
53.2108
 20
-16.4367
 30
0.000000
  70
    32
  0
VERTEX
  8
241
  5
4737
 10
53.1089
 20
-16.5291
 30
0.000000
  70
    32
  0
VERTEX
  8
241
  5
4738
 10
53.0007
 20
-16.6178
 30
0.000000
  70
    32
  0
VERTEX
  8
241
  5
4739
 10
52.8865
 20
-16.7026
 30
0.000000
  70
    32
  0
VERTEX
  8
241
  5
473A
 10
52.7665
 20
-16.7834
 30
0.000000
  70
    32
  0
VERTEX
  8
241
  5
473B
 10
52.6411
 20
-16.8599
 30
0.000000
  70
    32
  0
VERTEX
  8
241
  5
473C
 10
52.5105
 20
-16.9320
 30
0.000000
  70
    32
  0
VERTEX
  8
241
  5
473D
 10
52.3750
 20
-16.9994
 30
0.000000
  70
    32
  0
VERTEX
  8
241
  5
473E
 10
52.2351
 20
-17.0621
 30
0.000000
  70
    32
  0
VERTEX
  8
241
  5
473F
 10
52.0910
 20
-17.1198
 30
0.000000
  70
    32
  0
VERTEX
  8
241
  5
4740
 10
51.9430
 20
-17.1725
 30
0.000000
  70
    32
  0
VERTEX
  8
241
  5
4741
 10
51.7916
 20
-17.2199
 30
0.000000
  70
    32
  0
VERTEX
  8
241
  5
4742
 10
51.6370
 20
-17.2621
 30
0.000000
  70
    32
  0
VERTEX
  8
241
  5
4743
 10
51.4797
 20
-17.2988
 30
0.000000
  70
    32
  0
VERTEX
  8
241
  5
4744
 10
51.3201
 20
-17.3301
 30
0.000000
  70
    32
  0
VERTEX
  8
241
  5
4745
 10
51.1584
 20
-17.3557
 30
0.000000
  70
    32
  0
VERTEX
  8
241
  5
4746
 10
50.9952
 20
-17.3758
 30
0.000000
  70
    32
  0
VERTEX
  8
241
  5
4747
 10
50.8308
 20
-17.3901
 30
0.000000
  70
    32
  0
VERTEX
  8
241
  5
4748
 10
50.6656
 20
-17.3987
 30
0.000000
  70
    32
  0
VERTEX
  8
241
  5
4749
 10
50.5000
 20
-17.4016
 30
0.000000
  70
    32
  0
VERTEX
  8
241
  5
474A
 10
50.3344
 20
-17.3987
 30
0.000000
  70
    32
  0
VERTEX
  8
241
  5
474B
 10
50.1692
 20
-17.3901
 30
0.000000
  70
    32
  0
VERTEX
  8
241
  5
474C
 10
50.0048
 20
-17.3758
 30
0.000000
  70
    32
  0
VERTEX
  8
241
  5
474D
 10
49.8416
 20
-17.3557
 30
0.000000
  70
    32
  0
VERTEX
  8
241
  5
474E
 10
49.6799
 20
-17.3301
 30
0.000000
  70
    32
  0
VERTEX
  8
241
  5
474F
 10
49.5203
 20
-17.2988
 30
0.000000
  70
    32
  0
VERTEX
  8
241
  5
4750
 10
49.3630
 20
-17.2621
 30
0.000000
  70
    32
  0
VERTEX
  8
241
  5
4751
 10
49.2084
 20
-17.2199
 30
0.000000
  70
    32
  0
VERTEX
  8
241
  5
4752
 10
49.0570
 20
-17.1725
 30
0.000000
  70
    32
  0
VERTEX
  8
241
  5
4753
 10
48.9090
 20
-17.1198
 30
0.000000
  70
    32
  0
VERTEX
  8
241
  5
4754
 10
48.7649
 20
-17.0621
 30
0.000000
  70
    32
  0
VERTEX
  8
241
  5
4755
 10
48.6250
 20
-16.9994
 30
0.000000
  70
    32
  0
VERTEX
  8
241
  5
4756
 10
48.4895
 20
-16.9320
 30
0.000000
  70
    32
  0
VERTEX
  8
241
  5
4757
 10
48.3589
 20
-16.8599
 30
0.000000
  70
    32
  0
VERTEX
  8
241
  5
4758
 10
48.2335
 20
-16.7834
 30
0.000000
  70
    32
  0
VERTEX
  8
241
  5
4759
 10
48.1135
 20
-16.7026
 30
0.000000
  70
    32
  0
VERTEX
  8
241
  5
475A
 10
47.9993
 20
-16.6178
 30
0.000000
  70
    32
  0
VERTEX
  8
241
  5
475B
 10
47.8911
 20
-16.5291
 30
0.000000
  70
    32
  0
VERTEX
  8
241
  5
475C
 10
47.7892
 20
-16.4367
 30
0.000000
  70
    32
  0
VERTEX
  8
241
  5
475D
 10
47.6938
 20
-16.3410
 30
0.000000
  70
    32
  0
VERTEX
  8
241
  5
475E
 10
47.6052
 20
-16.2420
 30
0.000000
  70
    32
  0
VERTEX
  8
241
  5
475F
 10
47.5235
 20
-16.1401
 30
0.000000
  70
    32
  0
VERTEX
  8
241
  5
4760
 10
47.4490
 20
-16.0355
 30
0.000000
  70
    32
  0
VERTEX
  8
241
  5
4761
 10
47.3819
 20
-15.9284
 30
0.000000
  70
    32
  0
VERTEX
  8
241
  5
4762
 10
47.3223
 20
-15.8191
 30
0.000000
  70
    32
  0
VERTEX
  8
241
  5
4763
 10
47.2703
 20
-15.7079
 30
0.000000
  70
    32
  0
VERTEX
  8
241
  5
4764
 10
47.2261
 20
-15.5950
 30
0.000000
  70
    32
  0
VERTEX
  8
241
  5
4765
 10
47.1898
 20
-15.4807
 30
0.000000
  70
    32
  0
VERTEX
  8
241
  5
4766
 10
47.1615
 20
-15.3653
 30
0.000000
  70
    32
  0
VERTEX
  8
241
  5
4767
 10
47.1413
 20
-15.2490
 30
0.000000
  70
    32
  0
VERTEX
  8
241
  5
4768
 10
47.1291
 20
-15.1322
 30
0.000000
  70
    32
  0
VERTEX
  8
241
  5
4769
 10
47.1250
 20
-15.0151
 30
0.000000
  70
    32
  0
SEQEND
  8
241
  5
476A
  0
POLYLINE
  5
436B
  8
242
  6
CONTINUOUS
 10
46.50000000000481
 20
-14.976644063991579
 30
0.0
 66
     1
 70
     8
  0
VERTEX
  8
242
  5
476B
 10
46.5000
 20
-14.9766
 30
0.000000
  70
    32
  0
VERTEX
  8
242
  5
476C
 10
46.5048
 20
-14.8360
 30
0.000000
  70
    32
  0
VERTEX
  8
242
  5
476D
 10
46.5193
 20
-14.6956
 30
0.000000
  70
    32
  0
VERTEX
  8
242
  5
476E
 10
46.5433
 20
-14.5560
 30
0.000000
  70
    32
  0
VERTEX
  8
242
  5
476F
 10
46.5769
 20
-14.4173
 30
0.000000
  70
    32
  0
VERTEX
  8
242
  5
4770
 10
46.6199
 20
-14.2800
 30
0.000000
  70
    32
  0
VERTEX
  8
242
  5
4771
 10
46.6722
 20
-14.1444
 30
0.000000
  70
    32
  0
VERTEX
  8
242
  5
4772
 10
46.7338
 20
-14.0108
 30
0.000000
  70
    32
  0
VERTEX
  8
242
  5
4773
 10
46.8045
 20
-13.8795
 30
0.000000
  70
    32
  0
VERTEX
  8
242
  5
4774
 10
46.8840
 20
-13.7509
 30
0.000000
  70
    32
  0
VERTEX
  8
242
  5
4775
 10
46.9723
 20
-13.6252
 30
0.000000
  70
    32
  0
VERTEX
  8
242
  5
4776
 10
47.0691
 20
-13.5028
 30
0.000000
  70
    32
  0
VERTEX
  8
242
  5
4777
 10
47.1741
 20
-13.3839
 30
0.000000
  70
    32
  0
VERTEX
  8
242
  5
4778
 10
47.2872
 20
-13.2688
 30
0.000000
  70
    32
  0
VERTEX
  8
242
  5
4779
 10
47.4080
 20
-13.1579
 30
0.000000
  70
    32
  0
VERTEX
  8
242
  5
477A
 10
47.5362
 20
-13.0514
 30
0.000000
  70
    32
  0
VERTEX
  8
242
  5
477B
 10
47.6716
 20
-12.9494
 30
0.000000
  70
    32
  0
VERTEX
  8
242
  5
477C
 10
47.8138
 20
-12.8524
 30
0.000000
  70
    32
  0
VERTEX
  8
242
  5
477D
 10
47.9624
 20
-12.7605
 30
0.000000
  70
    32
  0
VERTEX
  8
242
  5
477E
 10
48.1172
 20
-12.6739
 30
0.000000
  70
    32
  0
VERTEX
  8
242
  5
477F
 10
48.2777
 20
-12.5929
 30
0.000000
  70
    32
  0
VERTEX
  8
242
  5
4780
 10
48.4436
 20
-12.5176
 30
0.000000
  70
    32
  0
VERTEX
  8
242
  5
4781
 10
48.6144
 20
-12.4483
 30
0.000000
  70
    32
  0
VERTEX
  8
242
  5
4782
 10
48.7898
 20
-12.3850
 30
0.000000
  70
    32
  0
VERTEX
  8
242
  5
4783
 10
48.9693
 20
-12.3280
 30
0.000000
  70
    32
  0
VERTEX
  8
242
  5
4784
 10
49.1524
 20
-12.2773
 30
0.000000
  70
    32
  0
VERTEX
  8
242
  5
4785
 10
49.3389
 20
-12.2332
 30
0.000000
  70
    32
  0
VERTEX
  8
242
  5
4786
 10
49.5281
 20
-12.1957
 30
0.000000
  70
    32
  0
VERTEX
  8
242
  5
4787
 10
49.7196
 20
-12.1648
 30
0.000000
  70
    32
  0
VERTEX
  8
242
  5
4788
 10
49.9131
 20
-12.1408
 30
0.000000
  70
    32
  0
VERTEX
  8
242
  5
4789
 10
50.1079
 20
-12.1235
 30
0.000000
  70
    32
  0
VERTEX
  8
242
  5
478A
 10
50.3037
 20
-12.1132
 30
0.000000
  70
    32
  0
VERTEX
  8
242
  5
478B
 10
50.5000
 20
-12.1097
 30
0.000000
  70
    32
  0
VERTEX
  8
242
  5
478C
 10
50.6963
 20
-12.1132
 30
0.000000
  70
    32
  0
VERTEX
  8
242
  5
478D
 10
50.8921
 20
-12.1235
 30
0.000000
  70
    32
  0
VERTEX
  8
242
  5
478E
 10
51.0869
 20
-12.1408
 30
0.000000
  70
    32
  0
VERTEX
  8
242
  5
478F
 10
51.2804
 20
-12.1648
 30
0.000000
  70
    32
  0
VERTEX
  8
242
  5
4790
 10
51.4719
 20
-12.1957
 30
0.000000
  70
    32
  0
VERTEX
  8
242
  5
4791
 10
51.6611
 20
-12.2332
 30
0.000000
  70
    32
  0
VERTEX
  8
242
  5
4792
 10
51.8476
 20
-12.2773
 30
0.000000
  70
    32
  0
VERTEX
  8
242
  5
4793
 10
52.0307
 20
-12.3280
 30
0.000000
  70
    32
  0
VERTEX
  8
242
  5
4794
 10
52.2102
 20
-12.3850
 30
0.000000
  70
    32
  0
VERTEX
  8
242
  5
4795
 10
52.3856
 20
-12.4483
 30
0.000000
  70
    32
  0
VERTEX
  8
242
  5
4796
 10
52.5564
 20
-12.5176
 30
0.000000
  70
    32
  0
VERTEX
  8
242
  5
4797
 10
52.7223
 20
-12.5929
 30
0.000000
  70
    32
  0
VERTEX
  8
242
  5
4798
 10
52.8828
 20
-12.6739
 30
0.000000
  70
    32
  0
VERTEX
  8
242
  5
4799
 10
53.0376
 20
-12.7605
 30
0.000000
  70
    32
  0
VERTEX
  8
242
  5
479A
 10
53.1862
 20
-12.8524
 30
0.000000
  70
    32
  0
VERTEX
  8
242
  5
479B
 10
53.3284
 20
-12.9494
 30
0.000000
  70
    32
  0
VERTEX
  8
242
  5
479C
 10
53.4638
 20
-13.0514
 30
0.000000
  70
    32
  0
VERTEX
  8
242
  5
479D
 10
53.5920
 20
-13.1579
 30
0.000000
  70
    32
  0
VERTEX
  8
242
  5
479E
 10
53.7128
 20
-13.2688
 30
0.000000
  70
    32
  0
VERTEX
  8
242
  5
479F
 10
53.8259
 20
-13.3839
 30
0.000000
  70
    32
  0
VERTEX
  8
242
  5
47A0
 10
53.9309
 20
-13.5028
 30
0.000000
  70
    32
  0
VERTEX
  8
242
  5
47A1
 10
54.0277
 20
-13.6252
 30
0.000000
  70
    32
  0
VERTEX
  8
242
  5
47A2
 10
54.1160
 20
-13.7509
 30
0.000000
  70
    32
  0
VERTEX
  8
242
  5
47A3
 10
54.1955
 20
-13.8795
 30
0.000000
  70
    32
  0
VERTEX
  8
242
  5
47A4
 10
54.2662
 20
-14.0108
 30
0.000000
  70
    32
  0
VERTEX
  8
242
  5
47A5
 10
54.3278
 20
-14.1444
 30
0.000000
  70
    32
  0
VERTEX
  8
242
  5
47A6
 10
54.3801
 20
-14.2800
 30
0.000000
  70
    32
  0
VERTEX
  8
242
  5
47A7
 10
54.4231
 20
-14.4173
 30
0.000000
  70
    32
  0
VERTEX
  8
242
  5
47A8
 10
54.4567
 20
-14.5560
 30
0.000000
  70
    32
  0
VERTEX
  8
242
  5
47A9
 10
54.4807
 20
-14.6956
 30
0.000000
  70
    32
  0
VERTEX
  8
242
  5
47AA
 10
54.4952
 20
-14.8360
 30
0.000000
  70
    32
  0
VERTEX
  8
242
  5
47AB
 10
54.5000
 20
-14.9766
 30
0.000000
  70
    32
  0
VERTEX
  8
242
  5
47AC
 10
54.4952
 20
-15.1173
 30
0.000000
  70
    32
  0
VERTEX
  8
242
  5
47AD
 10
54.4807
 20
-15.2576
 30
0.000000
  70
    32
  0
VERTEX
  8
242
  5
47AE
 10
54.4567
 20
-15.3973
 30
0.000000
  70
    32
  0
VERTEX
  8
242
  5
47AF
 10
54.4231
 20
-15.5359
 30
0.000000
  70
    32
  0
VERTEX
  8
242
  5
47B0
 10
54.3801
 20
-15.6732
 30
0.000000
  70
    32
  0
VERTEX
  8
242
  5
47B1
 10
54.3278
 20
-15.8089
 30
0.000000
  70
    32
  0
VERTEX
  8
242
  5
47B2
 10
54.2662
 20
-15.9425
 30
0.000000
  70
    32
  0
VERTEX
  8
242
  5
47B3
 10
54.1955
 20
-16.0738
 30
0.000000
  70
    32
  0
VERTEX
  8
242
  5
47B4
 10
54.1160
 20
-16.2024
 30
0.000000
  70
    32
  0
VERTEX
  8
242
  5
47B5
 10
54.0277
 20
-16.3281
 30
0.000000
  70
    32
  0
VERTEX
  8
242
  5
47B6
 10
53.9309
 20
-16.4505
 30
0.000000
  70
    32
  0
VERTEX
  8
242
  5
47B7
 10
53.8259
 20
-16.5694
 30
0.000000
  70
    32
  0
VERTEX
  8
242
  5
47B8
 10
53.7128
 20
-16.6845
 30
0.000000
  70
    32
  0
VERTEX
  8
242
  5
47B9
 10
53.5920
 20
-16.7954
 30
0.000000
  70
    32
  0
VERTEX
  8
242
  5
47BA
 10
53.4638
 20
-16.9019
 30
0.000000
  70
    32
  0
VERTEX
  8
242
  5
47BB
 10
53.3284
 20
-17.0038
 30
0.000000
  70
    32
  0
VERTEX
  8
242
  5
47BC
 10
53.1862
 20
-17.1009
 30
0.000000
  70
    32
  0
VERTEX
  8
242
  5
47BD
 10
53.0376
 20
-17.1928
 30
0.000000
  70
    32
  0
VERTEX
  8
242
  5
47BE
 10
52.8828
 20
-17.2794
 30
0.000000
  70
    32
  0
VERTEX
  8
242
  5
47BF
 10
52.7223
 20
-17.3604
 30
0.000000
  70
    32
  0
VERTEX
  8
242
  5
47C0
 10
52.5564
 20
-17.4357
 30
0.000000
  70
    32
  0
VERTEX
  8
242
  5
47C1
 10
52.3856
 20
-17.5050
 30
0.000000
  70
    32
  0
VERTEX
  8
242
  5
47C2
 10
52.2102
 20
-17.5683
 30
0.000000
  70
    32
  0
VERTEX
  8
242
  5
47C3
 10
52.0307
 20
-17.6253
 30
0.000000
  70
    32
  0
VERTEX
  8
242
  5
47C4
 10
51.8476
 20
-17.6760
 30
0.000000
  70
    32
  0
VERTEX
  8
242
  5
47C5
 10
51.6611
 20
-17.7201
 30
0.000000
  70
    32
  0
VERTEX
  8
242
  5
47C6
 10
51.4719
 20
-17.7576
 30
0.000000
  70
    32
  0
VERTEX
  8
242
  5
47C7
 10
51.2804
 20
-17.7885
 30
0.000000
  70
    32
  0
VERTEX
  8
242
  5
47C8
 10
51.0869
 20
-17.8125
 30
0.000000
  70
    32
  0
VERTEX
  8
242
  5
47C9
 10
50.8921
 20
-17.8297
 30
0.000000
  70
    32
  0
VERTEX
  8
242
  5
47CA
 10
50.6963
 20
-17.8401
 30
0.000000
  70
    32
  0
VERTEX
  8
242
  5
47CB
 10
50.5000
 20
-17.8435
 30
0.000000
  70
    32
  0
VERTEX
  8
242
  5
47CC
 10
50.3037
 20
-17.8401
 30
0.000000
  70
    32
  0
VERTEX
  8
242
  5
47CD
 10
50.1079
 20
-17.8297
 30
0.000000
  70
    32
  0
VERTEX
  8
242
  5
47CE
 10
49.9131
 20
-17.8125
 30
0.000000
  70
    32
  0
VERTEX
  8
242
  5
47CF
 10
49.7196
 20
-17.7885
 30
0.000000
  70
    32
  0
VERTEX
  8
242
  5
47D0
 10
49.5281
 20
-17.7576
 30
0.000000
  70
    32
  0
VERTEX
  8
242
  5
47D1
 10
49.3389
 20
-17.7201
 30
0.000000
  70
    32
  0
VERTEX
  8
242
  5
47D2
 10
49.1524
 20
-17.6760
 30
0.000000
  70
    32
  0
VERTEX
  8
242
  5
47D3
 10
48.9693
 20
-17.6253
 30
0.000000
  70
    32
  0
VERTEX
  8
242
  5
47D4
 10
48.7898
 20
-17.5683
 30
0.000000
  70
    32
  0
VERTEX
  8
242
  5
47D5
 10
48.6144
 20
-17.5050
 30
0.000000
  70
    32
  0
VERTEX
  8
242
  5
47D6
 10
48.4436
 20
-17.4357
 30
0.000000
  70
    32
  0
VERTEX
  8
242
  5
47D7
 10
48.2777
 20
-17.3604
 30
0.000000
  70
    32
  0
VERTEX
  8
242
  5
47D8
 10
48.1172
 20
-17.2794
 30
0.000000
  70
    32
  0
VERTEX
  8
242
  5
47D9
 10
47.9624
 20
-17.1928
 30
0.000000
  70
    32
  0
VERTEX
  8
242
  5
47DA
 10
47.8138
 20
-17.1009
 30
0.000000
  70
    32
  0
VERTEX
  8
242
  5
47DB
 10
47.6716
 20
-17.0038
 30
0.000000
  70
    32
  0
VERTEX
  8
242
  5
47DC
 10
47.5362
 20
-16.9019
 30
0.000000
  70
    32
  0
VERTEX
  8
242
  5
47DD
 10
47.4080
 20
-16.7954
 30
0.000000
  70
    32
  0
VERTEX
  8
242
  5
47DE
 10
47.2872
 20
-16.6845
 30
0.000000
  70
    32
  0
VERTEX
  8
242
  5
47DF
 10
47.1741
 20
-16.5694
 30
0.000000
  70
    32
  0
VERTEX
  8
242
  5
47E0
 10
47.0691
 20
-16.4505
 30
0.000000
  70
    32
  0
VERTEX
  8
242
  5
47E1
 10
46.9723
 20
-16.3281
 30
0.000000
  70
    32
  0
VERTEX
  8
242
  5
47E2
 10
46.8840
 20
-16.2024
 30
0.000000
  70
    32
  0
VERTEX
  8
242
  5
47E3
 10
46.8045
 20
-16.0738
 30
0.000000
  70
    32
  0
VERTEX
  8
242
  5
47E4
 10
46.7338
 20
-15.9425
 30
0.000000
  70
    32
  0
VERTEX
  8
242
  5
47E5
 10
46.6722
 20
-15.8089
 30
0.000000
  70
    32
  0
VERTEX
  8
242
  5
47E6
 10
46.6199
 20
-15.6732
 30
0.000000
  70
    32
  0
VERTEX
  8
242
  5
47E7
 10
46.5769
 20
-15.5359
 30
0.000000
  70
    32
  0
VERTEX
  8
242
  5
47E8
 10
46.5433
 20
-15.3973
 30
0.000000
  70
    32
  0
VERTEX
  8
242
  5
47E9
 10
46.5193
 20
-15.2576
 30
0.000000
  70
    32
  0
VERTEX
  8
242
  5
47EA
 10
46.5048
 20
-15.1173
 30
0.000000
  70
    32
  0
VERTEX
  8
242
  5
47EB
 10
46.5000
 20
-14.9766
 30
0.000000
  70
    32
  0
SEQEND
  8
242
  5
47EC
  0
LINE
  5
436C
  8
245
  6
CENTER2
 10
50.500000000004412
 20
-18.798731290190489
 30
0.0
 11
50.500000000004412
 21
-10.618000583178141
 31
0.0
  0
LINE
  5
436D
  8
245
  6
CENTER2
 10
45.375274146277057
 20
-15.203597193862921
 30
0.0
 11
55.185811260878701
 21
-15.203597193862921
 31
0.0
  0
LINE
  5
436E
  8
241
  6
CONTINUOUS
 10
59.029000000008317
 20
21.500000000000941
 30
0.0
 11
59.029000000006619
 21
-21.499999999999229
 31
0.0
  0
LINE
  5
436F
  8
241
  6
CONTINUOUS
 10
57.970699475587963
 20
21.500000000000309
 30
0.0
 11
57.97069947558785
 21
-21.49999999999892
 31
0.0
  0
ARC
  5
4370
  8
240
  6
CONTINUOUS
 10
2.2410475463496429
 20
22.50000000000011
 30
0.0
 40
1.0
 50
194.99999999999531
 51
269.99999999999932
1001
GENIUS_GENODEF_13
1002
{
1000
HIER
1070
     0
1002
}
1002
{
1000
MANEDIT
1070
     0
1002
}
1002
{
1000
NOSEL
1070
     0
1002
}
1002
{
1000
BEHIND
1070
     0
1002
}
1002
{
1000
OTHER
1070
     0
1002
}
1002
{
1000
REACTOR
1002
}
1001
GENIUS_GENOBJ-N-FIL_13
1002
{
1000
OWNER
1000
GEN
1002
}
  0
ARC
  5
4372
  8
240
  6
CONTINUOUS
 10
2.2410475463497082
 20
-22.499999999999869
 30
0.0
 40
1.0
 50
90.000000000000384
 51
165.00000000000469
1001
GENIUS_GENODEF_13
1002
{
1000
HIER
1070
     0
1002
}
1002
{
1000
MANEDIT
1070
     0
1002
}
1002
{
1000
NOSEL
1070
     0
1002
}
1002
{
1000
BEHIND
1070
     0
1002
}
1002
{
1000
OTHER
1070
     0
1002
}
1002
{
1000
REACTOR
1002
}
1001
GENIUS_GENOBJ-N-FIL_13
1002
{
1000
OWNER
1000
GEN
1002
}
  0
LINE
  5
437A
  8
241
  6
CONTINUOUS
 10
1.4737205583706141
 20
21.858743971943429
 30
0.0
 11
1.4737205583706821
 21
-21.858743971943191
 31
0.0
  0
LINE
  5
438D
  8
243
  6
HIDDEN2
 10
63.499999999998131
 20
-11.3790000000003
 30
0.0
 11
31.50000000000372
 21
-11.3790000000003
 31
0.0
  0
LINE
  5
438E
  8
243
  6
HIDDEN2
 10
63.500000000004178
 20
11.378999999999699
 30
0.0
 11
31.500000000003389
 21
11.378999999999699
 31
0.0
  0
CIRCLE
  5
438F
  8
242
  6
CONTINUOUS
 10
20.500000000001329
 20
-0.0000000000002842
 30
0.0
 40
4.0
  0
CIRCLE
  5
4390
  8
241
  6
CONTINUOUS
 10
20.500000000001329
 20
-0.0000000000002842
 30
0.0
 40
3.375
  0
LINE
  5
4391
  8
243
  6
HIDDEN2
 10
31.50000000000372
 20
-11.3790000000003
 30
0.0
 11
31.500000000003389
 21
11.378999999999699
 31
0.0
  0
LINE
  5
4392
  8
245
  6
CENTER2
 10
20.500000000001329
 20
6.0
 30
0.0
 11
20.500000000001329
 21
-6.0
 31
0.0
  0
LINE
  5
4395
  8
243
  6
HIDDEN2
 10
7.500000000003693
 20
8.5850000000010738
 30
0.0
 11
7.4999999999990008
 21
-8.5850000000015001
 31
0.0
  0
LINE
  5
4396
  8
243
  6
HIDDEN2
 10
7.500000000003693
 20
8.5850000000010738
 30
0.0
 11
31.500000000003428
 21
8.5850000000010738
 31
0.0
  0
LINE
  5
4397
  8
243
  6
HIDDEN2
 10
7.4999999999990008
 20
-8.5850000000015001
 30
0.0
 11
31.500000000003681
 21
-8.5850000000015001
 31
0.0
  0
LINE
  5
4398
  8
244
  6
HIDDEN2
 10
7.5000000000036939
 20
8.5850000000010738
 30
0.0
 11
31.500000000003681
 21
-8.5850000000015001
 31
0.0
  0
LINE
  5
4399
  8
244
  6
HIDDEN2
 10
7.4999999999990008
 20
-8.5850000000015001
 30
0.0
 11
31.500000000003428
 21
8.5850000000010738
 31
0.0
  0
LINE
  5
44A8
  8
250
  6
CONTINUOUS
 10
-0.0000000000018434
 20
27.500000000006722
 30
0.0
 11
-0.0000000000018424
 21
43.0
 31
0.0
  0
LINE
  5
44A9
  8
250
  6
CONTINUOUS
 10
63.500000000006878
 20
21.9999999999993
 30
0.0
 11
63.500000000006878
 21
43.0
 31
0.0
  0
LINE
  5
44AA
  8
250
  6
CONTINUOUS
 10
2.229999999998157
 20
42.0
 30
0.0
 11
61.270000000006888
 21
42.0
 31
0.0
  0
LINE
  5
44AE
  8
250
  6
CONTINUOUS
 10
64.000000000006864
 20
21.499999999999311
 30
0.0
 11
85.0
 21
21.4999999999993
 31
0.0
  0
LINE
  5
44AF
  8
250
  6
CONTINUOUS
 10
63.999999999995431
 20
-21.499999999999471
 30
0.0
 11
85.0
 21
-21.499999999999471
 31
0.0
  0
LINE
  5
44B0
  8
250
  6
CONTINUOUS
 10
84.0
 20
19.2699999999993
 30
0.0
 11
84.0
 21
-19.26999999999947
 31
0.0
  0
LINE
  5
44B4
  8
250
  6
CONTINUOUS
 10
64.000000000004192
 20
11.378999999999699
 30
0.0
 11
78.0
 21
11.378999999999699
 31
0.0
  0
LINE
  5
44B5
  8
250
  6
CONTINUOUS
 10
63.999999999998131
 20
-11.3790000000003
 30
0.0
 11
78.0
 21
-11.3790000000003
 31
0.0
  0
LINE
  5
44B6
  8
250
  6
CONTINUOUS
 10
77.0
 20
9.1489999999997025
 30
0.0
 11
77.0
 21
-9.1490000000003064
 31
0.0
  0
LINE
  5
44BA
  8
250
  6
CONTINUOUS
 10
7.000000000003693
 20
8.5850000000010755
 30
0.0
 11
5.407334312629942
 21
8.5850000000010755
 31
0.0
  0
LINE
  5
44BB
  8
250
  6
CONTINUOUS
 10
6.9999999999990008
 20
-8.5850000000015001
 30
0.0
 11
5.4073343126299376
 21
-8.5850000000015001
 31
0.0
  0
LINE
  5
44BC
  8
250
  6
CONTINUOUS
 10
6.407334312629942
 20
6.3550000000010751
 30
0.0
 11
6.4073343126299376
 21
-6.3550000000014988
 31
0.0
  0
LINE
  5
44C0
  8
250
  6
CONTINUOUS
 10
6.0356676459632741
 20
6.3550000000010751
 30
0.0
 11
6.407334312629942
 21
8.5850000000010755
 31
0.0
  0
LINE
  5
44C1
  8
250
  6
CONTINUOUS
 10
6.7790009792966082
 20
6.3550000000010751
 30
0.0
 11
6.407334312629942
 21
8.5850000000010755
 31
0.0
  0
LINE
  5
44C2
  8
250
  6
CONTINUOUS
 10
6.407334312629942
 20
8.5850000000010755
 30
0.0
 11
6.407334312629942
 21
6.3550000000010751
 31
0.0
  0
LINE
  5
44C3
  8
250
  6
CONTINUOUS
 10
6.7790009792966046
 20
-6.3550000000014988
 30
0.0
 11
6.4073343126299376
 21
-8.5850000000015001
 31
0.0
  0
LINE
  5
44C4
  8
250
  6
CONTINUOUS
 10
6.0356676459632723
 20
-6.3550000000014988
 30
0.0
 11
6.4073343126299376
 21
-8.5850000000015001
 31
0.0
  0
LINE
  5
44C5
  8
250
  6
CONTINUOUS
 10
6.4073343126299376
 20
-8.5850000000015001
 30
0.0
 11
6.4073343126299376
 21
-6.3550000000014988
 31
0.0
  0
TEXT
  5
44C6
  8
250
  6
CONTINUOUS
 10
28.41666666666919
 20
43.0
 30
0.0
 40
2.7999999999999989
  1
2.50
  0
LINE
  5
44C7
  8
250
  6
CONTINUOUS
 10
61.270000000006888
 20
42.371666666666663
 30
0.0
 11
63.500000000006878
 21
42.0
 31
0.0
  0
LINE
  5
44C8
  8
250
  6
CONTINUOUS
 10
61.270000000006888
 20
41.62833333333333
 30
0.0
 11
63.500000000006878
 21
42.0
 31
0.0
  0
LINE
  5
44C9
  8
250
  6
CONTINUOUS
 10
63.500000000006878
 20
42.0
 30
0.0
 11
61.270000000006888
 21
42.0
 31
0.0
  0
LINE
  5
44CA
  8
250
  6
CONTINUOUS
 10
2.229999999998157
 20
41.62833333333333
 30
0.0
 11
-0.0000000000018425
 21
42.0
 31
0.0
  0
LINE
  5
44CB
  8
250
  6
CONTINUOUS
 10
2.229999999998157
 20
42.371666666666663
 30
0.0
 11
-0.0000000000018425
 21
42.0
 31
0.0
  0
LINE
  5
44CC
  8
250
  6
CONTINUOUS
 10
-0.0000000000018425
 20
42.0
 30
0.0
 11
2.229999999998157
 21
42.0
 31
0.0
  0
TEXT
  5
44CD
  8
250
  6
CONTINUOUS
 10
82.999999999999986
 20
-7.2666666666667341
 30
0.0
 40
2.7999999999999989
  1
\U+22051.693
 50
90.0
  0
LINE
  5
44CE
  8
250
  6
CONTINUOUS
 10
84.371666666666684
 20
-19.26999999999947
 30
0.0
 11
84.0
 21
-21.499999999999471
 31
0.0
  0
LINE
  5
44CF
  8
250
  6
CONTINUOUS
 10
83.628333333333316
 20
-19.26999999999947
 30
0.0
 11
84.0
 21
-21.499999999999471
 31
0.0
  0
LINE
  5
44D0
  8
250
  6
CONTINUOUS
 10
84.0
 20
-21.499999999999471
 30
0.0
 11
84.0
 21
-19.26999999999947
 31
0.0
  0
LINE
  5
44D1
  8
250
  6
CONTINUOUS
 10
83.628333333333316
 20
19.2699999999993
 30
0.0
 11
84.0
 21
21.4999999999993
 31
0.0
  0
LINE
  5
44D2
  8
250
  6
CONTINUOUS
 10
84.371666666666684
 20
19.2699999999993
 30
0.0
 11
84.0
 21
21.4999999999993
 31
0.0
  0
LINE
  5
44D3
  8
250
  6
CONTINUOUS
 10
84.0
 20
21.4999999999993
 30
0.0
 11
84.0
 21
19.2699999999993
 31
0.0
  0
TEXT
  5
44D4
  8
250
  6
CONTINUOUS
 10
76.115768926744735
 20
-5.4150113877310151
 30
0.0
 40
2.7999999999999989
  1
\U+2205.896
 50
90.0
  0
LINE
  5
44D5
  8
250
  6
CONTINUOUS
 10
77.371666666666655
 20
-9.1490000000003064
 30
0.0
 11
77.0
 21
-11.3790000000003
 31
0.0
  0
LINE
  5
44D6
  8
250
  6
CONTINUOUS
 10
76.62833333333333
 20
-9.1490000000003064
 30
0.0
 11
77.0
 21
-11.3790000000003
 31
0.0
  0
LINE
  5
44D7
  8
250
  6
CONTINUOUS
 10
77.0
 20
-11.3790000000003
 30
0.0
 11
77.0
 21
-9.1490000000003064
 31
0.0
  0
LINE
  5
44D8
  8
250
  6
CONTINUOUS
 10
76.62833333333333
 20
9.1489999999997025
 30
0.0
 11
77.0
 21
11.378999999999699
 31
0.0
  0
LINE
  5
44D9
  8
250
  6
CONTINUOUS
 10
77.371666666666655
 20
9.1489999999997025
 30
0.0
 11
77.0
 21
11.378999999999699
 31
0.0
  0
LINE
  5
44DA
  8
250
  6
CONTINUOUS
 10
77.0
 20
11.378999999999699
 30
0.0
 11
77.0
 21
9.1489999999997025
 31
0.0
  0
TEXT
  5
44DB
  8
250
  6
CONTINUOUS
 10
5.4073343126299394
 20
-7.6000000000002066
 30
0.0
 40
2.7999999999999989
  1
üá
 50
90.0
  0
TEXT
  5
44DC
  8
250
  6
CONTINUOUS
 10
5.4073343126299394
 20
-4.2666666666668744
 30
0.0
 40
2.7999999999999989
  1
.672
 50
90.0
  0
VIEWPORT
  5
22
 67
     1
  8
0
 10
261.51769911504419
 20
148.5
 30
0.0
 40
523.0353982300885
 41
297.0
 68
     1
 69
     1
1001
ACAD
1000
MVIEW
1002
{
1070
    16
1010
0.0
1020
0.0
1030
0.0
1010
0.0
1020
0.0
1030
1.0
1040
0.0
1040
297.0
1040
261.51769911504419
1040
148.5
1040
50.0
1040
0.0
1040
0.0
1070
     0
1070
   100
1070
     1
1070
     1
1070
     0
1070
     0
1070
     0
1070
     0
1040
0.0
1040
0.0
1040
0.0
1040
1.0
1040
1.0
1040
10.0
1040
10.0
1070
     0
1002
{
1002
}
1002
}
1001
GENIUS_GENODEF_13
1002
{
1000
HIER
1070
     0
1002
}
1002
{
1000
MANEDIT
1070
     0
1002
}
1002
{
1000
NOSEL
1070
     0
1002
}
1002
{
1000
BEHIND
1070
     0
1002
}
1002
{
1000
OTHER
1070
     0
1002
}
1002
{
1000
REACTOR
1002
}
1001
GENIUS_GENOBJ-N-SDF_13
1002
{
1000
OWNER
1000
GEN
1002
}
1001
GENIUS_GENSCREG_15
1000
PF
1040
1.0
1000
DF
1040
1.0
1000
MIN
1011
0.0
1021
0.0
1031
0.0
1021
0.0
1031
0.0
1000
MAX
1011
523.0353982300885
1021
0.0
1031
0.0
1021
297.0
1031
0.0
1000
FLAGS
1070
     4
  0
ENDSEC
  0
EOF
