  0
SECTION
  2
HEADER
  9
$ACADVER
  1
AC1009
  9
$INSBASE
 10
0.0
 20
0.0
 30
0.0
  9
$EXTMIN
 10
-92.220854310484356
 20
-26.999999999994539
 30
0.0
  9
$EXTMAX
 10
85.0
 20
64.928571428571431
 30
0.0
  9
$LIMMIN
 10
0.0
 20
0.0
  9
$LIMMAX
 10
297.0
 20
210.0
  9
$ORTHOMODE
 70
     1
  9
$REGENMODE
 70
     1
  9
$FILLMODE
 70
     1
  9
$QTEXTMODE
 70
     0
  9
$MIRRTEXT
 70
     1
  9
$DRAGMODE
 70
     2
  9
$LTSCALE
 40
10.0
  9
$OSMODE
 70
    37
  9
$ATTMODE
 70
     1
  9
$TEXTSIZE
 40
3.0
  9
$TRACEWID
 40
1.0
  9
$TEXTSTYLE
  7
YOKO
  9
$CLAYER
  8
240
  9
$CELTYPE
  6
BYLAYER
  9
$CECOLOR
 62
   256
  9
$DIMSCALE
 40
1.0
  9
$DIMASZ
 40
2.2299999999999991
  9
$DIMEXO
 40
0.5
  9
$DIMDLI
 40
7.0
  9
$DIMRND
 40
0.0
  9
$DIMDLE
 40
0.0
  9
$DIMEXE
 40
1.0
  9
$DIMTP
 40
0.0
  9
$DIMTM
 40
0.01
  9
$DIMTXT
 40
2.7999999999999989
  9
$DIMCEN
 40
0.0
  9
$DIMTSZ
 40
0.0
  9
$DIMTOL
 70
     0
  9
$DIMLIM
 70
     0
  9
$DIMTIH
 70
     0
  9
$DIMTOH
 70
     0
  9
$DIMSE1
 70
     0
  9
$DIMSE2
 70
     0
  9
$DIMTAD
 70
     3
  9
$DIMZIN
 70
     9
  9
$DIMBLK
  1
OPEN
  9
$DIMASO
 70
     1
  9
$DIMSHO
 70
     1
  9
$DIMPOST
  1

  9
$DIMAPOST
  1

  9
$DIMALT
 70
     0
  9
$DIMALTD
 70
     2
  9
$DIMALTF
 40
25.399999999999999
  9
$DIMLFAC
 40
1.0
  9
$DIMTOFL
 70
     1
  9
$DIMTVP
 40
0.0
  9
$DIMTIX
 70
     1
  9
$DIMSOXD
 70
     0
  9
$DIMSAH
 70
     0
  9
$DIMBLK1
  1

  9
$DIMBLK2
  1

  9
$DIMSTYLE
  2
BIGT
  9
$DIMCLRD
 70
   256
  9
$DIMCLRE
 70
   256
  9
$DIMCLRT
 70
    40
  9
$DIMTFAC
 40
1.0
  9
$DIMGAP
 40
1.0
  9
$LUNITS
 70
     2
  9
$LUPREC
 70
     6
  9
$SKETCHINC
 40
1.0
  9
$FILLETRAD
 40
1.0
  9
$AUNITS
 70
     0
  9
$AUPREC
 70
     6
  9
$MENU
  1
.
  9
$ELEVATION
 40
0.0
  9
$PELEVATION
 40
0.0
  9
$THICKNESS
 40
0.0
  9
$LIMCHECK
 70
     0
  9
$BLIPMODE
 70
     0
  9
$CHAMFERA
 40
0.2
  9
$CHAMFERB
 40
0.2
  9
$SKPOLY
 70
     0
  9
$TDCREATE
 40
2458145.7457764582
  9
$TDUPDATE
 40
2458148.5919725341
  9
$TDINDWG
 40
0.0084269213
  9
$TDUSRTIMER
 40
0.0084268981
  9
$USRTIMER
 70
     1
  9
$ANGBASE
 50
0.0
  9
$ANGDIR
 70
     0
  9
$PDMODE
 70
     1
  9
$PDSIZE
 40
0.0
  9
$PLINEWID
 40
0.0
  9
$COORDS
 70
     1
  9
$SPLFRAME
 70
     0
  9
$SPLINETYPE
 70
     6
  9
$SPLINESEGS
 70
     4
  9
$ATTDIA
 70
     1
  9
$ATTREQ
 70
     1
  9
$HANDLING
 70
     1
  9
$HANDSEED
  5
47DD
  9
$SURFTAB1
 70
     6
  9
$SURFTAB2
 70
     6
  9
$SURFTYPE
 70
     6
  9
$SURFU
 70
     6
  9
$SURFV
 70
     6
  9
$UCSNAME
  2

  9
$UCSORG
 10
0.0
 20
0.0
 30
0.0
  9
$UCSXDIR
 10
1.0
 20
0.0
 30
0.0
  9
$UCSYDIR
 10
0.0
 20
1.0
 30
0.0
  9
$PUCSNAME
  2

  9
$PUCSORG
 10
0.0
 20
0.0
 30
0.0
  9
$PUCSXDIR
 10
1.0
 20
0.0
 30
0.0
  9
$PUCSYDIR
 10
0.0
 20
1.0
 30
0.0
  9
$USERI1
 70
     1
  9
$USERI2
 70
     0
  9
$USERI3
 70
     0
  9
$USERI4
 70
     0
  9
$USERI5
 70
     0
  9
$USERR1
 40
0.0
  9
$USERR2
 40
0.0
  9
$USERR3
 40
0.0
  9
$USERR4
 40
0.0
  9
$USERR5
 40
0.0
  9
$WORLDVIEW
 70
     1
  9
$SHADEDGE
 70
     3
  9
$SHADEDIF
 70
    70
  9
$TILEMODE
 70
     1
  9
$MAXACTVP
 70
    16
  9
$PLIMCHECK
 70
     0
  9
$PEXTMIN
 10
1.0000000000000000E+020
 20
1.0000000000000000E+020
 30
1.0000000000000000E+020
  9
$PEXTMAX
 10
-1.0000000000000000E+020
 20
-1.0000000000000000E+020
 30
-1.0000000000000000E+020
  9
$PLIMMIN
 10
0.0
 20
0.0
  9
$PLIMMAX
 10
420.0
 20
297.0
  9
$UNITMODE
 70
     0
  9
$VISRETAIN
 70
     1
  9
$PLINEGEN
 70
     0
  9
$PSLTSCALE
 70
     1
  0
ENDSEC
  0
SECTION
  2
TABLES
  0
TABLE
  2
VPORT
 70
     1
  0
VPORT
  2
*ACTIVE
 70
     0
 10
0.0
 20
0.0
 11
1.0
 21
1.0
 12
19.03129907985053
 22
20.19539094045177
 13
0.0
 23
0.0
 14
7.0
 24
7.0
 15
7.0
 25
7.0
 16
0.0
 26
0.0
 36
1.0
 17
0.0
 27
0.0
 37
0.0
 40
170.70153224105309
 41
1.5644444444444441
 42
50.0
 43
0.0
 44
0.0
 50
0.0
 51
0.0
 71
     0
 72
  2000
 73
     1
 74
     0
 75
     0
 76
     1
 77
     0
 78
     0
  0
ENDTAB
  0
TABLE
  2
LTYPE
 70
    18
  0
LTYPE
  2
CONTINUOUS
 70
     0
  3
Solid line
 72
    65
 73
     0
 40
0.0
  0
LTYPE
  2
CENTER2
 70
     0
  3
___ _ ___ _ ___ _ ___ _ ___ _ ___ _ ___ _ ___ _
 72
    65
 73
     4
 40
1.125
 49
0.75
 49
-0.125
 49
0.125
 49
-0.125
  0
LTYPE
  2
HIDDEN2
 70
     0
  3
_ _ _ _ _ _ _ _ _ _ _ _ _ _ _ _ _ _ _ _ _ _ _ _
 72
    65
 73
     2
 40
0.1875
 49
0.125
 49
-0.0625
  0
LTYPE
  2
AM_ISO02W050
 70
     0
  3
__ __ __ __ __ __ __ __ __ __ __ __ __ __ __
 72
    65
 73
     2
 40
7.5
 49
6.0
 49
-1.5
  0
LTYPE
  2
AMCONSTR
 70
     0
  3
_______________________
 72
    65
 73
     2
 40
9999.0
 49
9999.0
 49
0.0
  0
LTYPE
  2
ACISOWELD
 70
     0
  3
_ _ _ _ _
 72
    65
 73
     2
 40
2.0
 49
2.0
 49
-1.0
  0
LTYPE
  2
ACISOTGB
 70
     0
  3
__ . . __ . .
 72
    65
 73
     6
 40
9.0
 49
4.0
 49
-1.0
 49
1.0
 49
-1.0
 49
1.0
 49
-1.0
  0
LTYPE
  2
ACISOTGL
 70
     0
  3
_ _ _ _ _
 72
    65
 73
     2
 40
3.0
 49
2.0
 49
-1.0
  0
LTYPE
  2
AM_ISO08W050
 70
     0
  3
____ . ____ . ____ . ____ . ____ . ____ . ____
 72
    65
 73
     4
 40
18.0
 49
12.0
 49
-1.5
 49
3.0
 49
-1.5
  0
LTYPE
  2
AM_ISO09W050
 70
     0
  3
_____ . . _____ . . _____ . . ____ .. ____
 72
    65
 73
     6
 40
22.5
 49
12.0
 49
-1.5
 49
3.0
 49
-1.5
 49
3.0
 49
-1.5
  0
LTYPE
  2
AM_ISO08W050X2
 70
     0
  3
__ . __ . __ . __ . __ . __
 72
    65
 73
     4
 40
9.0
 49
6.0
 49
-0.75
 49
1.5
 49
-0.75
  0
LTYPE
  2
AM_ISO02W050X2
 70
     0
  3
 _ _ _ _ _ _ _ _ _ _ _ _
 72
    65
 73
     2
 40
3.75
 49
3.0
 49
-0.75
  0
LTYPE
  2
AMZIGZAG
 70
     0
  3
/\/-/\/-/\/-/\/-/\/-/\/
 72
    65
 73
     2
 40
11.0001
 49
0.0001
 49
-11.0
  0
ENDTAB
  0
TABLE
  2
LAYER
 70
    10
  0
LAYER
  2
0
 70
     0
 62
     7
  6
CONTINUOUS
  0
LAYER
  2
DEFPOINTS
 70
     0
 62
     7
  6
CONTINUOUS
  0
LAYER
  2
245
 70
     0
 62
     2
  6
CENTER2
  0
LAYER
  2
240
 70
     0
 62
     4
  6
CONTINUOUS
  0
LAYER
  2
241
 70
     0
 62
   211
  6
CONTINUOUS
  0
LAYER
  2
242
 70
     0
 62
     3
  6
CONTINUOUS
  0
LAYER
  2
243
 70
     0
 62
   211
  6
HIDDEN2
  0
LAYER
  2
244
 70
     0
 62
     3
  6
HIDDEN2
  0
LAYER
  2
247
 70
     0
 62
    60
  6
CONTINUOUS
  0
LAYER
  2
250
 70
     0
 62
     3
  6
CONTINUOUS
  0
ENDTAB
  0
TABLE
  2
STYLE
 70
     7
  0
STYLE
  2
STANDARD
 70
     0
 40
0.0
 41
1.0
 50
0.0
 71
     0
 42
3.0
  3
romans.shx
  4
extfont.shx
  0
STYLE
  2
ACISOGDT
 70
     0
 40
0.0
 41
1.0
 50
0.0
 71
     0
 42
3.0
  3
amgdt.shx
  4
extfont.shx
  0
STYLE
  2
YOKO
 70
     0
 40
0.0
 41
1.0
 50
0.0
 71
     0
 42
3.0
  3
romans.shx
  4
extfont.shx
  0
STYLE
  2

 70
     1
 40
0.0
 41
1.0
 50
0.0
 71
     0
 42
3.0
  3
genltshp.shx
  4

  0
ENDTAB
  0
TABLE
  2
VIEW
 70
     0
  0
ENDTAB
  0
TABLE
  2
UCS
 70
     0
  0
ENDTAB
  0
TABLE
  2
APPID
 70
    39
  0
APPID
  2
ACAD
 70
     0
  0
APPID
  2
GLOBAL
 70
     0
  0
APPID
  2
DETAIL
 70
     0
  0
APPID
  2
GRPNAME
 70
     0
  0
APPID
  2
GPARA
 70
     0
  0
APPID
  2
MCAD_NO_VIS
 70
     0
  0
APPID
  2
ACAD_TEMP_GRAPHIC
 70
     0
  0
APPID
  2
ACATTRIBSERVICES
 70
     0
  0
APPID
  2
GENIUS_GENSCREG_15
 70
     0
  0
APPID
  2
GENIUS_GENODEF_13
 70
     0
  0
APPID
  2
GENIUS_GENOBJ-N-SDF_13
 70
     0
  0
APPID
  2
GENIUS_GENREC_14
 70
     0
  0
APPID
  2
GENIUS_GENOBJ-N-REC_13
 70
     0
  0
APPID
  2
GENIUS_GENDIMSH_14
 70
     0
  0
APPID
  2
GENIUS_GENOBJ-N-DIM_13
 70
     0
  0
APPID
  2
GENIUS_GENDIM_13
 70
     0
  0
APPID
  2
GENIUS_GENDTOL_13
 70
     0
  0
APPID
  2
GENIUS_GENOLIS_13
 70
     0
  0
APPID
  2
GENIUS_GENOENT_13
 70
     0
  0
APPID
  2
GENIUS_GENOBJ-F-FEM_13
 70
     0
  0
APPID
  2
GENIUS_GENOREF_13
 70
     0
  0
APPID
  2
GENIUS_GEFFEM_13
 70
     0
  0
APPID
  2
GENIUS_GEFFEMP_13
 70
     0
  0
APPID
  2
AD_DRAW
 70
     0
  0
APPID
  2
DESIGNERASSEMBLIES
 70
     0
  0
APPID
  2
ACADM_DIM_EDIT
 70
     0
  0
APPID
  2
AMDT_DM_ADJ
 70
     0
  0
APPID
  2
ITEMNAME
 70
     0
  0
APPID
  2
GENIUS_GENOBJ-N-FIL_13
 70
     0
  0
APPID
  2
GENIUS_GENFIL_13
 70
     0
  0
APPID
  2
GENIUS_GENOBJ-N-CHA_13
 70
     0
  0
APPID
  2
ACAECLAYERSTANDARD
 70
     0
  0
APPID
  2
ACAD_NAV_VCDISPLAY
 70
     0
  0
APPID
  2
GENIUS_GENOBJ-N-CRS_13
 70
     0
  0
APPID
  2
ACAD_DSTYLE_DIMJAG
 70
     0
  0
APPID
  2
ACAD_DSTYLE_DIMBREAK
 70
     0
  0
APPID
  2
ACAD_EXEMPT_FROM_CAD_STANDARDS
 70
     0
  0
APPID
  2
ACAD_DSTYLE_DIMINSPECT
 70
     0
  0
APPID
  2
ACAD_MLEADERVER
 70
     0
  0
ENDTAB
  0
TABLE
  2
DIMSTYLE
 70
    23
  0
DIMSTYLE
  2
BIGT
 70
     0
  3

  4

  5
OPEN
  6

  7

 40
1.0
 41
2.2299999999999991
 42
0.5
 43
7.0
 44
1.0
 45
0.0
 46
0.0
 47
0.0
 48
0.01
140
2.7999999999999989
141
0.0
142
0.0
143
25.399999999999999
144
1.0
145
0.0
146
1.0
147
1.0
 71
     0
 72
     0
 73
     0
 74
     0
 75
     0
 76
     0
 77
     3
 78
     9
170
     0
171
     2
172
     1
173
     0
174
     1
175
     0
176
   256
177
   256
178
    40
  0
DIMSTYLE
  2
AM_ISO
 70
     0
  3

  4
"
  5

  6

  7

 40
1.0
 41
2.5
 42
1.0
 43
10.0
 44
1.0
 45
0.0
 46
0.0
 47
0.1
 48
0.1
140
3.5
141
0.0
142
0.0
143
0.0393701
144
1.0
145
0.0
146
0.71
147
1.5
 71
     0
 72
     0
 73
     0
 74
     0
 75
     0
 76
     0
 77
     1
 78
     8
170
     0
171
     2
172
     1
173
     0
174
     0
175
     0
176
   256
177
   256
178
     2
  0
DIMSTYLE
  2
AM_ISO$3
 70
     0
  3

  4
"
  5

  6

  7

 40
1.0
 41
2.5
 42
1.0
 43
10.0
 44
1.0
 45
0.0
 46
0.0
 47
0.1
 48
0.1
140
3.5
141
0.0
142
0.0
143
0.0393701
144
1.0
145
0.0
146
0.71
147
1.5
 71
     0
 72
     0
 73
     0
 74
     1
 75
     0
 76
     0
 77
     1
 78
     8
170
     0
171
     2
172
     0
173
     0
174
     0
175
     0
176
   256
177
   256
178
     2
  0
DIMSTYLE
  2
AM_ISO$4
 70
     0
  3

  4
"
  5

  6

  7

 40
1.0
 41
2.5
 42
1.0
 43
10.0
 44
1.0
 45
0.0
 46
0.0
 47
0.1
 48
0.1
140
3.5
141
0.0
142
0.0
143
0.0393701
144
1.0
145
0.0
146
0.71
147
1.5
 71
     0
 72
     0
 73
     0
 74
     1
 75
     0
 76
     0
 77
     1
 78
     8
170
     0
171
     2
172
     0
173
     0
174
     0
175
     0
176
   256
177
   256
178
     2
  0
DIMSTYLE
  2
AM_ISO$6
 70
     0
  3

  4
"
  5

  6

  7

 40
1.0
 41
2.5
 42
1.0
 43
10.0
 44
1.0
 45
0.0
 46
0.0
 47
0.1
 48
0.1
140
3.5
141
0.0
142
0.0
143
0.0393701
144
1.0
145
0.0
146
0.71
147
1.5
 71
     0
 72
     0
 73
     0
 74
     0
 75
     0
 76
     0
 77
     0
 78
     8
170
     0
171
     2
172
     1
173
     0
174
     0
175
     0
176
   256
177
   256
178
     2
  0
DIMSTYLE
  2
AM_ISO$7
 70
     0
  3

  4
"
  5

  6

  7

 40
1.0
 41
2.5
 42
1.0
 43
10.0
 44
1.0
 45
0.0
 46
0.0
 47
0.1
 48
0.1
140
5.0
141
0.0
142
0.0
143
0.0393701
144
1.0
145
0.0
146
0.71
147
1.5
 71
     0
 72
     0
 73
     0
 74
     0
 75
     0
 76
     0
 77
     1
 78
     8
170
     0
171
     2
172
     1
173
     0
174
     0
175
     0
176
   256
177
   256
178
     2
  0
DIMSTYLE
  2
AM_ISO$SF
 70
     0
  3

  4
"
  5

  6

  7

 40
1.0
 41
2.5
 42
1.0
 43
10.0
 44
1.0
 45
0.0
 46
0.0
 47
0.1
 48
0.1
140
3.5
141
0.0
142
0.0
143
0.0393701
144
1.0
145
0.0
146
0.71
147
1.5
 71
     0
 72
     0
 73
     0
 74
     0
 75
     1
 76
     1
 77
     1
 78
     8
170
     0
171
     2
172
     1
173
     0
174
     0
175
     0
176
   256
177
   256
178
     2
  0
DIMSTYLE
  2
AM_ISO$SH
 70
     0
  3

  4
"
  5

  6
GENAXEH
  7

 40
1.0
 41
2.5
 42
1.0
 43
10.0
 44
1.0
 45
0.0
 46
0.0
 47
0.1
 48
0.1
140
3.5
141
0.0
142
0.0
143
0.0393701
144
2.0
145
0.0
146
0.71
147
1.5
 71
     0
 72
     0
 73
     0
 74
     0
 75
     1
 76
     1
 77
     1
 78
     8
170
     0
171
     2
172
     1
173
     1
174
     0
175
     0
176
   256
177
   256
178
     2
  0
ENDTAB
  0
ENDSEC
  0
SECTION
  2
BLOCKS
  0
BLOCK
  8
0
  2
$MODEL_SPACE
 70
     0
 10
0.0
 20
0.0
 30
0.0
  3
$MODEL_SPACE
  1

  0
ENDBLK
  5
1C
  8
0
  0
BLOCK
 67
     1
  8
0
  2
$PAPER_SPACE
 70
     0
 10
0.0
 20
0.0
 30
0.0
  3
$PAPER_SPACE
  1

  0
ENDBLK
  5
19
 67
     1
  8
0
  0
BLOCK
  8
0
  2
_OPEN
 70
     0
 10
0.0
 20
0.0
 30
0.0
  3
_OPEN
  1

  0
LINE
  5
3E1A
  8
0
  6
BYBLOCK
 62
     0
 10
-1.0
 20
0.1666666666666666
 30
0.0
 11
0.0
 21
0.0
 31
0.0
  0
LINE
  5
3E1B
  8
0
  6
BYBLOCK
 62
     0
 10
-1.0
 20
-0.1666666666666666
 30
0.0
 11
0.0
 21
0.0
 31
0.0
  0
LINE
  5
3E1C
  8
0
  6
BYBLOCK
 62
     0
 10
0.0
 20
0.0
 30
0.0
 11
-1.0
 21
0.0
 31
0.0
  0
ENDBLK
  5
3E1D
  8
0
  0
BLOCK
  8
0
  2
GENAXEH
 70
     0
 10
0.0
 20
0.0
 30
0.0
  3
GENAXEH
  1

  0
LINE
  5
3E45
  8
0
 10
-1.0
 20
0.0
 30
0.0
 11
1.0
 21
0.0
 31
0.0
  0
ENDBLK
  5
3E46
  8
0
  0
ENDSEC
  0
SECTION
  2
ENTITIES
  0
TEXT
  5
42BF
  8
241
  6
CONTINUOUS
 10
-90.706710985125014
 20
56.0
 30
0.0
 40
7.5
  1
MGT36-AU1.1/4-2.5
  7
YOKO
  0
LINE
  5
42C0
  8
245
  6
CENTER2
 10
-66.000000000001819
 20
19.999999999996358
 30
0.0
 11
-66.000000000005471
 21
-19.999999999996358
 31
0.0
1001
GENIUS_GENOREF_13
1005
433C
  0
LINE
  5
42C1
  8
241
  6
CONTINUOUS
 10
-42.500000000005457
 20
-19.800000000004719
 30
0.0
 11
-42.500000000005457
 21
19.800000000004719
 31
0.0
  0
LINE
  5
42C2
  8
241
  6
CONTINUOUS
 10
-45.000000000005457
 20
-19.800000000004719
 30
0.0
 11
-45.000000000001812
 21
19.800000000004719
 31
0.0
  0
LINE
  5
42C3
  8
241
  6
CONTINUOUS
 10
-9.0000000000018172
 20
-20.000000000002451
 30
0.0
 11
-9.0000000000018172
 21
20.000000000002451
 31
0.0
  0
LINE
  5
42C4
  8
240
  6
CONTINUOUS
 10
-9.0000000000018172
 20
26.49999999999654
 30
0.0
 11
-7.6262612902781219
 21
26.999999999994539
 31
0.0
  0
LINE
  5
42C5
  8
240
  6
CONTINUOUS
 10
0.0000000000023231
 20
26.999999999994539
 30
0.0
 11
-7.6262612902781219
 21
26.999999999994539
 31
0.0
  0
LINE
  5
42C6
  8
240
  6
CONTINUOUS
 10
-51.500000000020009
 20
20.0
 30
0.0
 11
-9.0000000000018172
 21
20.000000000002451
 31
0.0
  0
LINE
  5
42C7
  8
240
  6
CONTINUOUS
 10
-55.000000000020009
 20
16.5
 30
0.0
 11
-51.500000000020009
 21
20.0
 31
0.0
  0
LINE
  5
42C8
  8
240
  6
CONTINUOUS
 10
-55.000000000020009
 20
16.5
 30
0.0
 11
-66.000000000005471
 21
16.5
 31
0.0
  0
LINE
  5
42C9
  8
240
  6
CONTINUOUS
 10
-76.999999999987267
 20
16.499999999998181
 30
0.0
 11
-66.000000000001819
 21
16.499999999972712
 31
0.0
  0
LINE
  5
42CA
  8
240
  6
CONTINUOUS
 10
-76.999999999987267
 20
16.499999999998181
 30
0.0
 11
-80.499999999995453
 21
20.000000000002728
 31
0.0
  0
LINE
  5
42CB
  8
245
  6
CENTER2
 10
-92.220854310484356
 20
0.0
 30
0.0
 11
68.112823223807155
 21
0.0
 31
0.0
  0
LINE
  5
42CC
  8
241
  6
CONTINUOUS
 10
-0.0000000000018435
 20
26.999999999994539
 30
0.0
 11
0.0000000000018435
 21
-26.999999999994539
 31
0.0
  0
LINE
  5
42CD
  8
241
  6
CONTINUOUS
 10
-7.6262612902773981
 20
26.999999999994539
 30
0.0
 11
-7.6262612902773981
 21
-26.999999999994088
 31
0.0
  0
LINE
  5
42CE
  8
241
  6
CONTINUOUS
 10
-29.000000000005461
 20
-19.80000000000382
 30
0.0
 11
-29.000000000005461
 21
19.800000000004271
 31
0.0
  0
LINE
  5
42CF
  8
241
  6
CONTINUOUS
 10
-31.500000000001808
 20
-19.80000000000382
 30
0.0
 11
-31.500000000001808
 21
19.800000000004271
 31
0.0
  0
LINE
  5
42D0
  8
240
  6
CONTINUOUS
 10
-9.0000000000018172
 20
-26.499999999996561
 30
0.0
 11
-7.6262612902781202
 21
-26.999999999994539
 31
0.0
  0
LINE
  5
42D1
  8
240
  6
CONTINUOUS
 10
0.0000000000023229
 20
-26.999999999994539
 30
0.0
 11
-7.6262612902781202
 21
-26.999999999994539
 31
0.0
  0
LINE
  5
42D2
  8
240
  6
CONTINUOUS
 10
-55.000000000020009
 20
-16.5
 30
0.0
 11
-51.500000000020009
 21
-20.0
 31
0.0
  0
LINE
  5
42D3
  8
240
  6
CONTINUOUS
 10
-55.000000000020009
 20
-16.5
 30
0.0
 11
-66.000000000005471
 21
-16.5
 31
0.0
  0
LINE
  5
42D4
  8
240
  6
CONTINUOUS
 10
-76.999999999987267
 20
-16.499999999998181
 30
0.0
 11
-66.000000000001819
 21
-16.499999999972712
 31
0.0
  0
LINE
  5
42D5
  8
240
  6
CONTINUOUS
 10
-76.999999999987267
 20
-16.499999999998181
 30
0.0
 11
-80.499999999990905
 21
-19.999999999998181
 31
0.0
  0
LINE
  5
42D6
  8
240
  6
CONTINUOUS
 10
-51.500000000020009
 20
-20.0
 30
0.0
 11
-9.0000000000018172
 21
-20.000000000002451
 31
0.0
  0
LINE
  5
42D7
  8
240
  6
CONTINUOUS
 10
-90.000000000000824
 20
20.000000000002728
 30
0.0
 11
-90.000000000002771
 21
-20.000000000001361
 31
0.0
  0
LINE
  5
42D8
  8
240
  6
CONTINUOUS
 10
-90.000000000000824
 20
20.000000000002728
 30
0.0
 11
-80.499999999995453
 21
20.000000000002728
 31
0.0
  0
LINE
  5
42D9
  8
240
  6
CONTINUOUS
 10
-90.000000000002771
 20
-20.000000000001361
 30
0.0
 11
-80.499999999995453
 21
-20.000000000001361
 31
0.0
  0
LINE
  5
42DA
  8
240
  6
CONTINUOUS
 10
-9.0000000000018172
 20
20.000000000002451
 30
0.0
 11
-9.0000000000018172
 21
26.49999999999654
 31
0.0
  0
LINE
  5
42DB
  8
240
  6
CONTINUOUS
 10
-9.0000000000018172
 20
-20.000000000002451
 30
0.0
 11
-9.0000000000018172
 21
-26.499999999996561
 31
0.0
  0
LINE
  5
42DC
  8
247
  6
CONTINUOUS
 10
7.9742360359850286
 20
-16.75000000000356
 30
0.0
 11
7.9742360359850863
 21
-12.115384615673589
 31
0.0
  0
LINE
  5
42DD
  8
247
  6
CONTINUOUS
 10
5.4742360359850863
 20
-15.954893499991501
 30
0.0
 11
7.5742360359010936
 21
-16.557058810060919
 31
0.0
  0
LINE
  5
42DE
  8
247
  6
CONTINUOUS
 10
6.4703898820990844
 20
-15.32515140352259
 30
0.0
 11
6.4703898820990844
 21
-16.240536018870579
 31
0.0
  0
ARC
  5
42DF
  8
247
  6
CONTINUOUS
 10
5.858955103279186
 20
-15.087263401950359
 30
0.0
 40
0.3876715809326743
 50
72.997889675291987
 51
172.92416621851271
  0
ARC
  5
42E0
  8
247
  6
CONTINUOUS
 10
5.7794591670131013
 20
-15.382477556807659
 30
0.0
 40
0.6933047965358772
 50
4.7429368522013959
 51
73.849226273266481
1001
GENIUS_GENOBJ-N-FIL_13
1002
{
1000
OWNER
1000
GEN
1002
}
1001
GENIUS_GENODEF_13
1002
{
1000
HIER
1070
     0
1002
}
1002
{
1000
MANEDIT
1070
     0
1002
}
1002
{
1000
NOSEL
1070
     0
1002
}
1002
{
1000
BEHIND
1070
     0
1002
}
1002
{
1000
OTHER
1070
     0
1002
}
1002
{
1000
REACTOR
1002
}
  0
LINE
  5
42E1
  8
247
  6
CONTINUOUS
 10
7.5742360359010936
 20
-15.641674194712911
 30
0.0
 11
7.5742360359010936
 21
-16.557058810060919
 31
0.0
  0
LINE
  5
42E2
  8
247
  6
CONTINUOUS
 10
5.4742360359850863
 20
-15.95489349999151
 30
0.0
 11
5.4742360359850863
 21
-15.039508884643499
 31
0.0
  0
ARC
  5
42E3
  8
247
  6
CONTINUOUS
 10
6.8616529987529571
 20
-15.37830647627039
 30
0.0
 40
0.394857301075386
 50
65.990941652528775
 51
172.2634434590698
  0
ARC
  5
42E4
  8
247
  6
CONTINUOUS
 10
6.8654363633176549
 20
-15.712446610430471
 30
0.0
 40
0.7123241612361686
 50
5.7019851642581392
 51
77.27733843682222
1001
GENIUS_GENOBJ-N-FIL_13
1002
{
1000
OWNER
1000
GEN
1002
}
1001
GENIUS_GENODEF_13
1002
{
1000
HIER
1070
     0
1002
}
1002
{
1000
MANEDIT
1070
     0
1002
}
1002
{
1000
NOSEL
1070
     0
1002
}
1002
{
1000
BEHIND
1070
     0
1002
}
1002
{
1000
OTHER
1070
     0
1002
}
1002
{
1000
REACTOR
1002
}
  0
LINE
  5
42E5
  8
247
  6
CONTINUOUS
 10
7.5742360359010936
 20
-14.683981887066929
 30
0.0
 11
5.4742360359850863
 21
-14.08181657699752
 31
0.0
  0
LINE
  5
42E6
  8
247
  6
CONTINUOUS
 10
5.4742360359850863
 20
-12.585662730911521
 30
0.0
 11
5.4742360359850863
 21
-12.98167836430714
 31
0.0
  0
LINE
  5
42E7
  8
247
  6
CONTINUOUS
 10
7.5742360359010936
 20
-13.60873965394752
 30
0.0
 11
7.5742360359010936
 21
-13.17797042319553
 31
0.0
  0
ARC
  5
42E8
  8
247
  6
CONTINUOUS
 10
6.9325356310684461
 20
-12.38181657707351
 30
0.0
 40
1.576855057639547
 50
202.35948814152741
 51
254.99324854284589
  0
ARC
  5
42E9
  8
247
  6
CONTINUOUS
 10
6.0400548945232231
 20
-12.84751136613678
 30
0.0
 40
0.6234706797009447
 50
94.994589319075374
 51
155.16632895730319
1001
GENIUS_GENOBJ-N-FIL_13
1002
{
1000
OWNER
1000
GEN
1002
}
1001
GENIUS_GENODEF_13
1002
{
1000
HIER
1070
     0
1002
}
1002
{
1000
MANEDIT
1070
     0
1002
}
1002
{
1000
NOSEL
1070
     0
1002
}
1002
{
1000
BEHIND
1070
     0
1002
}
1002
{
1000
OTHER
1070
     0
1002
}
1002
{
1000
REACTOR
1002
}
  0
ARC
  5
42EA
  8
247
  6
CONTINUOUS
 10
6.6363381579545262
 20
-13.444183951036329
 30
0.0
 40
0.9749472149106983
 50
15.846096555779839
 51
82.325137004169108
  0
ARC
  5
42EB
  8
247
  6
CONTINUOUS
 10
6.8457064379561521
 20
-13.03521163877577
 30
0.0
 40
0.9271945638692009
 50
249.71360167049701
 51
321.7887456564099
1001
GENIUS_GENOBJ-N-FIL_13
1002
{
1000
OWNER
1000
GEN
1002
}
1001
GENIUS_GENODEF_13
1002
{
1000
HIER
1070
     0
1002
}
1002
{
1000
MANEDIT
1070
     0
1002
}
1002
{
1000
NOSEL
1070
     0
1002
}
1002
{
1000
BEHIND
1070
     0
1002
}
1002
{
1000
OTHER
1070
     0
1002
}
1002
{
1000
REACTOR
1002
}
  0
LINE
  5
42EC
  8
247
  6
CONTINUOUS
 10
6.7665437282410599
 20
-12.96258580781952
 30
0.0
 11
6.7665437282410599
 21
-12.477970423223519
 31
0.0
  0
ARC
  5
42ED
  8
247
  6
CONTINUOUS
 10
6.7242360359850863
 20
-16.75000000000356
 30
0.0
 40
1.25
 50
180.0
 51
0.0
  0
LINE
  5
42EE
  8
247
  6
CONTINUOUS
 10
5.4742360359850863
 20
-16.75000000000356
 30
0.0
 11
5.4742360359850863
 21
-16.303846153917561
 31
0.0
  0
ARC
  5
42EF
  8
247
  6
CONTINUOUS
 10
6.7242360359850863
 20
-12.11538461567357
 30
0.0
 40
1.25
 50
0.0
 51
180.0
  0
POINT
  5
433C
  8
0
 10
-15041.480041667361
 20
9982.2519074072643
 30
0.0
1001
GENIUS_GENOLIS_13
1002
{
1000
ENT
1005
0
1005
0
1005
42C0
1005
0
1002
}
1001
GENIUS_GENOENT_13
1002
{
1000
MYREF
1005
433C
1002
}
1002
{
1000
GRP
1005
0
1002
}
1001
GENIUS_GENOBJ-N-CRS_13
1002
{
1000
OWNER
1000
GEN
1002
}
1001
GENIUS_GENODEF_13
1002
{
1000
HIER
1070
    10
1002
}
1002
{
1000
MANEDIT
1070
     1
1002
}
1002
{
1000
NOSEL
1070
     0
1002
}
1002
{
1000
BEHIND
1070
     0
1002
}
1002
{
1000
OTHER
1070
     0
1002
}
1002
{
1000
REACTOR
1002
}
  0
LINE
  5
435B
  8
241
  6
CONTINUOUS
 10
35.899999999957721
 20
-24.99999999999693
 30
0.0
 11
35.8999999999576
 21
24.999999999997272
 31
0.0
  0
LINE
  5
435C
  8
241
  6
CONTINUOUS
 10
37.499999999963251
 20
-24.99999999999665
 30
0.0
 11
37.499999999963137
 21
24.999999999996959
 31
0.0
  0
LINE
  5
435D
  8
241
  6
CONTINUOUS
 10
38.899999999958062
 20
-24.999999999996451
 30
0.0
 11
38.899999999957039
 21
24.999999999996689
 31
0.0
  0
LINE
  5
435E
  8
241
  6
CONTINUOUS
 10
40.499999999963869
 20
-24.999999999996142
 30
0.0
 11
40.499999999963649
 21
24.99999999999638
 31
0.0
  0
LINE
  5
435F
  8
240
  6
CONTINUOUS
 10
63.500000000005862
 20
24.9999999999919
 30
0.0
 11
1.3032253728406069
 21
25.000000000004011
 31
0.0
  0
LINE
  5
4360
  8
240
  6
CONTINUOUS
 10
63.499999999992603
 20
-24.999999999992141
 30
0.0
 11
63.500000000005862
 21
24.9999999999919
 31
0.0
  0
LINE
  5
4362
  8
240
  6
CONTINUOUS
 10
1.303225372841005
 20
-25.000000000002618
 30
0.0
 11
63.499999999992603
 21
-24.999999999992141
 31
0.0
  0
POLYLINE
  5
4363
  8
242
  6
CONTINUOUS
 10
43.500000000002579
 20
17.313063996708049
 30
0.0
 66
     1
 70
     8
  0
VERTEX
  8
242
  5
45D5
 10
43.5000
 20
17.3131
 30
0.000000
  70
    32
  0
VERTEX
  8
242
  5
45D6
 10
43.5060
 20
17.1396
 30
0.000000
  70
    32
  0
VERTEX
  8
242
  5
45D7
 10
43.5241
 20
16.9665
 30
0.000000
  70
    32
  0
VERTEX
  8
242
  5
45D8
 10
43.5541
 20
16.7943
 30
0.000000
  70
    32
  0
VERTEX
  8
242
  5
45D9
 10
43.5961
 20
16.6233
 30
0.000000
  70
    32
  0
VERTEX
  8
242
  5
45DA
 10
43.6498
 20
16.4540
 30
0.000000
  70
    32
  0
VERTEX
  8
242
  5
45DB
 10
43.7153
 20
16.2868
 30
0.000000
  70
    32
  0
VERTEX
  8
242
  5
45DC
 10
43.7923
 20
16.1220
 30
0.000000
  70
    32
  0
VERTEX
  8
242
  5
45DD
 10
43.8806
 20
15.9601
 30
0.000000
  70
    32
  0
VERTEX
  8
242
  5
45DE
 10
43.9801
 20
15.8014
 30
0.000000
  70
    32
  0
VERTEX
  8
242
  5
45DF
 10
44.0904
 20
15.6464
 30
0.000000
  70
    32
  0
VERTEX
  8
242
  5
45E0
 10
44.2114
 20
15.4954
 30
0.000000
  70
    32
  0
VERTEX
  8
242
  5
45E1
 10
44.3427
 20
15.3488
 30
0.000000
  70
    32
  0
VERTEX
  8
242
  5
45E2
 10
44.4840
 20
15.2069
 30
0.000000
  70
    32
  0
VERTEX
  8
242
  5
45E3
 10
44.6349
 20
15.0701
 30
0.000000
  70
    32
  0
VERTEX
  8
242
  5
45E4
 10
44.7952
 20
14.9387
 30
0.000000
  70
    32
  0
VERTEX
  8
242
  5
45E5
 10
44.9645
 20
14.8131
 30
0.000000
  70
    32
  0
VERTEX
  8
242
  5
45E6
 10
45.1422
 20
14.6934
 30
0.000000
  70
    32
  0
VERTEX
  8
242
  5
45E7
 10
45.3280
 20
14.5801
 30
0.000000
  70
    32
  0
VERTEX
  8
242
  5
45E8
 10
45.5215
 20
14.4733
 30
0.000000
  70
    32
  0
VERTEX
  8
242
  5
45E9
 10
45.7221
 20
14.3734
 30
0.000000
  70
    32
  0
VERTEX
  8
242
  5
45EA
 10
45.9295
 20
14.2805
 30
0.000000
  70
    32
  0
VERTEX
  8
242
  5
45EB
 10
46.1430
 20
14.1950
 30
0.000000
  70
    32
  0
VERTEX
  8
242
  5
45EC
 10
46.3622
 20
14.1170
 30
0.000000
  70
    32
  0
VERTEX
  8
242
  5
45ED
 10
46.5866
 20
14.0467
 30
0.000000
  70
    32
  0
VERTEX
  8
242
  5
45EE
 10
46.8156
 20
13.9842
 30
0.000000
  70
    32
  0
VERTEX
  8
242
  5
45EF
 10
47.0486
 20
13.9298
 30
0.000000
  70
    32
  0
VERTEX
  8
242
  5
45F0
 10
47.2851
 20
13.8835
 30
0.000000
  70
    32
  0
VERTEX
  8
242
  5
45F1
 10
47.5245
 20
13.8455
 30
0.000000
  70
    32
  0
VERTEX
  8
242
  5
45F2
 10
47.7663
 20
13.8158
 30
0.000000
  70
    32
  0
VERTEX
  8
242
  5
45F3
 10
48.0099
 20
13.7946
 30
0.000000
  70
    32
  0
VERTEX
  8
242
  5
45F4
 10
48.2547
 20
13.7818
 30
0.000000
  70
    32
  0
VERTEX
  8
242
  5
45F5
 10
48.5000
 20
13.7775
 30
0.000000
  70
    32
  0
VERTEX
  8
242
  5
45F6
 10
48.7453
 20
13.7818
 30
0.000000
  70
    32
  0
VERTEX
  8
242
  5
45F7
 10
48.9901
 20
13.7946
 30
0.000000
  70
    32
  0
VERTEX
  8
242
  5
45F8
 10
49.2337
 20
13.8158
 30
0.000000
  70
    32
  0
VERTEX
  8
242
  5
45F9
 10
49.4755
 20
13.8455
 30
0.000000
  70
    32
  0
VERTEX
  8
242
  5
45FA
 10
49.7149
 20
13.8835
 30
0.000000
  70
    32
  0
VERTEX
  8
242
  5
45FB
 10
49.9514
 20
13.9298
 30
0.000000
  70
    32
  0
VERTEX
  8
242
  5
45FC
 10
50.1844
 20
13.9842
 30
0.000000
  70
    32
  0
VERTEX
  8
242
  5
45FD
 10
50.4134
 20
14.0467
 30
0.000000
  70
    32
  0
VERTEX
  8
242
  5
45FE
 10
50.6378
 20
14.1170
 30
0.000000
  70
    32
  0
VERTEX
  8
242
  5
45FF
 10
50.8570
 20
14.1950
 30
0.000000
  70
    32
  0
VERTEX
  8
242
  5
4600
 10
51.0705
 20
14.2805
 30
0.000000
  70
    32
  0
VERTEX
  8
242
  5
4601
 10
51.2779
 20
14.3734
 30
0.000000
  70
    32
  0
VERTEX
  8
242
  5
4602
 10
51.4785
 20
14.4733
 30
0.000000
  70
    32
  0
VERTEX
  8
242
  5
4603
 10
51.6720
 20
14.5801
 30
0.000000
  70
    32
  0
VERTEX
  8
242
  5
4604
 10
51.8578
 20
14.6934
 30
0.000000
  70
    32
  0
VERTEX
  8
242
  5
4605
 10
52.0355
 20
14.8131
 30
0.000000
  70
    32
  0
VERTEX
  8
242
  5
4606
 10
52.2048
 20
14.9387
 30
0.000000
  70
    32
  0
VERTEX
  8
242
  5
4607
 10
52.3651
 20
15.0701
 30
0.000000
  70
    32
  0
VERTEX
  8
242
  5
4608
 10
52.5160
 20
15.2069
 30
0.000000
  70
    32
  0
VERTEX
  8
242
  5
4609
 10
52.6573
 20
15.3488
 30
0.000000
  70
    32
  0
VERTEX
  8
242
  5
460A
 10
52.7886
 20
15.4954
 30
0.000000
  70
    32
  0
VERTEX
  8
242
  5
460B
 10
52.9096
 20
15.6464
 30
0.000000
  70
    32
  0
VERTEX
  8
242
  5
460C
 10
53.0199
 20
15.8014
 30
0.000000
  70
    32
  0
VERTEX
  8
242
  5
460D
 10
53.1194
 20
15.9601
 30
0.000000
  70
    32
  0
VERTEX
  8
242
  5
460E
 10
53.2077
 20
16.1220
 30
0.000000
  70
    32
  0
VERTEX
  8
242
  5
460F
 10
53.2847
 20
16.2868
 30
0.000000
  70
    32
  0
VERTEX
  8
242
  5
4610
 10
53.3502
 20
16.4540
 30
0.000000
  70
    32
  0
VERTEX
  8
242
  5
4611
 10
53.4039
 20
16.6233
 30
0.000000
  70
    32
  0
VERTEX
  8
242
  5
4612
 10
53.4459
 20
16.7943
 30
0.000000
  70
    32
  0
VERTEX
  8
242
  5
4613
 10
53.4759
 20
16.9665
 30
0.000000
  70
    32
  0
VERTEX
  8
242
  5
4614
 10
53.4940
 20
17.1396
 30
0.000000
  70
    32
  0
VERTEX
  8
242
  5
4615
 10
53.5000
 20
17.3131
 30
0.000000
  70
    32
  0
VERTEX
  8
242
  5
4616
 10
53.4940
 20
17.4865
 30
0.000000
  70
    32
  0
VERTEX
  8
242
  5
4617
 10
53.4759
 20
17.6596
 30
0.000000
  70
    32
  0
VERTEX
  8
242
  5
4618
 10
53.4459
 20
17.8318
 30
0.000000
  70
    32
  0
VERTEX
  8
242
  5
4619
 10
53.4039
 20
18.0028
 30
0.000000
  70
    32
  0
VERTEX
  8
242
  5
461A
 10
53.3502
 20
18.1721
 30
0.000000
  70
    32
  0
VERTEX
  8
242
  5
461B
 10
53.2847
 20
18.3394
 30
0.000000
  70
    32
  0
VERTEX
  8
242
  5
461C
 10
53.2077
 20
18.5041
 30
0.000000
  70
    32
  0
VERTEX
  8
242
  5
461D
 10
53.1194
 20
18.6661
 30
0.000000
  70
    32
  0
VERTEX
  8
242
  5
461E
 10
53.0199
 20
18.8247
 30
0.000000
  70
    32
  0
VERTEX
  8
242
  5
461F
 10
52.9096
 20
18.9797
 30
0.000000
  70
    32
  0
VERTEX
  8
242
  5
4620
 10
52.7886
 20
19.1307
 30
0.000000
  70
    32
  0
VERTEX
  8
242
  5
4621
 10
52.6573
 20
19.2773
 30
0.000000
  70
    32
  0
VERTEX
  8
242
  5
4622
 10
52.5160
 20
19.4192
 30
0.000000
  70
    32
  0
VERTEX
  8
242
  5
4623
 10
52.3651
 20
19.5560
 30
0.000000
  70
    32
  0
VERTEX
  8
242
  5
4624
 10
52.2048
 20
19.6874
 30
0.000000
  70
    32
  0
VERTEX
  8
242
  5
4625
 10
52.0355
 20
19.8131
 30
0.000000
  70
    32
  0
VERTEX
  8
242
  5
4626
 10
51.8578
 20
19.9327
 30
0.000000
  70
    32
  0
VERTEX
  8
242
  5
4627
 10
51.6720
 20
20.0461
 30
0.000000
  70
    32
  0
VERTEX
  8
242
  5
4628
 10
51.4785
 20
20.1528
 30
0.000000
  70
    32
  0
VERTEX
  8
242
  5
4629
 10
51.2779
 20
20.2528
 30
0.000000
  70
    32
  0
VERTEX
  8
242
  5
462A
 10
51.0705
 20
20.3456
 30
0.000000
  70
    32
  0
VERTEX
  8
242
  5
462B
 10
50.8570
 20
20.4311
 30
0.000000
  70
    32
  0
VERTEX
  8
242
  5
462C
 10
50.6378
 20
20.5091
 30
0.000000
  70
    32
  0
VERTEX
  8
242
  5
462D
 10
50.4134
 20
20.5795
 30
0.000000
  70
    32
  0
VERTEX
  8
242
  5
462E
 10
50.1844
 20
20.6419
 30
0.000000
  70
    32
  0
VERTEX
  8
242
  5
462F
 10
49.9514
 20
20.6964
 30
0.000000
  70
    32
  0
VERTEX
  8
242
  5
4630
 10
49.7149
 20
20.7426
 30
0.000000
  70
    32
  0
VERTEX
  8
242
  5
4631
 10
49.4755
 20
20.7807
 30
0.000000
  70
    32
  0
VERTEX
  8
242
  5
4632
 10
49.2337
 20
20.8103
 30
0.000000
  70
    32
  0
VERTEX
  8
242
  5
4633
 10
48.9901
 20
20.8316
 30
0.000000
  70
    32
  0
VERTEX
  8
242
  5
4634
 10
48.7453
 20
20.8443
 30
0.000000
  70
    32
  0
VERTEX
  8
242
  5
4635
 10
48.5000
 20
20.8486
 30
0.000000
  70
    32
  0
VERTEX
  8
242
  5
4636
 10
48.2547
 20
20.8443
 30
0.000000
  70
    32
  0
VERTEX
  8
242
  5
4637
 10
48.0099
 20
20.8316
 30
0.000000
  70
    32
  0
VERTEX
  8
242
  5
4638
 10
47.7663
 20
20.8103
 30
0.000000
  70
    32
  0
VERTEX
  8
242
  5
4639
 10
47.5245
 20
20.7807
 30
0.000000
  70
    32
  0
VERTEX
  8
242
  5
463A
 10
47.2851
 20
20.7426
 30
0.000000
  70
    32
  0
VERTEX
  8
242
  5
463B
 10
47.0486
 20
20.6964
 30
0.000000
  70
    32
  0
VERTEX
  8
242
  5
463C
 10
46.8156
 20
20.6419
 30
0.000000
  70
    32
  0
VERTEX
  8
242
  5
463D
 10
46.5866
 20
20.5795
 30
0.000000
  70
    32
  0
VERTEX
  8
242
  5
463E
 10
46.3622
 20
20.5091
 30
0.000000
  70
    32
  0
VERTEX
  8
242
  5
463F
 10
46.1430
 20
20.4311
 30
0.000000
  70
    32
  0
VERTEX
  8
242
  5
4640
 10
45.9295
 20
20.3456
 30
0.000000
  70
    32
  0
VERTEX
  8
242
  5
4641
 10
45.7221
 20
20.2528
 30
0.000000
  70
    32
  0
VERTEX
  8
242
  5
4642
 10
45.5215
 20
20.1528
 30
0.000000
  70
    32
  0
VERTEX
  8
242
  5
4643
 10
45.3280
 20
20.0461
 30
0.000000
  70
    32
  0
VERTEX
  8
242
  5
4644
 10
45.1422
 20
19.9327
 30
0.000000
  70
    32
  0
VERTEX
  8
242
  5
4645
 10
44.9645
 20
19.8131
 30
0.000000
  70
    32
  0
VERTEX
  8
242
  5
4646
 10
44.7952
 20
19.6874
 30
0.000000
  70
    32
  0
VERTEX
  8
242
  5
4647
 10
44.6349
 20
19.5560
 30
0.000000
  70
    32
  0
VERTEX
  8
242
  5
4648
 10
44.4840
 20
19.4192
 30
0.000000
  70
    32
  0
VERTEX
  8
242
  5
4649
 10
44.3427
 20
19.2773
 30
0.000000
  70
    32
  0
VERTEX
  8
242
  5
464A
 10
44.2114
 20
19.1307
 30
0.000000
  70
    32
  0
VERTEX
  8
242
  5
464B
 10
44.0904
 20
18.9797
 30
0.000000
  70
    32
  0
VERTEX
  8
242
  5
464C
 10
43.9801
 20
18.8247
 30
0.000000
  70
    32
  0
VERTEX
  8
242
  5
464D
 10
43.8806
 20
18.6661
 30
0.000000
  70
    32
  0
VERTEX
  8
242
  5
464E
 10
43.7923
 20
18.5041
 30
0.000000
  70
    32
  0
VERTEX
  8
242
  5
464F
 10
43.7153
 20
18.3394
 30
0.000000
  70
    32
  0
VERTEX
  8
242
  5
4650
 10
43.6498
 20
18.1721
 30
0.000000
  70
    32
  0
VERTEX
  8
242
  5
4651
 10
43.5961
 20
18.0028
 30
0.000000
  70
    32
  0
VERTEX
  8
242
  5
4652
 10
43.5541
 20
17.8318
 30
0.000000
  70
    32
  0
VERTEX
  8
242
  5
4653
 10
43.5241
 20
17.6596
 30
0.000000
  70
    32
  0
VERTEX
  8
242
  5
4654
 10
43.5060
 20
17.4865
 30
0.000000
  70
    32
  0
VERTEX
  8
242
  5
4655
 10
43.5000
 20
17.3131
 30
0.000000
  70
    32
  0
SEQEND
  8
242
  5
4656
  0
POLYLINE
  5
4364
  8
241
  6
CONTINUOUS
 10
44.250000000002579
 20
17.41502313967802
 30
0.0
 66
     1
 70
     8
  0
VERTEX
  8
241
  5
4657
 10
44.2500
 20
17.4150
 30
0.000000
  70
    32
  0
VERTEX
  8
241
  5
4658
 10
44.2551
 20
17.2676
 30
0.000000
  70
    32
  0
VERTEX
  8
241
  5
4659
 10
44.2705
 20
17.1205
 30
0.000000
  70
    32
  0
VERTEX
  8
241
  5
465A
 10
44.2960
 20
16.9741
 30
0.000000
  70
    32
  0
VERTEX
  8
241
  5
465B
 10
44.3317
 20
16.8287
 30
0.000000
  70
    32
  0
VERTEX
  8
241
  5
465C
 10
44.3774
 20
16.6848
 30
0.000000
  70
    32
  0
VERTEX
  8
241
  5
465D
 10
44.4330
 20
16.5427
 30
0.000000
  70
    32
  0
VERTEX
  8
241
  5
465E
 10
44.4984
 20
16.4026
 30
0.000000
  70
    32
  0
VERTEX
  8
241
  5
465F
 10
44.5735
 20
16.2650
 30
0.000000
  70
    32
  0
VERTEX
  8
241
  5
4660
 10
44.6580
 20
16.1301
 30
0.000000
  70
    32
  0
VERTEX
  8
241
  5
4661
 10
44.7518
 20
15.9984
 30
0.000000
  70
    32
  0
VERTEX
  8
241
  5
4662
 10
44.8547
 20
15.8700
 30
0.000000
  70
    32
  0
VERTEX
  8
241
  5
4663
 10
44.9663
 20
15.7454
 30
0.000000
  70
    32
  0
VERTEX
  8
241
  5
4664
 10
45.0864
 20
15.6248
 30
0.000000
  70
    32
  0
VERTEX
  8
241
  5
4665
 10
45.2147
 20
15.5085
 30
0.000000
  70
    32
  0
VERTEX
  8
241
  5
4666
 10
45.3510
 20
15.3969
 30
0.000000
  70
    32
  0
VERTEX
  8
241
  5
4667
 10
45.4948
 20
15.2900
 30
0.000000
  70
    32
  0
VERTEX
  8
241
  5
4668
 10
45.6459
 20
15.1883
 30
0.000000
  70
    32
  0
VERTEX
  8
241
  5
4669
 10
45.8038
 20
15.0920
 30
0.000000
  70
    32
  0
VERTEX
  8
241
  5
466A
 10
45.9683
 20
15.0012
 30
0.000000
  70
    32
  0
VERTEX
  8
241
  5
466B
 10
46.1388
 20
14.9163
 30
0.000000
  70
    32
  0
VERTEX
  8
241
  5
466C
 10
46.3151
 20
14.8374
 30
0.000000
  70
    32
  0
VERTEX
  8
241
  5
466D
 10
46.4966
 20
14.7647
 30
0.000000
  70
    32
  0
VERTEX
  8
241
  5
466E
 10
46.6829
 20
14.6984
 30
0.000000
  70
    32
  0
VERTEX
  8
241
  5
466F
 10
46.8736
 20
14.6386
 30
0.000000
  70
    32
  0
VERTEX
  8
241
  5
4670
 10
47.0682
 20
14.5855
 30
0.000000
  70
    32
  0
VERTEX
  8
241
  5
4671
 10
47.2663
 20
14.5392
 30
0.000000
  70
    32
  0
VERTEX
  8
241
  5
4672
 10
47.4673
 20
14.4999
 30
0.000000
  70
    32
  0
VERTEX
  8
241
  5
4673
 10
47.6709
 20
14.4676
 30
0.000000
  70
    32
  0
VERTEX
  8
241
  5
4674
 10
47.8764
 20
14.4423
 30
0.000000
  70
    32
  0
VERTEX
  8
241
  5
4675
 10
48.0834
 20
14.4243
 30
0.000000
  70
    32
  0
VERTEX
  8
241
  5
4676
 10
48.2915
 20
14.4134
 30
0.000000
  70
    32
  0
VERTEX
  8
241
  5
4677
 10
48.5000
 20
14.4098
 30
0.000000
  70
    32
  0
VERTEX
  8
241
  5
4678
 10
48.7085
 20
14.4134
 30
0.000000
  70
    32
  0
VERTEX
  8
241
  5
4679
 10
48.9166
 20
14.4243
 30
0.000000
  70
    32
  0
VERTEX
  8
241
  5
467A
 10
49.1236
 20
14.4423
 30
0.000000
  70
    32
  0
VERTEX
  8
241
  5
467B
 10
49.3291
 20
14.4676
 30
0.000000
  70
    32
  0
VERTEX
  8
241
  5
467C
 10
49.5327
 20
14.4999
 30
0.000000
  70
    32
  0
VERTEX
  8
241
  5
467D
 10
49.7337
 20
14.5392
 30
0.000000
  70
    32
  0
VERTEX
  8
241
  5
467E
 10
49.9318
 20
14.5855
 30
0.000000
  70
    32
  0
VERTEX
  8
241
  5
467F
 10
50.1264
 20
14.6386
 30
0.000000
  70
    32
  0
VERTEX
  8
241
  5
4680
 10
50.3171
 20
14.6984
 30
0.000000
  70
    32
  0
VERTEX
  8
241
  5
4681
 10
50.5034
 20
14.7647
 30
0.000000
  70
    32
  0
VERTEX
  8
241
  5
4682
 10
50.6849
 20
14.8374
 30
0.000000
  70
    32
  0
VERTEX
  8
241
  5
4683
 10
50.8612
 20
14.9163
 30
0.000000
  70
    32
  0
VERTEX
  8
241
  5
4684
 10
51.0317
 20
15.0012
 30
0.000000
  70
    32
  0
VERTEX
  8
241
  5
4685
 10
51.1962
 20
15.0920
 30
0.000000
  70
    32
  0
VERTEX
  8
241
  5
4686
 10
51.3541
 20
15.1883
 30
0.000000
  70
    32
  0
VERTEX
  8
241
  5
4687
 10
51.5052
 20
15.2900
 30
0.000000
  70
    32
  0
VERTEX
  8
241
  5
4688
 10
51.6490
 20
15.3969
 30
0.000000
  70
    32
  0
VERTEX
  8
241
  5
4689
 10
51.7853
 20
15.5085
 30
0.000000
  70
    32
  0
VERTEX
  8
241
  5
468A
 10
51.9136
 20
15.6248
 30
0.000000
  70
    32
  0
VERTEX
  8
241
  5
468B
 10
52.0337
 20
15.7454
 30
0.000000
  70
    32
  0
VERTEX
  8
241
  5
468C
 10
52.1453
 20
15.8700
 30
0.000000
  70
    32
  0
VERTEX
  8
241
  5
468D
 10
52.2482
 20
15.9984
 30
0.000000
  70
    32
  0
VERTEX
  8
241
  5
468E
 10
52.3420
 20
16.1301
 30
0.000000
  70
    32
  0
VERTEX
  8
241
  5
468F
 10
52.4265
 20
16.2650
 30
0.000000
  70
    32
  0
VERTEX
  8
241
  5
4690
 10
52.5016
 20
16.4026
 30
0.000000
  70
    32
  0
VERTEX
  8
241
  5
4691
 10
52.5670
 20
16.5427
 30
0.000000
  70
    32
  0
VERTEX
  8
241
  5
4692
 10
52.6226
 20
16.6848
 30
0.000000
  70
    32
  0
VERTEX
  8
241
  5
4693
 10
52.6683
 20
16.8287
 30
0.000000
  70
    32
  0
VERTEX
  8
241
  5
4694
 10
52.7040
 20
16.9741
 30
0.000000
  70
    32
  0
VERTEX
  8
241
  5
4695
 10
52.7295
 20
17.1205
 30
0.000000
  70
    32
  0
VERTEX
  8
241
  5
4696
 10
52.7449
 20
17.2676
 30
0.000000
  70
    32
  0
VERTEX
  8
241
  5
4697
 10
52.7500
 20
17.4150
 30
0.000000
  70
    32
  0
VERTEX
  8
241
  5
4698
 10
52.7449
 20
17.5625
 30
0.000000
  70
    32
  0
VERTEX
  8
241
  5
4699
 10
52.7295
 20
17.7096
 30
0.000000
  70
    32
  0
VERTEX
  8
241
  5
469A
 10
52.7040
 20
17.8560
 30
0.000000
  70
    32
  0
VERTEX
  8
241
  5
469B
 10
52.6683
 20
18.0013
 30
0.000000
  70
    32
  0
VERTEX
  8
241
  5
469C
 10
52.6226
 20
18.1452
 30
0.000000
  70
    32
  0
VERTEX
  8
241
  5
469D
 10
52.5670
 20
18.2874
 30
0.000000
  70
    32
  0
VERTEX
  8
241
  5
469E
 10
52.5016
 20
18.4274
 30
0.000000
  70
    32
  0
VERTEX
  8
241
  5
469F
 10
52.4265
 20
18.5651
 30
0.000000
  70
    32
  0
VERTEX
  8
241
  5
46A0
 10
52.3420
 20
18.6999
 30
0.000000
  70
    32
  0
VERTEX
  8
241
  5
46A1
 10
52.2482
 20
18.8317
 30
0.000000
  70
    32
  0
VERTEX
  8
241
  5
46A2
 10
52.1453
 20
18.9600
 30
0.000000
  70
    32
  0
VERTEX
  8
241
  5
46A3
 10
52.0337
 20
19.0846
 30
0.000000
  70
    32
  0
VERTEX
  8
241
  5
46A4
 10
51.9136
 20
19.2052
 30
0.000000
  70
    32
  0
VERTEX
  8
241
  5
46A5
 10
51.7853
 20
19.3215
 30
0.000000
  70
    32
  0
VERTEX
  8
241
  5
46A6
 10
51.6490
 20
19.4332
 30
0.000000
  70
    32
  0
VERTEX
  8
241
  5
46A7
 10
51.5052
 20
19.5400
 30
0.000000
  70
    32
  0
VERTEX
  8
241
  5
46A8
 10
51.3541
 20
19.6417
 30
0.000000
  70
    32
  0
VERTEX
  8
241
  5
46A9
 10
51.1962
 20
19.7381
 30
0.000000
  70
    32
  0
VERTEX
  8
241
  5
46AA
 10
51.0317
 20
19.8288
 30
0.000000
  70
    32
  0
VERTEX
  8
241
  5
46AB
 10
50.8612
 20
19.9138
 30
0.000000
  70
    32
  0
VERTEX
  8
241
  5
46AC
 10
50.6849
 20
19.9927
 30
0.000000
  70
    32
  0
VERTEX
  8
241
  5
46AD
 10
50.5034
 20
20.0654
 30
0.000000
  70
    32
  0
VERTEX
  8
241
  5
46AE
 10
50.3171
 20
20.1317
 30
0.000000
  70
    32
  0
VERTEX
  8
241
  5
46AF
 10
50.1264
 20
20.1915
 30
0.000000
  70
    32
  0
VERTEX
  8
241
  5
46B0
 10
49.9318
 20
20.2446
 30
0.000000
  70
    32
  0
VERTEX
  8
241
  5
46B1
 10
49.7337
 20
20.2908
 30
0.000000
  70
    32
  0
VERTEX
  8
241
  5
46B2
 10
49.5327
 20
20.3302
 30
0.000000
  70
    32
  0
VERTEX
  8
241
  5
46B3
 10
49.3291
 20
20.3625
 30
0.000000
  70
    32
  0
VERTEX
  8
241
  5
46B4
 10
49.1236
 20
20.3877
 30
0.000000
  70
    32
  0
VERTEX
  8
241
  5
46B5
 10
48.9166
 20
20.4058
 30
0.000000
  70
    32
  0
VERTEX
  8
241
  5
46B6
 10
48.7085
 20
20.4166
 30
0.000000
  70
    32
  0
VERTEX
  8
241
  5
46B7
 10
48.5000
 20
20.4202
 30
0.000000
  70
    32
  0
VERTEX
  8
241
  5
46B8
 10
48.2915
 20
20.4166
 30
0.000000
  70
    32
  0
VERTEX
  8
241
  5
46B9
 10
48.0834
 20
20.4058
 30
0.000000
  70
    32
  0
VERTEX
  8
241
  5
46BA
 10
47.8764
 20
20.3877
 30
0.000000
  70
    32
  0
VERTEX
  8
241
  5
46BB
 10
47.6709
 20
20.3625
 30
0.000000
  70
    32
  0
VERTEX
  8
241
  5
46BC
 10
47.4673
 20
20.3302
 30
0.000000
  70
    32
  0
VERTEX
  8
241
  5
46BD
 10
47.2663
 20
20.2908
 30
0.000000
  70
    32
  0
VERTEX
  8
241
  5
46BE
 10
47.0682
 20
20.2446
 30
0.000000
  70
    32
  0
VERTEX
  8
241
  5
46BF
 10
46.8736
 20
20.1915
 30
0.000000
  70
    32
  0
VERTEX
  8
241
  5
46C0
 10
46.6829
 20
20.1317
 30
0.000000
  70
    32
  0
VERTEX
  8
241
  5
46C1
 10
46.4966
 20
20.0654
 30
0.000000
  70
    32
  0
VERTEX
  8
241
  5
46C2
 10
46.3151
 20
19.9927
 30
0.000000
  70
    32
  0
VERTEX
  8
241
  5
46C3
 10
46.1388
 20
19.9138
 30
0.000000
  70
    32
  0
VERTEX
  8
241
  5
46C4
 10
45.9683
 20
19.8288
 30
0.000000
  70
    32
  0
VERTEX
  8
241
  5
46C5
 10
45.8038
 20
19.7381
 30
0.000000
  70
    32
  0
VERTEX
  8
241
  5
46C6
 10
45.6459
 20
19.6417
 30
0.000000
  70
    32
  0
VERTEX
  8
241
  5
46C7
 10
45.4948
 20
19.5400
 30
0.000000
  70
    32
  0
VERTEX
  8
241
  5
46C8
 10
45.3510
 20
19.4332
 30
0.000000
  70
    32
  0
VERTEX
  8
241
  5
46C9
 10
45.2147
 20
19.3215
 30
0.000000
  70
    32
  0
VERTEX
  8
241
  5
46CA
 10
45.0864
 20
19.2052
 30
0.000000
  70
    32
  0
VERTEX
  8
241
  5
46CB
 10
44.9663
 20
19.0846
 30
0.000000
  70
    32
  0
VERTEX
  8
241
  5
46CC
 10
44.8547
 20
18.9600
 30
0.000000
  70
    32
  0
VERTEX
  8
241
  5
46CD
 10
44.7518
 20
18.8317
 30
0.000000
  70
    32
  0
VERTEX
  8
241
  5
46CE
 10
44.6580
 20
18.6999
 30
0.000000
  70
    32
  0
VERTEX
  8
241
  5
46CF
 10
44.5735
 20
18.5651
 30
0.000000
  70
    32
  0
VERTEX
  8
241
  5
46D0
 10
44.4984
 20
18.4274
 30
0.000000
  70
    32
  0
VERTEX
  8
241
  5
46D1
 10
44.4330
 20
18.2874
 30
0.000000
  70
    32
  0
VERTEX
  8
241
  5
46D2
 10
44.3774
 20
18.1452
 30
0.000000
  70
    32
  0
VERTEX
  8
241
  5
46D3
 10
44.3317
 20
18.0013
 30
0.000000
  70
    32
  0
VERTEX
  8
241
  5
46D4
 10
44.2960
 20
17.8560
 30
0.000000
  70
    32
  0
VERTEX
  8
241
  5
46D5
 10
44.2705
 20
17.7096
 30
0.000000
  70
    32
  0
VERTEX
  8
241
  5
46D6
 10
44.2551
 20
17.5625
 30
0.000000
  70
    32
  0
VERTEX
  8
241
  5
46D7
 10
44.2500
 20
17.4150
 30
0.000000
  70
    32
  0
SEQEND
  8
241
  5
46D8
  0
LINE
  5
4365
  8
245
  6
CENTER2
 10
42.227589786988709
 20
17.677669529632109
 30
0.0
 11
54.903291102535057
 21
17.677669529632109
 31
0.0
  0
LINE
  5
4366
  8
245
  6
CENTER2
 10
48.500000000002579
 20
22.67697503259518
 30
0.0
 11
48.500000000002643
 21
12.42922412332373
 31
0.0
  0
LINE
  5
4367
  8
240
  6
CONTINUOUS
 10
0.337299546551697
 20
25.741180954901619
 30
0.0
 11
0.0000000000023231
 21
26.999999999994539
 31
0.0
  0
LINE
  5
4368
  8
241
  6
CONTINUOUS
 10
0.5894882233485533
 20
0.0000000000000284
 30
0.0
 11
0.5894882233485533
 21
25.158743971946141
 31
0.0
  0
LINE
  5
4369
  8
240
  6
CONTINUOUS
 10
0.3372995465520694
 20
-25.74118095490023
 30
0.0
 11
0.0000000000023229
 21
-26.999999999994539
 31
0.0
  0
LINE
  5
436A
  8
241
  6
CONTINUOUS
 10
0.5894882233485533
 20
0.0
 30
0.0
 11
0.5894882233485533
 21
-25.158743971946141
 31
0.0
  0
POLYLINE
  5
436B
  8
242
  6
CONTINUOUS
 10
43.500000000002579
 20
-17.313063996708046
 30
0.0
 66
     1
 70
     8
  0
VERTEX
  8
242
  5
46D9
 10
43.5000
 20
-17.3131
 30
0.000000
  70
    32
  0
VERTEX
  8
242
  5
46DA
 10
43.5060
 20
-17.1396
 30
0.000000
  70
    32
  0
VERTEX
  8
242
  5
46DB
 10
43.5241
 20
-16.9665
 30
0.000000
  70
    32
  0
VERTEX
  8
242
  5
46DC
 10
43.5541
 20
-16.7943
 30
0.000000
  70
    32
  0
VERTEX
  8
242
  5
46DD
 10
43.5961
 20
-16.6233
 30
0.000000
  70
    32
  0
VERTEX
  8
242
  5
46DE
 10
43.6498
 20
-16.4540
 30
0.000000
  70
    32
  0
VERTEX
  8
242
  5
46DF
 10
43.7153
 20
-16.2868
 30
0.000000
  70
    32
  0
VERTEX
  8
242
  5
46E0
 10
43.7923
 20
-16.1220
 30
0.000000
  70
    32
  0
VERTEX
  8
242
  5
46E1
 10
43.8806
 20
-15.9601
 30
0.000000
  70
    32
  0
VERTEX
  8
242
  5
46E2
 10
43.9801
 20
-15.8014
 30
0.000000
  70
    32
  0
VERTEX
  8
242
  5
46E3
 10
44.0904
 20
-15.6464
 30
0.000000
  70
    32
  0
VERTEX
  8
242
  5
46E4
 10
44.2114
 20
-15.4954
 30
0.000000
  70
    32
  0
VERTEX
  8
242
  5
46E5
 10
44.3427
 20
-15.3488
 30
0.000000
  70
    32
  0
VERTEX
  8
242
  5
46E6
 10
44.4840
 20
-15.2069
 30
0.000000
  70
    32
  0
VERTEX
  8
242
  5
46E7
 10
44.6349
 20
-15.0701
 30
0.000000
  70
    32
  0
VERTEX
  8
242
  5
46E8
 10
44.7952
 20
-14.9387
 30
0.000000
  70
    32
  0
VERTEX
  8
242
  5
46E9
 10
44.9645
 20
-14.8131
 30
0.000000
  70
    32
  0
VERTEX
  8
242
  5
46EA
 10
45.1422
 20
-14.6934
 30
0.000000
  70
    32
  0
VERTEX
  8
242
  5
46EB
 10
45.3280
 20
-14.5801
 30
0.000000
  70
    32
  0
VERTEX
  8
242
  5
46EC
 10
45.5215
 20
-14.4733
 30
0.000000
  70
    32
  0
VERTEX
  8
242
  5
46ED
 10
45.7221
 20
-14.3734
 30
0.000000
  70
    32
  0
VERTEX
  8
242
  5
46EE
 10
45.9295
 20
-14.2805
 30
0.000000
  70
    32
  0
VERTEX
  8
242
  5
46EF
 10
46.1430
 20
-14.1950
 30
0.000000
  70
    32
  0
VERTEX
  8
242
  5
46F0
 10
46.3622
 20
-14.1170
 30
0.000000
  70
    32
  0
VERTEX
  8
242
  5
46F1
 10
46.5866
 20
-14.0467
 30
0.000000
  70
    32
  0
VERTEX
  8
242
  5
46F2
 10
46.8156
 20
-13.9842
 30
0.000000
  70
    32
  0
VERTEX
  8
242
  5
46F3
 10
47.0486
 20
-13.9298
 30
0.000000
  70
    32
  0
VERTEX
  8
242
  5
46F4
 10
47.2851
 20
-13.8835
 30
0.000000
  70
    32
  0
VERTEX
  8
242
  5
46F5
 10
47.5245
 20
-13.8455
 30
0.000000
  70
    32
  0
VERTEX
  8
242
  5
46F6
 10
47.7663
 20
-13.8158
 30
0.000000
  70
    32
  0
VERTEX
  8
242
  5
46F7
 10
48.0099
 20
-13.7946
 30
0.000000
  70
    32
  0
VERTEX
  8
242
  5
46F8
 10
48.2547
 20
-13.7818
 30
0.000000
  70
    32
  0
VERTEX
  8
242
  5
46F9
 10
48.5000
 20
-13.7775
 30
0.000000
  70
    32
  0
VERTEX
  8
242
  5
46FA
 10
48.7453
 20
-13.7818
 30
0.000000
  70
    32
  0
VERTEX
  8
242
  5
46FB
 10
48.9901
 20
-13.7946
 30
0.000000
  70
    32
  0
VERTEX
  8
242
  5
46FC
 10
49.2337
 20
-13.8158
 30
0.000000
  70
    32
  0
VERTEX
  8
242
  5
46FD
 10
49.4755
 20
-13.8455
 30
0.000000
  70
    32
  0
VERTEX
  8
242
  5
46FE
 10
49.7149
 20
-13.8835
 30
0.000000
  70
    32
  0
VERTEX
  8
242
  5
46FF
 10
49.9514
 20
-13.9298
 30
0.000000
  70
    32
  0
VERTEX
  8
242
  5
4700
 10
50.1844
 20
-13.9842
 30
0.000000
  70
    32
  0
VERTEX
  8
242
  5
4701
 10
50.4134
 20
-14.0467
 30
0.000000
  70
    32
  0
VERTEX
  8
242
  5
4702
 10
50.6378
 20
-14.1170
 30
0.000000
  70
    32
  0
VERTEX
  8
242
  5
4703
 10
50.8570
 20
-14.1950
 30
0.000000
  70
    32
  0
VERTEX
  8
242
  5
4704
 10
51.0705
 20
-14.2805
 30
0.000000
  70
    32
  0
VERTEX
  8
242
  5
4705
 10
51.2779
 20
-14.3734
 30
0.000000
  70
    32
  0
VERTEX
  8
242
  5
4706
 10
51.4785
 20
-14.4733
 30
0.000000
  70
    32
  0
VERTEX
  8
242
  5
4707
 10
51.6720
 20
-14.5801
 30
0.000000
  70
    32
  0
VERTEX
  8
242
  5
4708
 10
51.8578
 20
-14.6934
 30
0.000000
  70
    32
  0
VERTEX
  8
242
  5
4709
 10
52.0355
 20
-14.8131
 30
0.000000
  70
    32
  0
VERTEX
  8
242
  5
470A
 10
52.2048
 20
-14.9387
 30
0.000000
  70
    32
  0
VERTEX
  8
242
  5
470B
 10
52.3651
 20
-15.0701
 30
0.000000
  70
    32
  0
VERTEX
  8
242
  5
470C
 10
52.5160
 20
-15.2069
 30
0.000000
  70
    32
  0
VERTEX
  8
242
  5
470D
 10
52.6573
 20
-15.3488
 30
0.000000
  70
    32
  0
VERTEX
  8
242
  5
470E
 10
52.7886
 20
-15.4954
 30
0.000000
  70
    32
  0
VERTEX
  8
242
  5
470F
 10
52.9096
 20
-15.6464
 30
0.000000
  70
    32
  0
VERTEX
  8
242
  5
4710
 10
53.0199
 20
-15.8014
 30
0.000000
  70
    32
  0
VERTEX
  8
242
  5
4711
 10
53.1194
 20
-15.9601
 30
0.000000
  70
    32
  0
VERTEX
  8
242
  5
4712
 10
53.2077
 20
-16.1220
 30
0.000000
  70
    32
  0
VERTEX
  8
242
  5
4713
 10
53.2847
 20
-16.2868
 30
0.000000
  70
    32
  0
VERTEX
  8
242
  5
4714
 10
53.3502
 20
-16.4540
 30
0.000000
  70
    32
  0
VERTEX
  8
242
  5
4715
 10
53.4039
 20
-16.6233
 30
0.000000
  70
    32
  0
VERTEX
  8
242
  5
4716
 10
53.4459
 20
-16.7943
 30
0.000000
  70
    32
  0
VERTEX
  8
242
  5
4717
 10
53.4759
 20
-16.9665
 30
0.000000
  70
    32
  0
VERTEX
  8
242
  5
4718
 10
53.4940
 20
-17.1396
 30
0.000000
  70
    32
  0
VERTEX
  8
242
  5
4719
 10
53.5000
 20
-17.3131
 30
0.000000
  70
    32
  0
VERTEX
  8
242
  5
471A
 10
53.4940
 20
-17.4865
 30
0.000000
  70
    32
  0
VERTEX
  8
242
  5
471B
 10
53.4759
 20
-17.6596
 30
0.000000
  70
    32
  0
VERTEX
  8
242
  5
471C
 10
53.4459
 20
-17.8318
 30
0.000000
  70
    32
  0
VERTEX
  8
242
  5
471D
 10
53.4039
 20
-18.0028
 30
0.000000
  70
    32
  0
VERTEX
  8
242
  5
471E
 10
53.3502
 20
-18.1721
 30
0.000000
  70
    32
  0
VERTEX
  8
242
  5
471F
 10
53.2847
 20
-18.3394
 30
0.000000
  70
    32
  0
VERTEX
  8
242
  5
4720
 10
53.2077
 20
-18.5041
 30
0.000000
  70
    32
  0
VERTEX
  8
242
  5
4721
 10
53.1194
 20
-18.6661
 30
0.000000
  70
    32
  0
VERTEX
  8
242
  5
4722
 10
53.0199
 20
-18.8247
 30
0.000000
  70
    32
  0
VERTEX
  8
242
  5
4723
 10
52.9096
 20
-18.9797
 30
0.000000
  70
    32
  0
VERTEX
  8
242
  5
4724
 10
52.7886
 20
-19.1307
 30
0.000000
  70
    32
  0
VERTEX
  8
242
  5
4725
 10
52.6573
 20
-19.2773
 30
0.000000
  70
    32
  0
VERTEX
  8
242
  5
4726
 10
52.5160
 20
-19.4192
 30
0.000000
  70
    32
  0
VERTEX
  8
242
  5
4727
 10
52.3651
 20
-19.5560
 30
0.000000
  70
    32
  0
VERTEX
  8
242
  5
4728
 10
52.2048
 20
-19.6874
 30
0.000000
  70
    32
  0
VERTEX
  8
242
  5
4729
 10
52.0355
 20
-19.8131
 30
0.000000
  70
    32
  0
VERTEX
  8
242
  5
472A
 10
51.8578
 20
-19.9327
 30
0.000000
  70
    32
  0
VERTEX
  8
242
  5
472B
 10
51.6720
 20
-20.0461
 30
0.000000
  70
    32
  0
VERTEX
  8
242
  5
472C
 10
51.4785
 20
-20.1528
 30
0.000000
  70
    32
  0
VERTEX
  8
242
  5
472D
 10
51.2779
 20
-20.2528
 30
0.000000
  70
    32
  0
VERTEX
  8
242
  5
472E
 10
51.0705
 20
-20.3456
 30
0.000000
  70
    32
  0
VERTEX
  8
242
  5
472F
 10
50.8570
 20
-20.4311
 30
0.000000
  70
    32
  0
VERTEX
  8
242
  5
4730
 10
50.6378
 20
-20.5091
 30
0.000000
  70
    32
  0
VERTEX
  8
242
  5
4731
 10
50.4134
 20
-20.5795
 30
0.000000
  70
    32
  0
VERTEX
  8
242
  5
4732
 10
50.1844
 20
-20.6419
 30
0.000000
  70
    32
  0
VERTEX
  8
242
  5
4733
 10
49.9514
 20
-20.6964
 30
0.000000
  70
    32
  0
VERTEX
  8
242
  5
4734
 10
49.7149
 20
-20.7426
 30
0.000000
  70
    32
  0
VERTEX
  8
242
  5
4735
 10
49.4755
 20
-20.7807
 30
0.000000
  70
    32
  0
VERTEX
  8
242
  5
4736
 10
49.2337
 20
-20.8103
 30
0.000000
  70
    32
  0
VERTEX
  8
242
  5
4737
 10
48.9901
 20
-20.8316
 30
0.000000
  70
    32
  0
VERTEX
  8
242
  5
4738
 10
48.7453
 20
-20.8443
 30
0.000000
  70
    32
  0
VERTEX
  8
242
  5
4739
 10
48.5000
 20
-20.8486
 30
0.000000
  70
    32
  0
VERTEX
  8
242
  5
473A
 10
48.2547
 20
-20.8443
 30
0.000000
  70
    32
  0
VERTEX
  8
242
  5
473B
 10
48.0099
 20
-20.8316
 30
0.000000
  70
    32
  0
VERTEX
  8
242
  5
473C
 10
47.7663
 20
-20.8103
 30
0.000000
  70
    32
  0
VERTEX
  8
242
  5
473D
 10
47.5245
 20
-20.7807
 30
0.000000
  70
    32
  0
VERTEX
  8
242
  5
473E
 10
47.2851
 20
-20.7426
 30
0.000000
  70
    32
  0
VERTEX
  8
242
  5
473F
 10
47.0486
 20
-20.6964
 30
0.000000
  70
    32
  0
VERTEX
  8
242
  5
4740
 10
46.8156
 20
-20.6419
 30
0.000000
  70
    32
  0
VERTEX
  8
242
  5
4741
 10
46.5866
 20
-20.5795
 30
0.000000
  70
    32
  0
VERTEX
  8
242
  5
4742
 10
46.3622
 20
-20.5091
 30
0.000000
  70
    32
  0
VERTEX
  8
242
  5
4743
 10
46.1430
 20
-20.4311
 30
0.000000
  70
    32
  0
VERTEX
  8
242
  5
4744
 10
45.9295
 20
-20.3456
 30
0.000000
  70
    32
  0
VERTEX
  8
242
  5
4745
 10
45.7221
 20
-20.2528
 30
0.000000
  70
    32
  0
VERTEX
  8
242
  5
4746
 10
45.5215
 20
-20.1528
 30
0.000000
  70
    32
  0
VERTEX
  8
242
  5
4747
 10
45.3280
 20
-20.0461
 30
0.000000
  70
    32
  0
VERTEX
  8
242
  5
4748
 10
45.1422
 20
-19.9327
 30
0.000000
  70
    32
  0
VERTEX
  8
242
  5
4749
 10
44.9645
 20
-19.8131
 30
0.000000
  70
    32
  0
VERTEX
  8
242
  5
474A
 10
44.7952
 20
-19.6874
 30
0.000000
  70
    32
  0
VERTEX
  8
242
  5
474B
 10
44.6349
 20
-19.5560
 30
0.000000
  70
    32
  0
VERTEX
  8
242
  5
474C
 10
44.4840
 20
-19.4192
 30
0.000000
  70
    32
  0
VERTEX
  8
242
  5
474D
 10
44.3427
 20
-19.2773
 30
0.000000
  70
    32
  0
VERTEX
  8
242
  5
474E
 10
44.2114
 20
-19.1307
 30
0.000000
  70
    32
  0
VERTEX
  8
242
  5
474F
 10
44.0904
 20
-18.9797
 30
0.000000
  70
    32
  0
VERTEX
  8
242
  5
4750
 10
43.9801
 20
-18.8247
 30
0.000000
  70
    32
  0
VERTEX
  8
242
  5
4751
 10
43.8806
 20
-18.6661
 30
0.000000
  70
    32
  0
VERTEX
  8
242
  5
4752
 10
43.7923
 20
-18.5041
 30
0.000000
  70
    32
  0
VERTEX
  8
242
  5
4753
 10
43.7153
 20
-18.3394
 30
0.000000
  70
    32
  0
VERTEX
  8
242
  5
4754
 10
43.6498
 20
-18.1721
 30
0.000000
  70
    32
  0
VERTEX
  8
242
  5
4755
 10
43.5961
 20
-18.0028
 30
0.000000
  70
    32
  0
VERTEX
  8
242
  5
4756
 10
43.5541
 20
-17.8318
 30
0.000000
  70
    32
  0
VERTEX
  8
242
  5
4757
 10
43.5241
 20
-17.6596
 30
0.000000
  70
    32
  0
VERTEX
  8
242
  5
4758
 10
43.5060
 20
-17.4865
 30
0.000000
  70
    32
  0
VERTEX
  8
242
  5
4759
 10
43.5000
 20
-17.3131
 30
0.000000
  70
    32
  0
SEQEND
  8
242
  5
475A
  0
POLYLINE
  5
436C
  8
241
  6
CONTINUOUS
 10
44.250000000002579
 20
-17.41502313967802
 30
0.0
 66
     1
 70
     8
  0
VERTEX
  8
241
  5
475B
 10
44.2500
 20
-17.4150
 30
0.000000
  70
    32
  0
VERTEX
  8
241
  5
475C
 10
44.2551
 20
-17.2676
 30
0.000000
  70
    32
  0
VERTEX
  8
241
  5
475D
 10
44.2705
 20
-17.1205
 30
0.000000
  70
    32
  0
VERTEX
  8
241
  5
475E
 10
44.2960
 20
-16.9741
 30
0.000000
  70
    32
  0
VERTEX
  8
241
  5
475F
 10
44.3317
 20
-16.8287
 30
0.000000
  70
    32
  0
VERTEX
  8
241
  5
4760
 10
44.3774
 20
-16.6848
 30
0.000000
  70
    32
  0
VERTEX
  8
241
  5
4761
 10
44.4330
 20
-16.5427
 30
0.000000
  70
    32
  0
VERTEX
  8
241
  5
4762
 10
44.4984
 20
-16.4026
 30
0.000000
  70
    32
  0
VERTEX
  8
241
  5
4763
 10
44.5735
 20
-16.2650
 30
0.000000
  70
    32
  0
VERTEX
  8
241
  5
4764
 10
44.6580
 20
-16.1301
 30
0.000000
  70
    32
  0
VERTEX
  8
241
  5
4765
 10
44.7518
 20
-15.9984
 30
0.000000
  70
    32
  0
VERTEX
  8
241
  5
4766
 10
44.8547
 20
-15.8700
 30
0.000000
  70
    32
  0
VERTEX
  8
241
  5
4767
 10
44.9663
 20
-15.7454
 30
0.000000
  70
    32
  0
VERTEX
  8
241
  5
4768
 10
45.0864
 20
-15.6248
 30
0.000000
  70
    32
  0
VERTEX
  8
241
  5
4769
 10
45.2147
 20
-15.5085
 30
0.000000
  70
    32
  0
VERTEX
  8
241
  5
476A
 10
45.3510
 20
-15.3969
 30
0.000000
  70
    32
  0
VERTEX
  8
241
  5
476B
 10
45.4948
 20
-15.2900
 30
0.000000
  70
    32
  0
VERTEX
  8
241
  5
476C
 10
45.6459
 20
-15.1883
 30
0.000000
  70
    32
  0
VERTEX
  8
241
  5
476D
 10
45.8038
 20
-15.0920
 30
0.000000
  70
    32
  0
VERTEX
  8
241
  5
476E
 10
45.9683
 20
-15.0012
 30
0.000000
  70
    32
  0
VERTEX
  8
241
  5
476F
 10
46.1388
 20
-14.9163
 30
0.000000
  70
    32
  0
VERTEX
  8
241
  5
4770
 10
46.3151
 20
-14.8374
 30
0.000000
  70
    32
  0
VERTEX
  8
241
  5
4771
 10
46.4966
 20
-14.7647
 30
0.000000
  70
    32
  0
VERTEX
  8
241
  5
4772
 10
46.6829
 20
-14.6984
 30
0.000000
  70
    32
  0
VERTEX
  8
241
  5
4773
 10
46.8736
 20
-14.6386
 30
0.000000
  70
    32
  0
VERTEX
  8
241
  5
4774
 10
47.0682
 20
-14.5855
 30
0.000000
  70
    32
  0
VERTEX
  8
241
  5
4775
 10
47.2663
 20
-14.5392
 30
0.000000
  70
    32
  0
VERTEX
  8
241
  5
4776
 10
47.4673
 20
-14.4999
 30
0.000000
  70
    32
  0
VERTEX
  8
241
  5
4777
 10
47.6709
 20
-14.4676
 30
0.000000
  70
    32
  0
VERTEX
  8
241
  5
4778
 10
47.8764
 20
-14.4423
 30
0.000000
  70
    32
  0
VERTEX
  8
241
  5
4779
 10
48.0834
 20
-14.4243
 30
0.000000
  70
    32
  0
VERTEX
  8
241
  5
477A
 10
48.2915
 20
-14.4134
 30
0.000000
  70
    32
  0
VERTEX
  8
241
  5
477B
 10
48.5000
 20
-14.4098
 30
0.000000
  70
    32
  0
VERTEX
  8
241
  5
477C
 10
48.7085
 20
-14.4134
 30
0.000000
  70
    32
  0
VERTEX
  8
241
  5
477D
 10
48.9166
 20
-14.4243
 30
0.000000
  70
    32
  0
VERTEX
  8
241
  5
477E
 10
49.1236
 20
-14.4423
 30
0.000000
  70
    32
  0
VERTEX
  8
241
  5
477F
 10
49.3291
 20
-14.4676
 30
0.000000
  70
    32
  0
VERTEX
  8
241
  5
4780
 10
49.5327
 20
-14.4999
 30
0.000000
  70
    32
  0
VERTEX
  8
241
  5
4781
 10
49.7337
 20
-14.5392
 30
0.000000
  70
    32
  0
VERTEX
  8
241
  5
4782
 10
49.9318
 20
-14.5855
 30
0.000000
  70
    32
  0
VERTEX
  8
241
  5
4783
 10
50.1264
 20
-14.6386
 30
0.000000
  70
    32
  0
VERTEX
  8
241
  5
4784
 10
50.3171
 20
-14.6984
 30
0.000000
  70
    32
  0
VERTEX
  8
241
  5
4785
 10
50.5034
 20
-14.7647
 30
0.000000
  70
    32
  0
VERTEX
  8
241
  5
4786
 10
50.6849
 20
-14.8374
 30
0.000000
  70
    32
  0
VERTEX
  8
241
  5
4787
 10
50.8612
 20
-14.9163
 30
0.000000
  70
    32
  0
VERTEX
  8
241
  5
4788
 10
51.0317
 20
-15.0012
 30
0.000000
  70
    32
  0
VERTEX
  8
241
  5
4789
 10
51.1962
 20
-15.0920
 30
0.000000
  70
    32
  0
VERTEX
  8
241
  5
478A
 10
51.3541
 20
-15.1883
 30
0.000000
  70
    32
  0
VERTEX
  8
241
  5
478B
 10
51.5052
 20
-15.2900
 30
0.000000
  70
    32
  0
VERTEX
  8
241
  5
478C
 10
51.6490
 20
-15.3969
 30
0.000000
  70
    32
  0
VERTEX
  8
241
  5
478D
 10
51.7853
 20
-15.5085
 30
0.000000
  70
    32
  0
VERTEX
  8
241
  5
478E
 10
51.9136
 20
-15.6248
 30
0.000000
  70
    32
  0
VERTEX
  8
241
  5
478F
 10
52.0337
 20
-15.7454
 30
0.000000
  70
    32
  0
VERTEX
  8
241
  5
4790
 10
52.1453
 20
-15.8700
 30
0.000000
  70
    32
  0
VERTEX
  8
241
  5
4791
 10
52.2482
 20
-15.9984
 30
0.000000
  70
    32
  0
VERTEX
  8
241
  5
4792
 10
52.3420
 20
-16.1301
 30
0.000000
  70
    32
  0
VERTEX
  8
241
  5
4793
 10
52.4265
 20
-16.2650
 30
0.000000
  70
    32
  0
VERTEX
  8
241
  5
4794
 10
52.5016
 20
-16.4026
 30
0.000000
  70
    32
  0
VERTEX
  8
241
  5
4795
 10
52.5670
 20
-16.5427
 30
0.000000
  70
    32
  0
VERTEX
  8
241
  5
4796
 10
52.6226
 20
-16.6848
 30
0.000000
  70
    32
  0
VERTEX
  8
241
  5
4797
 10
52.6683
 20
-16.8287
 30
0.000000
  70
    32
  0
VERTEX
  8
241
  5
4798
 10
52.7040
 20
-16.9741
 30
0.000000
  70
    32
  0
VERTEX
  8
241
  5
4799
 10
52.7295
 20
-17.1205
 30
0.000000
  70
    32
  0
VERTEX
  8
241
  5
479A
 10
52.7449
 20
-17.2676
 30
0.000000
  70
    32
  0
VERTEX
  8
241
  5
479B
 10
52.7500
 20
-17.4150
 30
0.000000
  70
    32
  0
VERTEX
  8
241
  5
479C
 10
52.7449
 20
-17.5625
 30
0.000000
  70
    32
  0
VERTEX
  8
241
  5
479D
 10
52.7295
 20
-17.7096
 30
0.000000
  70
    32
  0
VERTEX
  8
241
  5
479E
 10
52.7040
 20
-17.8560
 30
0.000000
  70
    32
  0
VERTEX
  8
241
  5
479F
 10
52.6683
 20
-18.0013
 30
0.000000
  70
    32
  0
VERTEX
  8
241
  5
47A0
 10
52.6226
 20
-18.1452
 30
0.000000
  70
    32
  0
VERTEX
  8
241
  5
47A1
 10
52.5670
 20
-18.2874
 30
0.000000
  70
    32
  0
VERTEX
  8
241
  5
47A2
 10
52.5016
 20
-18.4274
 30
0.000000
  70
    32
  0
VERTEX
  8
241
  5
47A3
 10
52.4265
 20
-18.5651
 30
0.000000
  70
    32
  0
VERTEX
  8
241
  5
47A4
 10
52.3420
 20
-18.6999
 30
0.000000
  70
    32
  0
VERTEX
  8
241
  5
47A5
 10
52.2482
 20
-18.8317
 30
0.000000
  70
    32
  0
VERTEX
  8
241
  5
47A6
 10
52.1453
 20
-18.9600
 30
0.000000
  70
    32
  0
VERTEX
  8
241
  5
47A7
 10
52.0337
 20
-19.0846
 30
0.000000
  70
    32
  0
VERTEX
  8
241
  5
47A8
 10
51.9136
 20
-19.2052
 30
0.000000
  70
    32
  0
VERTEX
  8
241
  5
47A9
 10
51.7853
 20
-19.3215
 30
0.000000
  70
    32
  0
VERTEX
  8
241
  5
47AA
 10
51.6490
 20
-19.4332
 30
0.000000
  70
    32
  0
VERTEX
  8
241
  5
47AB
 10
51.5052
 20
-19.5400
 30
0.000000
  70
    32
  0
VERTEX
  8
241
  5
47AC
 10
51.3541
 20
-19.6417
 30
0.000000
  70
    32
  0
VERTEX
  8
241
  5
47AD
 10
51.1962
 20
-19.7381
 30
0.000000
  70
    32
  0
VERTEX
  8
241
  5
47AE
 10
51.0317
 20
-19.8288
 30
0.000000
  70
    32
  0
VERTEX
  8
241
  5
47AF
 10
50.8612
 20
-19.9138
 30
0.000000
  70
    32
  0
VERTEX
  8
241
  5
47B0
 10
50.6849
 20
-19.9927
 30
0.000000
  70
    32
  0
VERTEX
  8
241
  5
47B1
 10
50.5034
 20
-20.0654
 30
0.000000
  70
    32
  0
VERTEX
  8
241
  5
47B2
 10
50.3171
 20
-20.1317
 30
0.000000
  70
    32
  0
VERTEX
  8
241
  5
47B3
 10
50.1264
 20
-20.1915
 30
0.000000
  70
    32
  0
VERTEX
  8
241
  5
47B4
 10
49.9318
 20
-20.2446
 30
0.000000
  70
    32
  0
VERTEX
  8
241
  5
47B5
 10
49.7337
 20
-20.2908
 30
0.000000
  70
    32
  0
VERTEX
  8
241
  5
47B6
 10
49.5327
 20
-20.3302
 30
0.000000
  70
    32
  0
VERTEX
  8
241
  5
47B7
 10
49.3291
 20
-20.3625
 30
0.000000
  70
    32
  0
VERTEX
  8
241
  5
47B8
 10
49.1236
 20
-20.3877
 30
0.000000
  70
    32
  0
VERTEX
  8
241
  5
47B9
 10
48.9166
 20
-20.4058
 30
0.000000
  70
    32
  0
VERTEX
  8
241
  5
47BA
 10
48.7085
 20
-20.4166
 30
0.000000
  70
    32
  0
VERTEX
  8
241
  5
47BB
 10
48.5000
 20
-20.4202
 30
0.000000
  70
    32
  0
VERTEX
  8
241
  5
47BC
 10
48.2915
 20
-20.4166
 30
0.000000
  70
    32
  0
VERTEX
  8
241
  5
47BD
 10
48.0834
 20
-20.4058
 30
0.000000
  70
    32
  0
VERTEX
  8
241
  5
47BE
 10
47.8764
 20
-20.3877
 30
0.000000
  70
    32
  0
VERTEX
  8
241
  5
47BF
 10
47.6709
 20
-20.3625
 30
0.000000
  70
    32
  0
VERTEX
  8
241
  5
47C0
 10
47.4673
 20
-20.3302
 30
0.000000
  70
    32
  0
VERTEX
  8
241
  5
47C1
 10
47.2663
 20
-20.2908
 30
0.000000
  70
    32
  0
VERTEX
  8
241
  5
47C2
 10
47.0682
 20
-20.2446
 30
0.000000
  70
    32
  0
VERTEX
  8
241
  5
47C3
 10
46.8736
 20
-20.1915
 30
0.000000
  70
    32
  0
VERTEX
  8
241
  5
47C4
 10
46.6829
 20
-20.1317
 30
0.000000
  70
    32
  0
VERTEX
  8
241
  5
47C5
 10
46.4966
 20
-20.0654
 30
0.000000
  70
    32
  0
VERTEX
  8
241
  5
47C6
 10
46.3151
 20
-19.9927
 30
0.000000
  70
    32
  0
VERTEX
  8
241
  5
47C7
 10
46.1388
 20
-19.9138
 30
0.000000
  70
    32
  0
VERTEX
  8
241
  5
47C8
 10
45.9683
 20
-19.8288
 30
0.000000
  70
    32
  0
VERTEX
  8
241
  5
47C9
 10
45.8038
 20
-19.7381
 30
0.000000
  70
    32
  0
VERTEX
  8
241
  5
47CA
 10
45.6459
 20
-19.6417
 30
0.000000
  70
    32
  0
VERTEX
  8
241
  5
47CB
 10
45.4948
 20
-19.5400
 30
0.000000
  70
    32
  0
VERTEX
  8
241
  5
47CC
 10
45.3510
 20
-19.4332
 30
0.000000
  70
    32
  0
VERTEX
  8
241
  5
47CD
 10
45.2147
 20
-19.3215
 30
0.000000
  70
    32
  0
VERTEX
  8
241
  5
47CE
 10
45.0864
 20
-19.2052
 30
0.000000
  70
    32
  0
VERTEX
  8
241
  5
47CF
 10
44.9663
 20
-19.0846
 30
0.000000
  70
    32
  0
VERTEX
  8
241
  5
47D0
 10
44.8547
 20
-18.9600
 30
0.000000
  70
    32
  0
VERTEX
  8
241
  5
47D1
 10
44.7518
 20
-18.8317
 30
0.000000
  70
    32
  0
VERTEX
  8
241
  5
47D2
 10
44.6580
 20
-18.6999
 30
0.000000
  70
    32
  0
VERTEX
  8
241
  5
47D3
 10
44.5735
 20
-18.5651
 30
0.000000
  70
    32
  0
VERTEX
  8
241
  5
47D4
 10
44.4984
 20
-18.4274
 30
0.000000
  70
    32
  0
VERTEX
  8
241
  5
47D5
 10
44.4330
 20
-18.2874
 30
0.000000
  70
    32
  0
VERTEX
  8
241
  5
47D6
 10
44.3774
 20
-18.1452
 30
0.000000
  70
    32
  0
VERTEX
  8
241
  5
47D7
 10
44.3317
 20
-18.0013
 30
0.000000
  70
    32
  0
VERTEX
  8
241
  5
47D8
 10
44.2960
 20
-17.8560
 30
0.000000
  70
    32
  0
VERTEX
  8
241
  5
47D9
 10
44.2705
 20
-17.7096
 30
0.000000
  70
    32
  0
VERTEX
  8
241
  5
47DA
 10
44.2551
 20
-17.5625
 30
0.000000
  70
    32
  0
VERTEX
  8
241
  5
47DB
 10
44.2500
 20
-17.4150
 30
0.000000
  70
    32
  0
SEQEND
  8
241
  5
47DC
  0
LINE
  5
436D
  8
245
  6
CENTER2
 10
48.500000000002579
 20
-22.67697503259518
 30
0.0
 11
48.500000000002579
 21
-12.42922412332373
 31
0.0
  0
LINE
  5
436E
  8
245
  6
CENTER2
 10
42.227589786988652
 20
-17.677669529632109
 30
0.0
 11
54.903291102535007
 21
-17.677669529632109
 31
0.0
  0
LINE
  5
436F
  8
241
  6
CONTINUOUS
 10
59.0291505079621
 20
24.999999999997499
 30
0.0
 11
59.029150507960111
 21
-25.000000000000799
 31
0.0
  0
LINE
  5
4370
  8
241
  6
CONTINUOUS
 10
57.97084998354179
 20
24.999999999998181
 30
0.0
 11
57.970849983542017
 21
-25.000000000002299
 31
0.0
  0
ARC
  5
4371
  8
240
  6
CONTINUOUS
 10
1.303225372840799
 20
26.000000000004011
 30
0.0
 40
1.0
 50
194.9999999999919
 51
269.99999999998892
1001
GENIUS_GENOBJ-N-FIL_13
1002
{
1000
OWNER
1000
GEN
1002
}
1001
GENIUS_GENODEF_13
1002
{
1000
HIER
1070
     0
1002
}
1002
{
1000
MANEDIT
1070
     0
1002
}
1002
{
1000
NOSEL
1070
     0
1002
}
1002
{
1000
BEHIND
1070
     0
1002
}
1002
{
1000
OTHER
1070
     0
1002
}
1002
{
1000
REACTOR
1002
}
  0
ARC
  5
4373
  8
240
  6
CONTINUOUS
 10
1.303225372841174
 20
-26.000000000002618
 30
0.0
 40
1.0
 50
90.000000000009635
 51
165.00000000000799
1001
GENIUS_GENODEF_13
1002
{
1000
HIER
1070
     0
1002
}
1002
{
1000
MANEDIT
1070
     0
1002
}
1002
{
1000
NOSEL
1070
     0
1002
}
1002
{
1000
BEHIND
1070
     0
1002
}
1002
{
1000
OTHER
1070
     0
1002
}
1002
{
1000
REACTOR
1002
}
1001
GENIUS_GENOBJ-N-FIL_13
1002
{
1000
OWNER
1000
GEN
1002
}
  0
LINE
  5
4382
  8
243
  6
HIDDEN2
 10
63.499999999995786
 20
-12.966999999999979
 30
0.0
 11
28.499999999995961
 21
-12.96700000000008
 31
0.0
  0
LINE
  5
4383
  8
243
  6
HIDDEN2
 10
63.500000000002657
 20
12.966999999999979
 30
0.0
 11
28.500000000002782
 21
12.967000000000001
 31
0.0
  0
LINE
  5
4385
  8
243
  6
HIDDEN2
 10
1.0000000000012681
 20
-9.7800000000000686
 30
0.0
 11
0.9999999999974965
 21
9.780000000000296
 31
0.0
1001
GRPNAME
1000
0000002L
  0
LINE
  5
4386
  8
243
  6
HIDDEN2
 10
28.500000000002789
 20
12.967000000000001
 30
0.0
 11
28.499999999995961
 21
-12.96700000000008
 31
0.0
  0
CIRCLE
  5
4387
  8
241
  6
CONTINUOUS
 10
16.500000000005599
 20
0.0
 30
0.0
 40
4.250000000002955
  0
CIRCLE
  5
4388
  8
242
  6
CONTINUOUS
 10
16.500000000005599
 20
0.0
 30
0.0
 40
5.0000000000035243
  0
LINE
  5
4389
  8
243
  6
HIDDEN2
 10
28.50000000000195
 20
9.7800000000003102
 30
0.0
 11
0.9999999999974953
 21
9.780000000000296
 31
0.0
  0
LINE
  5
438A
  8
243
  6
HIDDEN2
 10
28.499999999996799
 20
-9.7800000000000864
 30
0.0
 11
1.0000000000012681
 21
-9.7800000000000686
 31
0.0
  0
LINE
  5
439A
  8
245
  6
CENTER2
 10
16.500000000005599
 20
-6.8535027575868517
 30
0.0
 11
16.500000000005599
 21
6.1784674835577098
 31
0.0
  0
LINE
  5
439B
  8
244
  6
HIDDEN2
 10
28.50000000000195
 20
9.7800000000003102
 30
0.0
 11
1.0000000000012681
 21
-9.7800000000000686
 31
0.0
  0
LINE
  5
439C
  8
244
  6
HIDDEN2
 10
28.499999999996799
 20
-9.7800000000000864
 30
0.0
 11
0.9999999999974965
 21
9.780000000000296
 31
0.0
  0
LINE
  5
448A
  8
250
  6
CONTINUOUS
 10
-0.0000000000018435
 20
27.50000000001009
 30
0.0
 11
-0.0000000000018425
 21
43.0
 31
0.0
  0
LINE
  5
448B
  8
250
  6
CONTINUOUS
 10
63.500000000005862
 20
25.4999999999919
 30
0.0
 11
63.500000000005862
 21
43.0
 31
0.0
  0
LINE
  5
448C
  8
250
  6
CONTINUOUS
 10
2.229999999998157
 20
42.0
 30
0.0
 11
61.270000000005858
 21
42.0
 31
0.0
  0
LINE
  5
4490
  8
250
  6
CONTINUOUS
 10
64.000000000002672
 20
12.966999999999979
 30
0.0
 11
78.0
 21
12.966999999999979
 31
0.0
  0
LINE
  5
4491
  8
250
  6
CONTINUOUS
 10
63.999999999995786
 20
-12.966999999999979
 30
0.0
 11
78.0
 21
-12.966999999999979
 31
0.0
  0
LINE
  5
4492
  8
250
  6
CONTINUOUS
 10
77.0
 20
10.736999999999981
 30
0.0
 11
77.0
 21
-10.736999999999981
 31
0.0
  0
LINE
  5
4496
  8
250
  6
CONTINUOUS
 10
64.000000000005855
 20
24.9999999999919
 30
0.0
 11
85.0
 21
24.9999999999919
 31
0.0
  0
LINE
  5
4497
  8
250
  6
CONTINUOUS
 10
63.999999999992603
 20
-24.999999999992141
 30
0.0
 11
85.0
 21
-24.999999999992149
 31
0.0
  0
LINE
  5
4498
  8
250
  6
CONTINUOUS
 10
84.0
 20
22.769999999991899
 30
0.0
 11
84.0
 21
-22.769999999992141
 31
0.0
  0
LINE
  5
449C
  8
250
  6
CONTINUOUS
 10
0.4999999999974882
 20
9.7800000000002996
 30
0.0
 11
-2.8095064110856329
 21
9.7800000000002996
 31
0.0
  0
LINE
  5
449D
  8
250
  6
CONTINUOUS
 10
0.5000000000012613
 20
-9.7800000000000704
 30
0.0
 11
-2.8095064110856378
 21
-9.7800000000000704
 31
0.0
  0
LINE
  5
449E
  8
250
  6
CONTINUOUS
 10
-1.809506411085634
 20
7.5500000000002991
 30
0.0
 11
-1.8095064110856369
 21
-7.5500000000000691
 31
0.0
  0
TEXT
  5
44A2
  8
250
  6
CONTINUOUS
 10
28.416666666668679
 20
43.0
 30
0.0
 40
2.7999999999999989
  1
2.50
  0
LINE
  5
44A3
  8
250
  6
CONTINUOUS
 10
61.270000000005858
 20
42.371666666666663
 30
0.0
 11
63.500000000005862
 21
42.0
 31
0.0
  0
LINE
  5
44A4
  8
250
  6
CONTINUOUS
 10
61.270000000005858
 20
41.62833333333333
 30
0.0
 11
63.500000000005862
 21
42.0
 31
0.0
  0
LINE
  5
44A5
  8
250
  6
CONTINUOUS
 10
63.500000000005862
 20
42.0
 30
0.0
 11
61.270000000005858
 21
42.0
 31
0.0
  0
LINE
  5
44A6
  8
250
  6
CONTINUOUS
 10
2.229999999998157
 20
41.62833333333333
 30
0.0
 11
-0.0000000000018426
 21
42.0
 31
0.0
  0
LINE
  5
44A7
  8
250
  6
CONTINUOUS
 10
2.229999999998157
 20
42.371666666666663
 30
0.0
 11
-0.0000000000018426
 21
42.0
 31
0.0
  0
LINE
  5
44A8
  8
250
  6
CONTINUOUS
 10
-0.0000000000018426
 20
42.0
 30
0.0
 11
2.229999999998157
 21
42.0
 31
0.0
  0
TEXT
  5
44A9
  8
250
  6
CONTINUOUS
 10
75.999999999999986
 20
-6.8666666666666538
 30
0.0
 40
2.7999999999999989
  1
\U+22051.021
 50
90.0
  0
LINE
  5
44AA
  8
250
  6
CONTINUOUS
 10
77.371666666666655
 20
-10.736999999999981
 30
0.0
 11
77.0
 21
-12.966999999999979
 31
0.0
  0
LINE
  5
44AB
  8
250
  6
CONTINUOUS
 10
76.62833333333333
 20
-10.736999999999981
 30
0.0
 11
77.0
 21
-12.966999999999979
 31
0.0
  0
LINE
  5
44AC
  8
250
  6
CONTINUOUS
 10
77.0
 20
-12.966999999999979
 30
0.0
 11
77.0
 21
-10.736999999999981
 31
0.0
  0
LINE
  5
44AD
  8
250
  6
CONTINUOUS
 10
76.62833333333333
 20
10.736999999999981
 30
0.0
 11
77.0
 21
12.966999999999979
 31
0.0
  0
LINE
  5
44AE
  8
250
  6
CONTINUOUS
 10
77.371666666666655
 20
10.736999999999981
 30
0.0
 11
77.0
 21
12.966999999999979
 31
0.0
  0
LINE
  5
44AF
  8
250
  6
CONTINUOUS
 10
77.0
 20
12.966999999999979
 30
0.0
 11
77.0
 21
10.736999999999981
 31
0.0
  0
TEXT
  5
44B0
  8
250
  6
CONTINUOUS
 10
82.999999999999986
 20
-7.2000000000001094
 30
0.0
 40
2.7999999999999989
  1
\U+22051.969
 50
90.0
  0
LINE
  5
44B1
  8
250
  6
CONTINUOUS
 10
84.371666666666684
 20
-22.769999999992141
 30
0.0
 11
84.0
 21
-24.999999999992149
 31
0.0
  0
LINE
  5
44B2
  8
250
  6
CONTINUOUS
 10
83.628333333333316
 20
-22.769999999992141
 30
0.0
 11
84.0
 21
-24.999999999992149
 31
0.0
  0
LINE
  5
44B3
  8
250
  6
CONTINUOUS
 10
84.0
 20
-24.999999999992149
 30
0.0
 11
84.0
 21
-22.769999999992141
 31
0.0
  0
LINE
  5
44B4
  8
250
  6
CONTINUOUS
 10
83.628333333333316
 20
22.769999999991899
 30
0.0
 11
84.0
 21
24.9999999999919
 31
0.0
  0
LINE
  5
44B5
  8
250
  6
CONTINUOUS
 10
84.371666666666684
 20
22.769999999991899
 30
0.0
 11
84.0
 21
24.9999999999919
 31
0.0
  0
LINE
  5
44B6
  8
250
  6
CONTINUOUS
 10
84.0
 20
24.9999999999919
 30
0.0
 11
84.0
 21
22.769999999991899
 31
0.0
  0
TEXT
  5
44B7
  8
250
  6
CONTINUOUS
 10
-2.809506411085636
 20
-6.2666666666665511
 30
0.0
 40
2.7999999999999989
  1
üá
 50
90.0
  0
TEXT
  5
44B8
  8
250
  6
CONTINUOUS
 10
-2.809506411085636
 20
-2.9333333333332181
 30
0.0
 40
2.7999999999999989
  1
.766
 50
90.0
  0
LINE
  5
44B9
  8
250
  6
CONTINUOUS
 10
-1.437839744418971
 20
-7.5500000000000691
 30
0.0
 11
-1.809506411085638
 21
-9.7800000000000704
 31
0.0
  0
LINE
  5
44BA
  8
250
  6
CONTINUOUS
 10
-2.181173077752304
 20
-7.5500000000000691
 30
0.0
 11
-1.809506411085638
 21
-9.7800000000000704
 31
0.0
  0
LINE
  5
44BB
  8
250
  6
CONTINUOUS
 10
-1.809506411085638
 20
-9.7800000000000704
 30
0.0
 11
-1.8095064110856369
 21
-7.5500000000000691
 31
0.0
  0
LINE
  5
44BC
  8
250
  6
CONTINUOUS
 10
-2.1811730777523
 20
7.5500000000002991
 30
0.0
 11
-1.8095064110856329
 21
9.7800000000002996
 31
0.0
  0
LINE
  5
44BD
  8
250
  6
CONTINUOUS
 10
-1.437839744418967
 20
7.5500000000002991
 30
0.0
 11
-1.8095064110856329
 21
9.7800000000002996
 31
0.0
  0
LINE
  5
44BE
  8
250
  6
CONTINUOUS
 10
-1.8095064110856329
 20
9.7800000000002996
 30
0.0
 11
-1.8095064110856329
 21
7.5500000000002991
 31
0.0
  0
VIEWPORT
  5
22
 67
     1
  8
0
 10
261.51769911504419
 20
148.5
 30
0.0
 40
523.0353982300885
 41
297.0
 68
     1
 69
     1
1001
ACAD
1000
MVIEW
1002
{
1070
    16
1010
0.0
1020
0.0
1030
0.0
1010
0.0
1020
0.0
1030
1.0
1040
0.0
1040
297.0
1040
261.51769911504419
1040
148.5
1040
50.0
1040
0.0
1040
0.0
1070
     0
1070
   100
1070
     1
1070
     1
1070
     0
1070
     0
1070
     0
1070
     0
1040
0.0
1040
0.0
1040
0.0
1040
1.0
1040
1.0
1040
10.0
1040
10.0
1070
     0
1002
{
1002
}
1002
}
1001
GENIUS_GENODEF_13
1002
{
1000
HIER
1070
     0
1002
}
1002
{
1000
MANEDIT
1070
     0
1002
}
1002
{
1000
NOSEL
1070
     0
1002
}
1002
{
1000
BEHIND
1070
     0
1002
}
1002
{
1000
OTHER
1070
     0
1002
}
1002
{
1000
REACTOR
1002
}
1001
GENIUS_GENOBJ-N-SDF_13
1002
{
1000
OWNER
1000
GEN
1002
}
1001
GENIUS_GENSCREG_15
1000
PF
1040
1.0
1000
DF
1040
1.0
1000
MIN
1011
0.0
1021
0.0
1031
0.0
1021
0.0
1031
0.0
1000
MAX
1011
523.0353982300885
1021
0.0
1031
0.0
1021
297.0
1031
0.0
1000
FLAGS
1070
     4
  0
ENDSEC
  0
EOF
