  0
SECTION
  2
HEADER
  9
$ACADVER
  1
AC1009
  9
$INSBASE
 10
0.0
 20
0.0
 30
0.0
  9
$EXTMIN
 10
-92.220854310484356
 20
-26.999999999994539
 30
0.0
  9
$EXTMAX
 10
104.8317802693234
 20
63.500000000000007
 30
0.0
  9
$LIMMIN
 10
0.0
 20
0.0
  9
$LIMMAX
 10
297.0
 20
210.0
  9
$ORTHOMODE
 70
     1
  9
$REGENMODE
 70
     1
  9
$FILLMODE
 70
     1
  9
$QTEXTMODE
 70
     0
  9
$MIRRTEXT
 70
     1
  9
$DRAGMODE
 70
     2
  9
$LTSCALE
 40
10.0
  9
$OSMODE
 70
    37
  9
$ATTMODE
 70
     1
  9
$TEXTSIZE
 40
3.0
  9
$TRACEWID
 40
1.0
  9
$TEXTSTYLE
  7
YOKO
  9
$CLAYER
  8
240
  9
$CELTYPE
  6
BYLAYER
  9
$CECOLOR
 62
   256
  9
$DIMSCALE
 40
1.0
  9
$DIMASZ
 40
2.2299999999999991
  9
$DIMEXO
 40
0.5
  9
$DIMDLI
 40
7.0
  9
$DIMRND
 40
0.0
  9
$DIMDLE
 40
0.0
  9
$DIMEXE
 40
1.0
  9
$DIMTP
 40
0.0
  9
$DIMTM
 40
0.01
  9
$DIMTXT
 40
2.7999999999999989
  9
$DIMCEN
 40
0.0
  9
$DIMTSZ
 40
0.0
  9
$DIMTOL
 70
     0
  9
$DIMLIM
 70
     0
  9
$DIMTIH
 70
     0
  9
$DIMTOH
 70
     0
  9
$DIMSE1
 70
     0
  9
$DIMSE2
 70
     0
  9
$DIMTAD
 70
     3
  9
$DIMZIN
 70
     9
  9
$DIMBLK
  1
OPEN
  9
$DIMASO
 70
     1
  9
$DIMSHO
 70
     1
  9
$DIMPOST
  1

  9
$DIMAPOST
  1

  9
$DIMALT
 70
     0
  9
$DIMALTD
 70
     2
  9
$DIMALTF
 40
25.399999999999999
  9
$DIMLFAC
 40
1.0
  9
$DIMTOFL
 70
     1
  9
$DIMTVP
 40
0.0
  9
$DIMTIX
 70
     1
  9
$DIMSOXD
 70
     0
  9
$DIMSAH
 70
     0
  9
$DIMBLK1
  1

  9
$DIMBLK2
  1

  9
$DIMSTYLE
  2
BIGT
  9
$DIMCLRD
 70
   256
  9
$DIMCLRE
 70
   256
  9
$DIMCLRT
 70
    40
  9
$DIMTFAC
 40
1.0
  9
$DIMGAP
 40
1.0
  9
$LUNITS
 70
     2
  9
$LUPREC
 70
     6
  9
$SKETCHINC
 40
1.0
  9
$FILLETRAD
 40
1.0
  9
$AUNITS
 70
     0
  9
$AUPREC
 70
     6
  9
$MENU
  1
.
  9
$ELEVATION
 40
0.0
  9
$PELEVATION
 40
0.0
  9
$THICKNESS
 40
0.0
  9
$LIMCHECK
 70
     0
  9
$BLIPMODE
 70
     0
  9
$CHAMFERA
 40
0.2
  9
$CHAMFERB
 40
0.2
  9
$SKPOLY
 70
     0
  9
$TDCREATE
 40
2458145.7124211229
  9
$TDUPDATE
 40
2458148.5935508679
  9
$TDINDWG
 40
0.032178912
  9
$TDUSRTIMER
 40
0.0321788773
  9
$USRTIMER
 70
     1
  9
$ANGBASE
 50
0.0
  9
$ANGDIR
 70
     0
  9
$PDMODE
 70
     1
  9
$PDSIZE
 40
0.0
  9
$PLINEWID
 40
0.0
  9
$COORDS
 70
     1
  9
$SPLFRAME
 70
     0
  9
$SPLINETYPE
 70
     6
  9
$SPLINESEGS
 70
     4
  9
$ATTDIA
 70
     1
  9
$ATTREQ
 70
     1
  9
$HANDLING
 70
     1
  9
$HANDSEED
  5
4D68
  9
$SURFTAB1
 70
     6
  9
$SURFTAB2
 70
     6
  9
$SURFTYPE
 70
     6
  9
$SURFU
 70
     6
  9
$SURFV
 70
     6
  9
$UCSNAME
  2

  9
$UCSORG
 10
0.0
 20
0.0
 30
0.0
  9
$UCSXDIR
 10
1.0
 20
0.0
 30
0.0
  9
$UCSYDIR
 10
0.0
 20
1.0
 30
0.0
  9
$PUCSNAME
  2

  9
$PUCSORG
 10
0.0
 20
0.0
 30
0.0
  9
$PUCSXDIR
 10
1.0
 20
0.0
 30
0.0
  9
$PUCSYDIR
 10
0.0
 20
1.0
 30
0.0
  9
$USERI1
 70
     1
  9
$USERI2
 70
     0
  9
$USERI3
 70
     0
  9
$USERI4
 70
     0
  9
$USERI5
 70
     0
  9
$USERR1
 40
0.0
  9
$USERR2
 40
0.0
  9
$USERR3
 40
0.0
  9
$USERR4
 40
0.0
  9
$USERR5
 40
0.0
  9
$WORLDVIEW
 70
     1
  9
$SHADEDGE
 70
     3
  9
$SHADEDIF
 70
    70
  9
$TILEMODE
 70
     1
  9
$MAXACTVP
 70
    16
  9
$PLIMCHECK
 70
     0
  9
$PEXTMIN
 10
1.0000000000000000E+020
 20
1.0000000000000000E+020
 30
1.0000000000000000E+020
  9
$PEXTMAX
 10
-1.0000000000000000E+020
 20
-1.0000000000000000E+020
 30
-1.0000000000000000E+020
  9
$PLIMMIN
 10
0.0
 20
0.0
  9
$PLIMMAX
 10
420.0
 20
297.0
  9
$UNITMODE
 70
     0
  9
$VISRETAIN
 70
     1
  9
$PLINEGEN
 70
     0
  9
$PSLTSCALE
 70
     1
  0
ENDSEC
  0
SECTION
  2
TABLES
  0
TABLE
  2
VPORT
 70
     1
  0
VPORT
  2
*ACTIVE
 70
     0
 10
0.0
 20
0.0
 11
1.0
 21
1.0
 12
-8.6526185121027197
 22
25.104529201216849
 13
0.0
 23
0.0
 14
7.0
 24
7.0
 15
7.0
 25
7.0
 16
0.0
 26
0.0
 36
1.0
 17
0.0
 27
0.0
 37
0.0
 40
184.86835645332491
 41
1.5644444444444441
 42
50.0
 43
0.0
 44
0.0
 50
0.0
 51
0.0
 71
     0
 72
  2000
 73
     1
 74
     0
 75
     0
 76
     1
 77
     0
 78
     0
  0
ENDTAB
  0
TABLE
  2
LTYPE
 70
    16
  0
LTYPE
  2
CONTINUOUS
 70
     0
  3
Solid line
 72
    65
 73
     0
 40
0.0
  0
LTYPE
  2
CENTER2
 70
     0
  3
___ _ ___ _ ___ _ ___ _ ___ _ ___ _ ___ _ ___ _
 72
    65
 73
     4
 40
1.125
 49
0.75
 49
-0.125
 49
0.125
 49
-0.125
  0
LTYPE
  2
HIDDEN2
 70
     0
  3
_ _ _ _ _ _ _ _ _ _ _ _ _ _ _ _ _ _ _ _ _ _ _ _
 72
    65
 73
     2
 40
0.1875
 49
0.125
 49
-0.0625
  0
LTYPE
  2
AM_ISO02W050
 70
     0
  3
__ __ __ __ __ __ __ __ __ __ __ __ __ __ __
 72
    65
 73
     2
 40
7.5
 49
6.0
 49
-1.5
  0
LTYPE
  2
AMCONSTR
 70
     0
  3
_______________________
 72
    65
 73
     2
 40
9999.0
 49
9999.0
 49
0.0
  0
LTYPE
  2
ACISOWELD
 70
     0
  3
_ _ _ _ _
 72
    65
 73
     2
 40
2.0
 49
2.0
 49
-1.0
  0
LTYPE
  2
ACISOTGB
 70
     0
  3
__ . . __ . .
 72
    65
 73
     6
 40
9.0
 49
4.0
 49
-1.0
 49
1.0
 49
-1.0
 49
1.0
 49
-1.0
  0
LTYPE
  2
ACISOTGL
 70
     0
  3
_ _ _ _ _
 72
    65
 73
     2
 40
3.0
 49
2.0
 49
-1.0
  0
LTYPE
  2
AM_ISO08W050
 70
     0
  3
____ . ____ . ____ . ____ . ____ . ____ . ____
 72
    65
 73
     4
 40
18.0
 49
12.0
 49
-1.5
 49
3.0
 49
-1.5
  0
LTYPE
  2
AM_ISO09W050
 70
     0
  3
_____ . . _____ . . _____ . . ____ .. ____
 72
    65
 73
     6
 40
22.5
 49
12.0
 49
-1.5
 49
3.0
 49
-1.5
 49
3.0
 49
-1.5
  0
LTYPE
  2
AM_ISO08W050X2
 70
     0
  3
__ . __ . __ . __ . __ . __
 72
    65
 73
     4
 40
9.0
 49
6.0
 49
-0.75
 49
1.5
 49
-0.75
  0
LTYPE
  2
AM_ISO02W050X2
 70
     0
  3
 _ _ _ _ _ _ _ _ _ _ _ _
 72
    65
 73
     2
 40
3.75
 49
3.0
 49
-0.75
  0
LTYPE
  2
AMZIGZAG
 70
     0
  3
/\/-/\/-/\/-/\/-/\/-/\/
 72
    65
 73
     2
 40
11.0001
 49
0.0001
 49
-11.0
  0
ENDTAB
  0
TABLE
  2
LAYER
 70
    11
  0
LAYER
  2
0
 70
     0
 62
     7
  6
CONTINUOUS
  0
LAYER
  2
DEFPOINTS
 70
     0
 62
     7
  6
CONTINUOUS
  0
LAYER
  2
245
 70
     0
 62
     2
  6
CENTER2
  0
LAYER
  2
240
 70
     0
 62
     4
  6
CONTINUOUS
  0
LAYER
  2
241
 70
     0
 62
   211
  6
CONTINUOUS
  0
LAYER
  2
242
 70
     0
 62
     3
  6
CONTINUOUS
  0
LAYER
  2
243
 70
     0
 62
   211
  6
HIDDEN2
  0
LAYER
  2
244
 70
     0
 62
     3
  6
HIDDEN2
  0
LAYER
  2
247
 70
     0
 62
    60
  6
CONTINUOUS
  0
LAYER
  2
250
 70
     0
 62
     3
  6
CONTINUOUS
  0
ENDTAB
  0
TABLE
  2
STYLE
 70
     5
  0
STYLE
  2
STANDARD
 70
     0
 40
0.0
 41
1.0
 50
0.0
 71
     0
 42
3.0
  3
romans.shx
  4
extfont.shx
  0
STYLE
  2
ACISOGDT
 70
     0
 40
0.0
 41
1.0
 50
0.0
 71
     0
 42
3.0
  3
amgdt.shx
  4
extfont.shx
  0
STYLE
  2
YOKO
 70
     0
 40
0.0
 41
1.0
 50
0.0
 71
     0
 42
3.0
  3
romans.shx
  4
extfont.shx
  0
STYLE
  2

 70
     1
 40
0.0
 41
1.0
 50
0.0
 71
     0
 42
3.0
  3
genltshp.shx
  4

  0
ENDTAB
  0
TABLE
  2
VIEW
 70
     0
  0
ENDTAB
  0
TABLE
  2
UCS
 70
     0
  0
ENDTAB
  0
TABLE
  2
APPID
 70
    39
  0
APPID
  2
ACAD
 70
     0
  0
APPID
  2
GLOBAL
 70
     0
  0
APPID
  2
DETAIL
 70
     0
  0
APPID
  2
GRPNAME
 70
     0
  0
APPID
  2
GPARA
 70
     0
  0
APPID
  2
MCAD_NO_VIS
 70
     0
  0
APPID
  2
ACAD_TEMP_GRAPHIC
 70
     0
  0
APPID
  2
ACATTRIBSERVICES
 70
     0
  0
APPID
  2
GENIUS_GENSCREG_15
 70
     0
  0
APPID
  2
GENIUS_GENODEF_13
 70
     0
  0
APPID
  2
GENIUS_GENOBJ-N-SDF_13
 70
     0
  0
APPID
  2
GENIUS_GENREC_14
 70
     0
  0
APPID
  2
GENIUS_GENOBJ-N-REC_13
 70
     0
  0
APPID
  2
GENIUS_GENDIMSH_14
 70
     0
  0
APPID
  2
GENIUS_GENOBJ-N-DIM_13
 70
     0
  0
APPID
  2
GENIUS_GENDIM_13
 70
     0
  0
APPID
  2
GENIUS_GENDTOL_13
 70
     0
  0
APPID
  2
GENIUS_GENOLIS_13
 70
     0
  0
APPID
  2
GENIUS_GENOENT_13
 70
     0
  0
APPID
  2
GENIUS_GENOBJ-F-FEM_13
 70
     0
  0
APPID
  2
GENIUS_GENOREF_13
 70
     0
  0
APPID
  2
GENIUS_GEFFEM_13
 70
     0
  0
APPID
  2
GENIUS_GEFFEMP_13
 70
     0
  0
APPID
  2
AD_DRAW
 70
     0
  0
APPID
  2
DESIGNERASSEMBLIES
 70
     0
  0
APPID
  2
ACADM_DIM_EDIT
 70
     0
  0
APPID
  2
AMDT_DM_ADJ
 70
     0
  0
APPID
  2
ITEMNAME
 70
     0
  0
APPID
  2
GENIUS_GENOBJ-N-FIL_13
 70
     0
  0
APPID
  2
GENIUS_GENFIL_13
 70
     0
  0
APPID
  2
GENIUS_GENOBJ-N-CHA_13
 70
     0
  0
APPID
  2
ACAECLAYERSTANDARD
 70
     0
  0
APPID
  2
ACAD_NAV_VCDISPLAY
 70
     0
  0
APPID
  2
GENIUS_GENOBJ-N-CRS_13
 70
     0
  0
APPID
  2
ACAD_DSTYLE_DIMJAG
 70
     0
  0
APPID
  2
ACAD_DSTYLE_DIMBREAK
 70
     0
  0
APPID
  2
ACAD_EXEMPT_FROM_CAD_STANDARDS
 70
     0
  0
APPID
  2
ACAD_DSTYLE_DIMINSPECT
 70
     0
  0
APPID
  2
ACAD_MLEADERVER
 70
     0
  0
ENDTAB
  0
TABLE
  2
DIMSTYLE
 70
     9
  0
DIMSTYLE
  2
BIGT
 70
     0
  3

  4

  5
OPEN
  6

  7

 40
1.0
 41
2.2299999999999991
 42
0.5
 43
7.0
 44
1.0
 45
0.0
 46
0.0
 47
0.0
 48
0.01
140
2.7999999999999989
141
0.0
142
0.0
143
25.399999999999999
144
1.0
145
0.0
146
1.0
147
1.0
 71
     0
 72
     0
 73
     0
 74
     0
 75
     0
 76
     0
 77
     3
 78
     9
170
     0
171
     2
172
     1
173
     0
174
     1
175
     0
176
   256
177
   256
178
    40
  0
DIMSTYLE
  2
AM_ISO
 70
     0
  3

  4
"
  5

  6

  7

 40
1.0
 41
2.5
 42
1.0
 43
10.0
 44
1.0
 45
0.0
 46
0.0
 47
0.1
 48
0.1
140
3.5
141
0.0
142
0.0
143
0.0393701
144
1.0
145
0.0
146
0.71
147
1.5
 71
     0
 72
     0
 73
     0
 74
     0
 75
     0
 76
     0
 77
     1
 78
     8
170
     0
171
     2
172
     1
173
     0
174
     0
175
     0
176
   256
177
   256
178
     2
  0
DIMSTYLE
  2
AM_ISO$3
 70
     0
  3

  4
"
  5

  6

  7

 40
1.0
 41
2.5
 42
1.0
 43
10.0
 44
1.0
 45
0.0
 46
0.0
 47
0.1
 48
0.1
140
3.5
141
0.0
142
0.0
143
0.0393701
144
1.0
145
0.0
146
0.71
147
1.5
 71
     0
 72
     0
 73
     0
 74
     1
 75
     0
 76
     0
 77
     1
 78
     8
170
     0
171
     2
172
     0
173
     0
174
     0
175
     0
176
   256
177
   256
178
     2
  0
DIMSTYLE
  2
AM_ISO$4
 70
     0
  3

  4
"
  5

  6

  7

 40
1.0
 41
2.5
 42
1.0
 43
10.0
 44
1.0
 45
0.0
 46
0.0
 47
0.1
 48
0.1
140
3.5
141
0.0
142
0.0
143
0.0393701
144
1.0
145
0.0
146
0.71
147
1.5
 71
     0
 72
     0
 73
     0
 74
     1
 75
     0
 76
     0
 77
     1
 78
     8
170
     0
171
     2
172
     0
173
     0
174
     0
175
     0
176
   256
177
   256
178
     2
  0
DIMSTYLE
  2
AM_ISO$6
 70
     0
  3

  4
"
  5

  6

  7

 40
1.0
 41
2.5
 42
1.0
 43
10.0
 44
1.0
 45
0.0
 46
0.0
 47
0.1
 48
0.1
140
3.5
141
0.0
142
0.0
143
0.0393701
144
1.0
145
0.0
146
0.71
147
1.5
 71
     0
 72
     0
 73
     0
 74
     0
 75
     0
 76
     0
 77
     0
 78
     8
170
     0
171
     2
172
     1
173
     0
174
     0
175
     0
176
   256
177
   256
178
     2
  0
DIMSTYLE
  2
AM_ISO$7
 70
     0
  3

  4
"
  5

  6

  7

 40
1.0
 41
2.5
 42
1.0
 43
10.0
 44
1.0
 45
0.0
 46
0.0
 47
0.1
 48
0.1
140
5.0
141
0.0
142
0.0
143
0.0393701
144
1.0
145
0.0
146
0.71
147
1.5
 71
     0
 72
     0
 73
     0
 74
     0
 75
     0
 76
     0
 77
     1
 78
     8
170
     0
171
     2
172
     1
173
     0
174
     0
175
     0
176
   256
177
   256
178
     2
  0
DIMSTYLE
  2
AM_ISO$SF
 70
     0
  3

  4
"
  5

  6

  7

 40
1.0
 41
2.5
 42
1.0
 43
10.0
 44
1.0
 45
0.0
 46
0.0
 47
0.1
 48
0.1
140
3.5
141
0.0
142
0.0
143
0.0393701
144
1.0
145
0.0
146
0.71
147
1.5
 71
     0
 72
     0
 73
     0
 74
     0
 75
     1
 76
     1
 77
     1
 78
     8
170
     0
171
     2
172
     1
173
     0
174
     0
175
     0
176
   256
177
   256
178
     2
  0
DIMSTYLE
  2
AM_ISO$SH
 70
     0
  3

  4
"
  5

  6
GENAXEH
  7

 40
1.0
 41
2.5
 42
1.0
 43
10.0
 44
1.0
 45
0.0
 46
0.0
 47
0.1
 48
0.1
140
3.5
141
0.0
142
0.0
143
0.0393701
144
2.0
145
0.0
146
0.71
147
1.5
 71
     0
 72
     0
 73
     0
 74
     0
 75
     1
 76
     1
 77
     1
 78
     8
170
     0
171
     2
172
     1
173
     1
174
     0
175
     0
176
   256
177
   256
178
     2
  0
DIMSTYLE
  2
STANDARD
 70
     0
  3

  4

  5

  6

  7

 40
1.0
 41
2.0
 42
2.0
 43
3.75
 44
2.0
 45
0.0
 46
0.0
 47
0.0
 48
0.0
140
4.0
141
0.09
142
0.0
143
25.399999999999999
144
1.0
145
0.0
146
1.0
147
1.0
 71
     0
 72
     0
 73
     1
 74
     1
 75
     0
 76
     0
 77
     0
 78
     8
170
     0
171
     2
172
     0
173
     1
174
     0
175
     0
176
   256
177
   256
178
   256
  0
ENDTAB
  0
ENDSEC
  0
SECTION
  2
BLOCKS
  0
BLOCK
  8
0
  2
$MODEL_SPACE
 70
     0
 10
0.0
 20
0.0
 30
0.0
  3
$MODEL_SPACE
  1

  0
ENDBLK
  5
1C
  8
0
  0
BLOCK
 67
     1
  8
0
  2
$PAPER_SPACE
 70
     0
 10
0.0
 20
0.0
 30
0.0
  3
$PAPER_SPACE
  1

  0
ENDBLK
  5
19
 67
     1
  8
0
  0
BLOCK
  8
0
  2
_OPEN
 70
     0
 10
0.0
 20
0.0
 30
0.0
  3
_OPEN
  1

  0
LINE
  5
3E1A
  8
0
  6
BYBLOCK
 62
     0
 10
-1.0
 20
0.1666666666666666
 30
0.0
 11
0.0
 21
0.0
 31
0.0
  0
LINE
  5
3E1B
  8
0
  6
BYBLOCK
 62
     0
 10
-1.0
 20
-0.1666666666666666
 30
0.0
 11
0.0
 21
0.0
 31
0.0
  0
LINE
  5
3E1C
  8
0
  6
BYBLOCK
 62
     0
 10
0.0
 20
0.0
 30
0.0
 11
-1.0
 21
0.0
 31
0.0
  0
ENDBLK
  5
3E1D
  8
0
  0
BLOCK
  8
0
  2
GENAXEH
 70
     0
 10
0.0
 20
0.0
 30
0.0
  3
GENAXEH
  1

  0
LINE
  5
3E45
  8
0
 10
-1.0
 20
0.0
 30
0.0
 11
1.0
 21
0.0
 31
0.0
  0
ENDBLK
  5
3E46
  8
0
  0
ENDSEC
  0
SECTION
  2
ENTITIES
  0
TEXT
  5
44F4
  8
241
  6
CONTINUOUS
 10
-90.706710985125014
 20
56.0
 30
0.0
 40
7.5
  1
MGT36-AU1-2.5
  7
YOKO
  0
LINE
  5
451F
  8
245
  6
CENTER2
 10
-66.000000000001819
 20
19.999999999996358
 30
0.0
 11
-66.000000000005471
 21
-19.999999999996358
 31
0.0
1001
GENIUS_GENOREF_13
1005
4778
  0
LINE
  5
4520
  8
241
  6
CONTINUOUS
 10
-42.500000000005457
 20
-19.800000000004719
 30
0.0
 11
-42.500000000005457
 21
19.800000000004719
 31
0.0
  0
LINE
  5
4521
  8
241
  6
CONTINUOUS
 10
-45.000000000005457
 20
-19.800000000004719
 30
0.0
 11
-45.000000000001812
 21
19.800000000004719
 31
0.0
  0
LINE
  5
4522
  8
241
  6
CONTINUOUS
 10
-9.0000000000018172
 20
-20.000000000002451
 30
0.0
 11
-9.0000000000018172
 21
20.000000000002451
 31
0.0
  0
LINE
  5
4523
  8
240
  6
CONTINUOUS
 10
-9.0000000000018172
 20
26.49999999999654
 30
0.0
 11
-7.6262612902781219
 21
26.999999999994539
 31
0.0
  0
LINE
  5
4524
  8
240
  6
CONTINUOUS
 10
0.0000000000010242
 20
26.999999999994539
 30
0.0
 11
-7.6262612902781219
 21
26.999999999994539
 31
0.0
  0
LINE
  5
4526
  8
240
  6
CONTINUOUS
 10
-51.500000000020009
 20
20.0
 30
0.0
 11
-9.0000000000018172
 21
20.000000000002451
 31
0.0
  0
LINE
  5
4527
  8
240
  6
CONTINUOUS
 10
-55.000000000020009
 20
16.5
 30
0.0
 11
-51.500000000020009
 21
20.0
 31
0.0
  0
LINE
  5
4528
  8
240
  6
CONTINUOUS
 10
-55.000000000020009
 20
16.5
 30
0.0
 11
-66.000000000005471
 21
16.5
 31
0.0
  0
LINE
  5
4529
  8
240
  6
CONTINUOUS
 10
-76.999999999987267
 20
16.499999999998181
 30
0.0
 11
-66.000000000001819
 21
16.499999999972712
 31
0.0
  0
LINE
  5
452A
  8
240
  6
CONTINUOUS
 10
-76.999999999987267
 20
16.499999999998181
 30
0.0
 11
-80.499999999995453
 21
20.000000000002728
 31
0.0
  0
LINE
  5
452B
  8
245
  6
CENTER2
 10
-92.220854310484356
 20
0.0
 30
0.0
 11
68.112823223807155
 21
0.0
 31
0.0
  0
LINE
  5
4749
  8
241
  6
CONTINUOUS
 10
-0.0000000000018435
 20
26.999999999994539
 30
0.0
 11
0.0000000000018435
 21
-26.999999999994539
 31
0.0
  0
LINE
  5
474A
  8
241
  6
CONTINUOUS
 10
-7.6262612902773981
 20
26.999999999994539
 30
0.0
 11
-7.6262612902773981
 21
-26.999999999994088
 31
0.0
  0
LINE
  5
474F
  8
241
  6
CONTINUOUS
 10
-29.000000000005461
 20
-19.80000000000382
 30
0.0
 11
-29.000000000005461
 21
19.800000000004271
 31
0.0
  0
LINE
  5
4750
  8
241
  6
CONTINUOUS
 10
-31.500000000001808
 20
-19.80000000000382
 30
0.0
 11
-31.500000000001808
 21
19.800000000004271
 31
0.0
  0
LINE
  5
4751
  8
240
  6
CONTINUOUS
 10
-9.0000000000018172
 20
-26.499999999996561
 30
0.0
 11
-7.6262612902781202
 21
-26.999999999994539
 31
0.0
  0
LINE
  5
4752
  8
240
  6
CONTINUOUS
 10
0.0000000000015434
 20
-26.999999999994539
 30
0.0
 11
-7.6262612902781202
 21
-26.999999999994539
 31
0.0
  0
LINE
  5
4754
  8
240
  6
CONTINUOUS
 10
-55.000000000020009
 20
-16.5
 30
0.0
 11
-51.500000000020009
 21
-20.0
 31
0.0
  0
LINE
  5
4755
  8
240
  6
CONTINUOUS
 10
-55.000000000020009
 20
-16.5
 30
0.0
 11
-66.000000000005471
 21
-16.5
 31
0.0
  0
LINE
  5
4756
  8
240
  6
CONTINUOUS
 10
-76.999999999987267
 20
-16.499999999998181
 30
0.0
 11
-66.000000000001819
 21
-16.499999999972712
 31
0.0
  0
LINE
  5
4757
  8
240
  6
CONTINUOUS
 10
-76.999999999987267
 20
-16.499999999998181
 30
0.0
 11
-80.499999999990905
 21
-19.999999999998181
 31
0.0
  0
LINE
  5
4758
  8
240
  6
CONTINUOUS
 10
-51.500000000020009
 20
-20.0
 30
0.0
 11
-9.0000000000018172
 21
-20.000000000002451
 31
0.0
  0
LINE
  5
4759
  8
240
  6
CONTINUOUS
 10
-90.000000000000824
 20
20.000000000002728
 30
0.0
 11
-90.000000000002771
 21
-20.000000000001361
 31
0.0
  0
LINE
  5
475A
  8
240
  6
CONTINUOUS
 10
-90.000000000000824
 20
20.000000000002728
 30
0.0
 11
-80.499999999995453
 21
20.000000000002728
 31
0.0
  0
LINE
  5
475B
  8
240
  6
CONTINUOUS
 10
-90.000000000002771
 20
-20.000000000001361
 30
0.0
 11
-80.499999999995453
 21
-20.000000000001361
 31
0.0
  0
LINE
  5
475E
  8
240
  6
CONTINUOUS
 10
-9.0000000000018172
 20
20.000000000002451
 30
0.0
 11
-9.0000000000018172
 21
26.49999999999654
 31
0.0
  0
LINE
  5
475F
  8
240
  6
CONTINUOUS
 10
-9.0000000000018172
 20
-20.000000000002451
 30
0.0
 11
-9.0000000000018172
 21
-26.499999999996561
 31
0.0
  0
LINE
  5
4764
  8
247
  6
CONTINUOUS
 10
10.97423603598503
 20
-16.75000000000356
 30
0.0
 11
10.974236035985079
 21
-12.115384615673589
 31
0.0
  0
LINE
  5
4765
  8
247
  6
CONTINUOUS
 10
8.4742360359850863
 20
-15.954893499991501
 30
0.0
 11
10.574236035901089
 21
-16.557058810060919
 31
0.0
  0
LINE
  5
4766
  8
247
  6
CONTINUOUS
 10
9.4703898820990844
 20
-15.32515140352259
 30
0.0
 11
9.4703898820990844
 21
-16.240536018870579
 31
0.0
  0
ARC
  5
4767
  8
247
  6
CONTINUOUS
 10
8.858955103279186
 20
-15.087263401950359
 30
0.0
 40
0.3876715809326743
 50
72.997889675291987
 51
172.92416621851271
  0
ARC
  5
4768
  8
247
  6
CONTINUOUS
 10
8.7794591670131013
 20
-15.382477556807659
 30
0.0
 40
0.6933047965358772
 50
4.7429368522013959
 51
73.849226273266481
1001
GENIUS_GENOBJ-N-FIL_13
1002
{
1000
OWNER
1000
GEN
1002
}
1001
GENIUS_GENODEF_13
1002
{
1000
HIER
1070
     0
1002
}
1002
{
1000
MANEDIT
1070
     0
1002
}
1002
{
1000
NOSEL
1070
     0
1002
}
1002
{
1000
BEHIND
1070
     0
1002
}
1002
{
1000
OTHER
1070
     0
1002
}
1002
{
1000
REACTOR
1002
}
  0
LINE
  5
4769
  8
247
  6
CONTINUOUS
 10
10.574236035901089
 20
-15.641674194712911
 30
0.0
 11
10.574236035901089
 21
-16.557058810060919
 31
0.0
  0
LINE
  5
476A
  8
247
  6
CONTINUOUS
 10
8.4742360359850863
 20
-15.95489349999151
 30
0.0
 11
8.4742360359850863
 21
-15.039508884643499
 31
0.0
  0
ARC
  5
476B
  8
247
  6
CONTINUOUS
 10
9.8616529987529571
 20
-15.37830647627039
 30
0.0
 40
0.394857301075386
 50
65.990941652528775
 51
172.2634434590698
  0
ARC
  5
476C
  8
247
  6
CONTINUOUS
 10
9.8654363633176558
 20
-15.712446610430471
 30
0.0
 40
0.7123241612361686
 50
5.7019851642581392
 51
77.27733843682222
1001
GENIUS_GENOBJ-N-FIL_13
1002
{
1000
OWNER
1000
GEN
1002
}
1001
GENIUS_GENODEF_13
1002
{
1000
HIER
1070
     0
1002
}
1002
{
1000
MANEDIT
1070
     0
1002
}
1002
{
1000
NOSEL
1070
     0
1002
}
1002
{
1000
BEHIND
1070
     0
1002
}
1002
{
1000
OTHER
1070
     0
1002
}
1002
{
1000
REACTOR
1002
}
  0
LINE
  5
476D
  8
247
  6
CONTINUOUS
 10
10.574236035901089
 20
-14.683981887066929
 30
0.0
 11
8.4742360359850863
 21
-14.08181657699752
 31
0.0
  0
LINE
  5
476E
  8
247
  6
CONTINUOUS
 10
8.4742360359850863
 20
-12.585662730911521
 30
0.0
 11
8.4742360359850863
 21
-12.98167836430714
 31
0.0
  0
LINE
  5
476F
  8
247
  6
CONTINUOUS
 10
10.574236035901089
 20
-13.60873965394752
 30
0.0
 11
10.574236035901089
 21
-13.17797042319553
 31
0.0
  0
ARC
  5
4770
  8
247
  6
CONTINUOUS
 10
9.9325356310684452
 20
-12.38181657707351
 30
0.0
 40
1.576855057639547
 50
202.35948814152749
 51
254.99324854284589
  0
ARC
  5
4771
  8
247
  6
CONTINUOUS
 10
9.0400548945232231
 20
-12.84751136613678
 30
0.0
 40
0.6234706797009447
 50
94.994589319075374
 51
155.16632895730319
1001
GENIUS_GENOBJ-N-FIL_13
1002
{
1000
OWNER
1000
GEN
1002
}
1001
GENIUS_GENODEF_13
1002
{
1000
HIER
1070
     0
1002
}
1002
{
1000
MANEDIT
1070
     0
1002
}
1002
{
1000
NOSEL
1070
     0
1002
}
1002
{
1000
BEHIND
1070
     0
1002
}
1002
{
1000
OTHER
1070
     0
1002
}
1002
{
1000
REACTOR
1002
}
  0
ARC
  5
4772
  8
247
  6
CONTINUOUS
 10
9.6363381579545262
 20
-13.444183951036329
 30
0.0
 40
0.9749472149106983
 50
15.846096555779839
 51
82.325137004169108
  0
ARC
  5
4773
  8
247
  6
CONTINUOUS
 10
9.8457064379561512
 20
-13.03521163877577
 30
0.0
 40
0.9271945638692009
 50
249.71360167049701
 51
321.7887456564099
1001
GENIUS_GENOBJ-N-FIL_13
1002
{
1000
OWNER
1000
GEN
1002
}
1001
GENIUS_GENODEF_13
1002
{
1000
HIER
1070
     0
1002
}
1002
{
1000
MANEDIT
1070
     0
1002
}
1002
{
1000
NOSEL
1070
     0
1002
}
1002
{
1000
BEHIND
1070
     0
1002
}
1002
{
1000
OTHER
1070
     0
1002
}
1002
{
1000
REACTOR
1002
}
  0
LINE
  5
4774
  8
247
  6
CONTINUOUS
 10
9.7665437282410608
 20
-12.96258580781952
 30
0.0
 11
9.7665437282410608
 21
-12.477970423223519
 31
0.0
  0
ARC
  5
4775
  8
247
  6
CONTINUOUS
 10
9.7242360359850863
 20
-16.75000000000356
 30
0.0
 40
1.25
 50
180.0
 51
0.0
  0
LINE
  5
4776
  8
247
  6
CONTINUOUS
 10
8.4742360359850863
 20
-16.75000000000356
 30
0.0
 11
8.4742360359850863
 21
-16.303846153917561
 31
0.0
  0
ARC
  5
4777
  8
247
  6
CONTINUOUS
 10
9.7242360359850863
 20
-12.11538461567357
 30
0.0
 40
1.25
 50
0.0
 51
180.0
  0
POINT
  5
4778
  8
0
 10
-15041.480041667361
 20
9982.2519074072643
 30
0.0
1001
GENIUS_GENOLIS_13
1002
{
1000
ENT
1005
0
1005
0
1005
451F
1005
0
1002
}
1001
GENIUS_GENOENT_13
1002
{
1000
MYREF
1005
4778
1002
}
1002
{
1000
GRP
1005
0
1002
}
1001
GENIUS_GENOBJ-N-CRS_13
1002
{
1000
OWNER
1000
GEN
1002
}
1001
GENIUS_GENODEF_13
1002
{
1000
HIER
1070
    10
1002
}
1002
{
1000
MANEDIT
1070
     1
1002
}
1002
{
1000
NOSEL
1070
     0
1002
}
1002
{
1000
BEHIND
1070
     0
1002
}
1002
{
1000
OTHER
1070
     0
1002
}
1002
{
1000
REACTOR
1002
}
  0
LINE
  5
47A7
  8
240
  6
CONTINUOUS
 10
2.5089967387807279
 20
-20.499999999999179
 30
0.0
 11
63.500000000006722
 21
-20.49999999999903
 31
0.0
  0
LINE
  5
47A8
  8
240
  6
CONTINUOUS
 10
63.499999999995602
 20
20.499999999998799
 30
0.0
 11
2.5089967387804739
 21
20.500000000000011
 31
0.0
  0
LINE
  5
47A9
  8
241
  6
CONTINUOUS
 10
43.499999999964153
 20
-20.49999999999908
 30
0.0
 11
43.499999999964622
 21
20.499999999999972
 31
0.0
  0
LINE
  5
47AA
  8
241
  6
CONTINUOUS
 10
41.899999999958681
 20
-20.49999999999908
 30
0.0
 11
41.899999999958681
 21
20.499999999999972
 31
0.0
  0
LINE
  5
47AB
  8
241
  6
CONTINUOUS
 10
40.49999999996507
 20
-20.499999999999091
 30
0.0
 11
40.499999999963933
 21
20.499999999999972
 31
0.0
  0
LINE
  5
47AC
  8
241
  6
CONTINUOUS
 10
38.89999999995851
 20
-20.499999999999101
 30
0.0
 11
38.899999999958851
 21
20.499999999999972
 31
0.0
  0
POLYLINE
  5
47AD
  8
241
  6
CONTINUOUS
 10
47.12500000000481
 20
14.30720930376429
 30
0.0
 66
     1
 70
     8
  0
VERTEX
  8
241
  5
4B60
 10
47.1250
 20
14.3072
 30
0.000000
  70
    32
  0
VERTEX
  8
241
  5
4B61
 10
47.1291
 20
14.1901
 30
0.000000
  70
    32
  0
VERTEX
  8
241
  5
4B62
 10
47.1413
 20
14.0733
 30
0.000000
  70
    32
  0
VERTEX
  8
241
  5
4B63
 10
47.1615
 20
13.9570
 30
0.000000
  70
    32
  0
VERTEX
  8
241
  5
4B64
 10
47.1898
 20
13.8416
 30
0.000000
  70
    32
  0
VERTEX
  8
241
  5
4B65
 10
47.2261
 20
13.7273
 30
0.000000
  70
    32
  0
VERTEX
  8
241
  5
4B66
 10
47.2703
 20
13.6144
 30
0.000000
  70
    32
  0
VERTEX
  8
241
  5
4B67
 10
47.3223
 20
13.5032
 30
0.000000
  70
    32
  0
VERTEX
  8
241
  5
4B68
 10
47.3819
 20
13.3939
 30
0.000000
  70
    32
  0
VERTEX
  8
241
  5
4B69
 10
47.4490
 20
13.2869
 30
0.000000
  70
    32
  0
VERTEX
  8
241
  5
4B6A
 10
47.5235
 20
13.1822
 30
0.000000
  70
    32
  0
VERTEX
  8
241
  5
4B6B
 10
47.6052
 20
13.0803
 30
0.000000
  70
    32
  0
VERTEX
  8
241
  5
4B6C
 10
47.6938
 20
12.9813
 30
0.000000
  70
    32
  0
VERTEX
  8
241
  5
4B6D
 10
47.7892
 20
12.8856
 30
0.000000
  70
    32
  0
VERTEX
  8
241
  5
4B6E
 10
47.8911
 20
12.7932
 30
0.000000
  70
    32
  0
VERTEX
  8
241
  5
4B6F
 10
47.9993
 20
12.7045
 30
0.000000
  70
    32
  0
VERTEX
  8
241
  5
4B70
 10
48.1135
 20
12.6197
 30
0.000000
  70
    32
  0
VERTEX
  8
241
  5
4B71
 10
48.2335
 20
12.5389
 30
0.000000
  70
    32
  0
VERTEX
  8
241
  5
4B72
 10
48.3589
 20
12.4624
 30
0.000000
  70
    32
  0
VERTEX
  8
241
  5
4B73
 10
48.4895
 20
12.3904
 30
0.000000
  70
    32
  0
VERTEX
  8
241
  5
4B74
 10
48.6250
 20
12.3229
 30
0.000000
  70
    32
  0
VERTEX
  8
241
  5
4B75
 10
48.7649
 20
12.2603
 30
0.000000
  70
    32
  0
VERTEX
  8
241
  5
4B76
 10
48.9090
 20
12.2025
 30
0.000000
  70
    32
  0
VERTEX
  8
241
  5
4B77
 10
49.0570
 20
12.1499
 30
0.000000
  70
    32
  0
VERTEX
  8
241
  5
4B78
 10
49.2084
 20
12.1024
 30
0.000000
  70
    32
  0
VERTEX
  8
241
  5
4B79
 10
49.3630
 20
12.0602
 30
0.000000
  70
    32
  0
VERTEX
  8
241
  5
4B7A
 10
49.5203
 20
12.0235
 30
0.000000
  70
    32
  0
VERTEX
  8
241
  5
4B7B
 10
49.6799
 20
11.9922
 30
0.000000
  70
    32
  0
VERTEX
  8
241
  5
4B7C
 10
49.8416
 20
11.9666
 30
0.000000
  70
    32
  0
VERTEX
  8
241
  5
4B7D
 10
50.0048
 20
11.9466
 30
0.000000
  70
    32
  0
VERTEX
  8
241
  5
4B7E
 10
50.1692
 20
11.9322
 30
0.000000
  70
    32
  0
VERTEX
  8
241
  5
4B7F
 10
50.3344
 20
11.9236
 30
0.000000
  70
    32
  0
VERTEX
  8
241
  5
4B80
 10
50.5000
 20
11.9207
 30
0.000000
  70
    32
  0
VERTEX
  8
241
  5
4B81
 10
50.6656
 20
11.9236
 30
0.000000
  70
    32
  0
VERTEX
  8
241
  5
4B82
 10
50.8308
 20
11.9322
 30
0.000000
  70
    32
  0
VERTEX
  8
241
  5
4B83
 10
50.9952
 20
11.9466
 30
0.000000
  70
    32
  0
VERTEX
  8
241
  5
4B84
 10
51.1584
 20
11.9666
 30
0.000000
  70
    32
  0
VERTEX
  8
241
  5
4B85
 10
51.3201
 20
11.9922
 30
0.000000
  70
    32
  0
VERTEX
  8
241
  5
4B86
 10
51.4797
 20
12.0235
 30
0.000000
  70
    32
  0
VERTEX
  8
241
  5
4B87
 10
51.6370
 20
12.0602
 30
0.000000
  70
    32
  0
VERTEX
  8
241
  5
4B88
 10
51.7916
 20
12.1024
 30
0.000000
  70
    32
  0
VERTEX
  8
241
  5
4B89
 10
51.9430
 20
12.1499
 30
0.000000
  70
    32
  0
VERTEX
  8
241
  5
4B8A
 10
52.0910
 20
12.2025
 30
0.000000
  70
    32
  0
VERTEX
  8
241
  5
4B8B
 10
52.2351
 20
12.2603
 30
0.000000
  70
    32
  0
VERTEX
  8
241
  5
4B8C
 10
52.3750
 20
12.3229
 30
0.000000
  70
    32
  0
VERTEX
  8
241
  5
4B8D
 10
52.5105
 20
12.3904
 30
0.000000
  70
    32
  0
VERTEX
  8
241
  5
4B8E
 10
52.6411
 20
12.4624
 30
0.000000
  70
    32
  0
VERTEX
  8
241
  5
4B8F
 10
52.7665
 20
12.5389
 30
0.000000
  70
    32
  0
VERTEX
  8
241
  5
4B90
 10
52.8865
 20
12.6197
 30
0.000000
  70
    32
  0
VERTEX
  8
241
  5
4B91
 10
53.0007
 20
12.7045
 30
0.000000
  70
    32
  0
VERTEX
  8
241
  5
4B92
 10
53.1089
 20
12.7932
 30
0.000000
  70
    32
  0
VERTEX
  8
241
  5
4B93
 10
53.2108
 20
12.8856
 30
0.000000
  70
    32
  0
VERTEX
  8
241
  5
4B94
 10
53.3062
 20
12.9813
 30
0.000000
  70
    32
  0
VERTEX
  8
241
  5
4B95
 10
53.3948
 20
13.0803
 30
0.000000
  70
    32
  0
VERTEX
  8
241
  5
4B96
 10
53.4765
 20
13.1822
 30
0.000000
  70
    32
  0
VERTEX
  8
241
  5
4B97
 10
53.5510
 20
13.2869
 30
0.000000
  70
    32
  0
VERTEX
  8
241
  5
4B98
 10
53.6181
 20
13.3939
 30
0.000000
  70
    32
  0
VERTEX
  8
241
  5
4B99
 10
53.6777
 20
13.5032
 30
0.000000
  70
    32
  0
VERTEX
  8
241
  5
4B9A
 10
53.7297
 20
13.6144
 30
0.000000
  70
    32
  0
VERTEX
  8
241
  5
4B9B
 10
53.7739
 20
13.7273
 30
0.000000
  70
    32
  0
VERTEX
  8
241
  5
4B9C
 10
53.8102
 20
13.8416
 30
0.000000
  70
    32
  0
VERTEX
  8
241
  5
4B9D
 10
53.8385
 20
13.9570
 30
0.000000
  70
    32
  0
VERTEX
  8
241
  5
4B9E
 10
53.8587
 20
14.0733
 30
0.000000
  70
    32
  0
VERTEX
  8
241
  5
4B9F
 10
53.8709
 20
14.1901
 30
0.000000
  70
    32
  0
VERTEX
  8
241
  5
4BA0
 10
53.8750
 20
14.3072
 30
0.000000
  70
    32
  0
VERTEX
  8
241
  5
4BA1
 10
53.8709
 20
14.4243
 30
0.000000
  70
    32
  0
VERTEX
  8
241
  5
4BA2
 10
53.8587
 20
14.5411
 30
0.000000
  70
    32
  0
VERTEX
  8
241
  5
4BA3
 10
53.8385
 20
14.6574
 30
0.000000
  70
    32
  0
VERTEX
  8
241
  5
4BA4
 10
53.8102
 20
14.7728
 30
0.000000
  70
    32
  0
VERTEX
  8
241
  5
4BA5
 10
53.7739
 20
14.8871
 30
0.000000
  70
    32
  0
VERTEX
  8
241
  5
4BA6
 10
53.7297
 20
15.0000
 30
0.000000
  70
    32
  0
VERTEX
  8
241
  5
4BA7
 10
53.6777
 20
15.1112
 30
0.000000
  70
    32
  0
VERTEX
  8
241
  5
4BA8
 10
53.6181
 20
15.2205
 30
0.000000
  70
    32
  0
VERTEX
  8
241
  5
4BA9
 10
53.5510
 20
15.3276
 30
0.000000
  70
    32
  0
VERTEX
  8
241
  5
4BAA
 10
53.4765
 20
15.4322
 30
0.000000
  70
    32
  0
VERTEX
  8
241
  5
4BAB
 10
53.3948
 20
15.5341
 30
0.000000
  70
    32
  0
VERTEX
  8
241
  5
4BAC
 10
53.3062
 20
15.6331
 30
0.000000
  70
    32
  0
VERTEX
  8
241
  5
4BAD
 10
53.2108
 20
15.7288
 30
0.000000
  70
    32
  0
VERTEX
  8
241
  5
4BAE
 10
53.1089
 20
15.8212
 30
0.000000
  70
    32
  0
VERTEX
  8
241
  5
4BAF
 10
53.0007
 20
15.9099
 30
0.000000
  70
    32
  0
VERTEX
  8
241
  5
4BB0
 10
52.8865
 20
15.9947
 30
0.000000
  70
    32
  0
VERTEX
  8
241
  5
4BB1
 10
52.7665
 20
16.0755
 30
0.000000
  70
    32
  0
VERTEX
  8
241
  5
4BB2
 10
52.6411
 20
16.1520
 30
0.000000
  70
    32
  0
VERTEX
  8
241
  5
4BB3
 10
52.5105
 20
16.2241
 30
0.000000
  70
    32
  0
VERTEX
  8
241
  5
4BB4
 10
52.3750
 20
16.2915
 30
0.000000
  70
    32
  0
VERTEX
  8
241
  5
4BB5
 10
52.2351
 20
16.3542
 30
0.000000
  70
    32
  0
VERTEX
  8
241
  5
4BB6
 10
52.0910
 20
16.4119
 30
0.000000
  70
    32
  0
VERTEX
  8
241
  5
4BB7
 10
51.9430
 20
16.4646
 30
0.000000
  70
    32
  0
VERTEX
  8
241
  5
4BB8
 10
51.7916
 20
16.5120
 30
0.000000
  70
    32
  0
VERTEX
  8
241
  5
4BB9
 10
51.6370
 20
16.5542
 30
0.000000
  70
    32
  0
VERTEX
  8
241
  5
4BBA
 10
51.4797
 20
16.5909
 30
0.000000
  70
    32
  0
VERTEX
  8
241
  5
4BBB
 10
51.3201
 20
16.6222
 30
0.000000
  70
    32
  0
VERTEX
  8
241
  5
4BBC
 10
51.1584
 20
16.6478
 30
0.000000
  70
    32
  0
VERTEX
  8
241
  5
4BBD
 10
50.9952
 20
16.6679
 30
0.000000
  70
    32
  0
VERTEX
  8
241
  5
4BBE
 10
50.8308
 20
16.6822
 30
0.000000
  70
    32
  0
VERTEX
  8
241
  5
4BBF
 10
50.6656
 20
16.6908
 30
0.000000
  70
    32
  0
VERTEX
  8
241
  5
4BC0
 10
50.5000
 20
16.6937
 30
0.000000
  70
    32
  0
VERTEX
  8
241
  5
4BC1
 10
50.3344
 20
16.6908
 30
0.000000
  70
    32
  0
VERTEX
  8
241
  5
4BC2
 10
50.1692
 20
16.6822
 30
0.000000
  70
    32
  0
VERTEX
  8
241
  5
4BC3
 10
50.0048
 20
16.6679
 30
0.000000
  70
    32
  0
VERTEX
  8
241
  5
4BC4
 10
49.8416
 20
16.6478
 30
0.000000
  70
    32
  0
VERTEX
  8
241
  5
4BC5
 10
49.6799
 20
16.6222
 30
0.000000
  70
    32
  0
VERTEX
  8
241
  5
4BC6
 10
49.5203
 20
16.5909
 30
0.000000
  70
    32
  0
VERTEX
  8
241
  5
4BC7
 10
49.3630
 20
16.5542
 30
0.000000
  70
    32
  0
VERTEX
  8
241
  5
4BC8
 10
49.2084
 20
16.5120
 30
0.000000
  70
    32
  0
VERTEX
  8
241
  5
4BC9
 10
49.0570
 20
16.4646
 30
0.000000
  70
    32
  0
VERTEX
  8
241
  5
4BCA
 10
48.9090
 20
16.4119
 30
0.000000
  70
    32
  0
VERTEX
  8
241
  5
4BCB
 10
48.7649
 20
16.3542
 30
0.000000
  70
    32
  0
VERTEX
  8
241
  5
4BCC
 10
48.6250
 20
16.2915
 30
0.000000
  70
    32
  0
VERTEX
  8
241
  5
4BCD
 10
48.4895
 20
16.2241
 30
0.000000
  70
    32
  0
VERTEX
  8
241
  5
4BCE
 10
48.3589
 20
16.1520
 30
0.000000
  70
    32
  0
VERTEX
  8
241
  5
4BCF
 10
48.2335
 20
16.0755
 30
0.000000
  70
    32
  0
VERTEX
  8
241
  5
4BD0
 10
48.1135
 20
15.9947
 30
0.000000
  70
    32
  0
VERTEX
  8
241
  5
4BD1
 10
47.9993
 20
15.9099
 30
0.000000
  70
    32
  0
VERTEX
  8
241
  5
4BD2
 10
47.8911
 20
15.8212
 30
0.000000
  70
    32
  0
VERTEX
  8
241
  5
4BD3
 10
47.7892
 20
15.7288
 30
0.000000
  70
    32
  0
VERTEX
  8
241
  5
4BD4
 10
47.6938
 20
15.6331
 30
0.000000
  70
    32
  0
VERTEX
  8
241
  5
4BD5
 10
47.6052
 20
15.5341
 30
0.000000
  70
    32
  0
VERTEX
  8
241
  5
4BD6
 10
47.5235
 20
15.4322
 30
0.000000
  70
    32
  0
VERTEX
  8
241
  5
4BD7
 10
47.4490
 20
15.3276
 30
0.000000
  70
    32
  0
VERTEX
  8
241
  5
4BD8
 10
47.3819
 20
15.2205
 30
0.000000
  70
    32
  0
VERTEX
  8
241
  5
4BD9
 10
47.3223
 20
15.1112
 30
0.000000
  70
    32
  0
VERTEX
  8
241
  5
4BDA
 10
47.2703
 20
15.0000
 30
0.000000
  70
    32
  0
VERTEX
  8
241
  5
4BDB
 10
47.2261
 20
14.8871
 30
0.000000
  70
    32
  0
VERTEX
  8
241
  5
4BDC
 10
47.1898
 20
14.7728
 30
0.000000
  70
    32
  0
VERTEX
  8
241
  5
4BDD
 10
47.1615
 20
14.6574
 30
0.000000
  70
    32
  0
VERTEX
  8
241
  5
4BDE
 10
47.1413
 20
14.5411
 30
0.000000
  70
    32
  0
VERTEX
  8
241
  5
4BDF
 10
47.1291
 20
14.4243
 30
0.000000
  70
    32
  0
VERTEX
  8
241
  5
4BE0
 10
47.1250
 20
14.3072
 30
0.000000
  70
    32
  0
SEQEND
  8
241
  5
4BE1
  0
POLYLINE
  5
47AE
  8
242
  6
CONTINUOUS
 10
46.50000000000481
 20
14.26873588441469
 30
0.0
 66
     1
 70
     8
  0
VERTEX
  8
242
  5
4BE2
 10
46.5000
 20
14.2687
 30
0.000000
  70
    32
  0
VERTEX
  8
242
  5
4BE3
 10
46.5048
 20
14.1281
 30
0.000000
  70
    32
  0
VERTEX
  8
242
  5
4BE4
 10
46.5193
 20
13.9877
 30
0.000000
  70
    32
  0
VERTEX
  8
242
  5
4BE5
 10
46.5433
 20
13.8481
 30
0.000000
  70
    32
  0
VERTEX
  8
242
  5
4BE6
 10
46.5769
 20
13.7094
 30
0.000000
  70
    32
  0
VERTEX
  8
242
  5
4BE7
 10
46.6199
 20
13.5721
 30
0.000000
  70
    32
  0
VERTEX
  8
242
  5
4BE8
 10
46.6722
 20
13.4365
 30
0.000000
  70
    32
  0
VERTEX
  8
242
  5
4BE9
 10
46.7338
 20
13.3029
 30
0.000000
  70
    32
  0
VERTEX
  8
242
  5
4BEA
 10
46.8045
 20
13.1716
 30
0.000000
  70
    32
  0
VERTEX
  8
242
  5
4BEB
 10
46.8840
 20
13.0430
 30
0.000000
  70
    32
  0
VERTEX
  8
242
  5
4BEC
 10
46.9723
 20
12.9173
 30
0.000000
  70
    32
  0
VERTEX
  8
242
  5
4BED
 10
47.0691
 20
12.7949
 30
0.000000
  70
    32
  0
VERTEX
  8
242
  5
4BEE
 10
47.1741
 20
12.6760
 30
0.000000
  70
    32
  0
VERTEX
  8
242
  5
4BEF
 10
47.2872
 20
12.5609
 30
0.000000
  70
    32
  0
VERTEX
  8
242
  5
4BF0
 10
47.4080
 20
12.4500
 30
0.000000
  70
    32
  0
VERTEX
  8
242
  5
4BF1
 10
47.5362
 20
12.3434
 30
0.000000
  70
    32
  0
VERTEX
  8
242
  5
4BF2
 10
47.6716
 20
12.2415
 30
0.000000
  70
    32
  0
VERTEX
  8
242
  5
4BF3
 10
47.8138
 20
12.1445
 30
0.000000
  70
    32
  0
VERTEX
  8
242
  5
4BF4
 10
47.9624
 20
12.0526
 30
0.000000
  70
    32
  0
VERTEX
  8
242
  5
4BF5
 10
48.1172
 20
11.9660
 30
0.000000
  70
    32
  0
VERTEX
  8
242
  5
4BF6
 10
48.2777
 20
11.8850
 30
0.000000
  70
    32
  0
VERTEX
  8
242
  5
4BF7
 10
48.4436
 20
11.8097
 30
0.000000
  70
    32
  0
VERTEX
  8
242
  5
4BF8
 10
48.6144
 20
11.7404
 30
0.000000
  70
    32
  0
VERTEX
  8
242
  5
4BF9
 10
48.7898
 20
11.6771
 30
0.000000
  70
    32
  0
VERTEX
  8
242
  5
4BFA
 10
48.9693
 20
11.6201
 30
0.000000
  70
    32
  0
VERTEX
  8
242
  5
4BFB
 10
49.1524
 20
11.5694
 30
0.000000
  70
    32
  0
VERTEX
  8
242
  5
4BFC
 10
49.3389
 20
11.5253
 30
0.000000
  70
    32
  0
VERTEX
  8
242
  5
4BFD
 10
49.5281
 20
11.4878
 30
0.000000
  70
    32
  0
VERTEX
  8
242
  5
4BFE
 10
49.7196
 20
11.4569
 30
0.000000
  70
    32
  0
VERTEX
  8
242
  5
4BFF
 10
49.9131
 20
11.4329
 30
0.000000
  70
    32
  0
VERTEX
  8
242
  5
4C00
 10
50.1079
 20
11.4156
 30
0.000000
  70
    32
  0
VERTEX
  8
242
  5
4C01
 10
50.3037
 20
11.4053
 30
0.000000
  70
    32
  0
VERTEX
  8
242
  5
4C02
 10
50.5000
 20
11.4018
 30
0.000000
  70
    32
  0
VERTEX
  8
242
  5
4C03
 10
50.6963
 20
11.4053
 30
0.000000
  70
    32
  0
VERTEX
  8
242
  5
4C04
 10
50.8921
 20
11.4156
 30
0.000000
  70
    32
  0
VERTEX
  8
242
  5
4C05
 10
51.0869
 20
11.4329
 30
0.000000
  70
    32
  0
VERTEX
  8
242
  5
4C06
 10
51.2804
 20
11.4569
 30
0.000000
  70
    32
  0
VERTEX
  8
242
  5
4C07
 10
51.4719
 20
11.4878
 30
0.000000
  70
    32
  0
VERTEX
  8
242
  5
4C08
 10
51.6611
 20
11.5253
 30
0.000000
  70
    32
  0
VERTEX
  8
242
  5
4C09
 10
51.8476
 20
11.5694
 30
0.000000
  70
    32
  0
VERTEX
  8
242
  5
4C0A
 10
52.0307
 20
11.6201
 30
0.000000
  70
    32
  0
VERTEX
  8
242
  5
4C0B
 10
52.2102
 20
11.6771
 30
0.000000
  70
    32
  0
VERTEX
  8
242
  5
4C0C
 10
52.3856
 20
11.7404
 30
0.000000
  70
    32
  0
VERTEX
  8
242
  5
4C0D
 10
52.5564
 20
11.8097
 30
0.000000
  70
    32
  0
VERTEX
  8
242
  5
4C0E
 10
52.7223
 20
11.8850
 30
0.000000
  70
    32
  0
VERTEX
  8
242
  5
4C0F
 10
52.8828
 20
11.9660
 30
0.000000
  70
    32
  0
VERTEX
  8
242
  5
4C10
 10
53.0376
 20
12.0526
 30
0.000000
  70
    32
  0
VERTEX
  8
242
  5
4C11
 10
53.1862
 20
12.1445
 30
0.000000
  70
    32
  0
VERTEX
  8
242
  5
4C12
 10
53.3284
 20
12.2415
 30
0.000000
  70
    32
  0
VERTEX
  8
242
  5
4C13
 10
53.4638
 20
12.3434
 30
0.000000
  70
    32
  0
VERTEX
  8
242
  5
4C14
 10
53.5920
 20
12.4500
 30
0.000000
  70
    32
  0
VERTEX
  8
242
  5
4C15
 10
53.7128
 20
12.5609
 30
0.000000
  70
    32
  0
VERTEX
  8
242
  5
4C16
 10
53.8259
 20
12.6760
 30
0.000000
  70
    32
  0
VERTEX
  8
242
  5
4C17
 10
53.9309
 20
12.7949
 30
0.000000
  70
    32
  0
VERTEX
  8
242
  5
4C18
 10
54.0277
 20
12.9173
 30
0.000000
  70
    32
  0
VERTEX
  8
242
  5
4C19
 10
54.1160
 20
13.0430
 30
0.000000
  70
    32
  0
VERTEX
  8
242
  5
4C1A
 10
54.1955
 20
13.1716
 30
0.000000
  70
    32
  0
VERTEX
  8
242
  5
4C1B
 10
54.2662
 20
13.3029
 30
0.000000
  70
    32
  0
VERTEX
  8
242
  5
4C1C
 10
54.3278
 20
13.4365
 30
0.000000
  70
    32
  0
VERTEX
  8
242
  5
4C1D
 10
54.3801
 20
13.5721
 30
0.000000
  70
    32
  0
VERTEX
  8
242
  5
4C1E
 10
54.4231
 20
13.7094
 30
0.000000
  70
    32
  0
VERTEX
  8
242
  5
4C1F
 10
54.4567
 20
13.8481
 30
0.000000
  70
    32
  0
VERTEX
  8
242
  5
4C20
 10
54.4807
 20
13.9877
 30
0.000000
  70
    32
  0
VERTEX
  8
242
  5
4C21
 10
54.4952
 20
14.1281
 30
0.000000
  70
    32
  0
VERTEX
  8
242
  5
4C22
 10
54.5000
 20
14.2687
 30
0.000000
  70
    32
  0
VERTEX
  8
242
  5
4C23
 10
54.4952
 20
14.4094
 30
0.000000
  70
    32
  0
VERTEX
  8
242
  5
4C24
 10
54.4807
 20
14.5497
 30
0.000000
  70
    32
  0
VERTEX
  8
242
  5
4C25
 10
54.4567
 20
14.6894
 30
0.000000
  70
    32
  0
VERTEX
  8
242
  5
4C26
 10
54.4231
 20
14.8280
 30
0.000000
  70
    32
  0
VERTEX
  8
242
  5
4C27
 10
54.3801
 20
14.9653
 30
0.000000
  70
    32
  0
VERTEX
  8
242
  5
4C28
 10
54.3278
 20
15.1010
 30
0.000000
  70
    32
  0
VERTEX
  8
242
  5
4C29
 10
54.2662
 20
15.2346
 30
0.000000
  70
    32
  0
VERTEX
  8
242
  5
4C2A
 10
54.1955
 20
15.3659
 30
0.000000
  70
    32
  0
VERTEX
  8
242
  5
4C2B
 10
54.1160
 20
15.4945
 30
0.000000
  70
    32
  0
VERTEX
  8
242
  5
4C2C
 10
54.0277
 20
15.6202
 30
0.000000
  70
    32
  0
VERTEX
  8
242
  5
4C2D
 10
53.9309
 20
15.7426
 30
0.000000
  70
    32
  0
VERTEX
  8
242
  5
4C2E
 10
53.8259
 20
15.8615
 30
0.000000
  70
    32
  0
VERTEX
  8
242
  5
4C2F
 10
53.7128
 20
15.9765
 30
0.000000
  70
    32
  0
VERTEX
  8
242
  5
4C30
 10
53.5920
 20
16.0875
 30
0.000000
  70
    32
  0
VERTEX
  8
242
  5
4C31
 10
53.4638
 20
16.1940
 30
0.000000
  70
    32
  0
VERTEX
  8
242
  5
4C32
 10
53.3284
 20
16.2959
 30
0.000000
  70
    32
  0
VERTEX
  8
242
  5
4C33
 10
53.1862
 20
16.3930
 30
0.000000
  70
    32
  0
VERTEX
  8
242
  5
4C34
 10
53.0376
 20
16.4849
 30
0.000000
  70
    32
  0
VERTEX
  8
242
  5
4C35
 10
52.8828
 20
16.5715
 30
0.000000
  70
    32
  0
VERTEX
  8
242
  5
4C36
 10
52.7223
 20
16.6525
 30
0.000000
  70
    32
  0
VERTEX
  8
242
  5
4C37
 10
52.5564
 20
16.7278
 30
0.000000
  70
    32
  0
VERTEX
  8
242
  5
4C38
 10
52.3856
 20
16.7971
 30
0.000000
  70
    32
  0
VERTEX
  8
242
  5
4C39
 10
52.2102
 20
16.8604
 30
0.000000
  70
    32
  0
VERTEX
  8
242
  5
4C3A
 10
52.0307
 20
16.9174
 30
0.000000
  70
    32
  0
VERTEX
  8
242
  5
4C3B
 10
51.8476
 20
16.9680
 30
0.000000
  70
    32
  0
VERTEX
  8
242
  5
4C3C
 10
51.6611
 20
17.0122
 30
0.000000
  70
    32
  0
VERTEX
  8
242
  5
4C3D
 10
51.4719
 20
17.0497
 30
0.000000
  70
    32
  0
VERTEX
  8
242
  5
4C3E
 10
51.2804
 20
17.0805
 30
0.000000
  70
    32
  0
VERTEX
  8
242
  5
4C3F
 10
51.0869
 20
17.1046
 30
0.000000
  70
    32
  0
VERTEX
  8
242
  5
4C40
 10
50.8921
 20
17.1218
 30
0.000000
  70
    32
  0
VERTEX
  8
242
  5
4C41
 10
50.6963
 20
17.1322
 30
0.000000
  70
    32
  0
VERTEX
  8
242
  5
4C42
 10
50.5000
 20
17.1356
 30
0.000000
  70
    32
  0
VERTEX
  8
242
  5
4C43
 10
50.3037
 20
17.1322
 30
0.000000
  70
    32
  0
VERTEX
  8
242
  5
4C44
 10
50.1079
 20
17.1218
 30
0.000000
  70
    32
  0
VERTEX
  8
242
  5
4C45
 10
49.9131
 20
17.1046
 30
0.000000
  70
    32
  0
VERTEX
  8
242
  5
4C46
 10
49.7196
 20
17.0805
 30
0.000000
  70
    32
  0
VERTEX
  8
242
  5
4C47
 10
49.5281
 20
17.0497
 30
0.000000
  70
    32
  0
VERTEX
  8
242
  5
4C48
 10
49.3389
 20
17.0122
 30
0.000000
  70
    32
  0
VERTEX
  8
242
  5
4C49
 10
49.1524
 20
16.9680
 30
0.000000
  70
    32
  0
VERTEX
  8
242
  5
4C4A
 10
48.9693
 20
16.9174
 30
0.000000
  70
    32
  0
VERTEX
  8
242
  5
4C4B
 10
48.7898
 20
16.8604
 30
0.000000
  70
    32
  0
VERTEX
  8
242
  5
4C4C
 10
48.6144
 20
16.7971
 30
0.000000
  70
    32
  0
VERTEX
  8
242
  5
4C4D
 10
48.4436
 20
16.7278
 30
0.000000
  70
    32
  0
VERTEX
  8
242
  5
4C4E
 10
48.2777
 20
16.6525
 30
0.000000
  70
    32
  0
VERTEX
  8
242
  5
4C4F
 10
48.1172
 20
16.5715
 30
0.000000
  70
    32
  0
VERTEX
  8
242
  5
4C50
 10
47.9624
 20
16.4849
 30
0.000000
  70
    32
  0
VERTEX
  8
242
  5
4C51
 10
47.8138
 20
16.3930
 30
0.000000
  70
    32
  0
VERTEX
  8
242
  5
4C52
 10
47.6716
 20
16.2959
 30
0.000000
  70
    32
  0
VERTEX
  8
242
  5
4C53
 10
47.5362
 20
16.1940
 30
0.000000
  70
    32
  0
VERTEX
  8
242
  5
4C54
 10
47.4080
 20
16.0875
 30
0.000000
  70
    32
  0
VERTEX
  8
242
  5
4C55
 10
47.2872
 20
15.9765
 30
0.000000
  70
    32
  0
VERTEX
  8
242
  5
4C56
 10
47.1741
 20
15.8615
 30
0.000000
  70
    32
  0
VERTEX
  8
242
  5
4C57
 10
47.0691
 20
15.7426
 30
0.000000
  70
    32
  0
VERTEX
  8
242
  5
4C58
 10
46.9723
 20
15.6202
 30
0.000000
  70
    32
  0
VERTEX
  8
242
  5
4C59
 10
46.8840
 20
15.4945
 30
0.000000
  70
    32
  0
VERTEX
  8
242
  5
4C5A
 10
46.8045
 20
15.3659
 30
0.000000
  70
    32
  0
VERTEX
  8
242
  5
4C5B
 10
46.7338
 20
15.2346
 30
0.000000
  70
    32
  0
VERTEX
  8
242
  5
4C5C
 10
46.6722
 20
15.1010
 30
0.000000
  70
    32
  0
VERTEX
  8
242
  5
4C5D
 10
46.6199
 20
14.9653
 30
0.000000
  70
    32
  0
VERTEX
  8
242
  5
4C5E
 10
46.5769
 20
14.8280
 30
0.000000
  70
    32
  0
VERTEX
  8
242
  5
4C5F
 10
46.5433
 20
14.6894
 30
0.000000
  70
    32
  0
VERTEX
  8
242
  5
4C60
 10
46.5193
 20
14.5497
 30
0.000000
  70
    32
  0
VERTEX
  8
242
  5
4C61
 10
46.5048
 20
14.4094
 30
0.000000
  70
    32
  0
VERTEX
  8
242
  5
4C62
 10
46.5000
 20
14.2687
 30
0.000000
  70
    32
  0
SEQEND
  8
242
  5
4C63
  0
LINE
  5
47AF
  8
245
  6
CENTER2
 10
45.375274146277057
 20
14.495689014286031
 30
0.0
 11
55.185811260878701
 21
14.495689014286031
 31
0.0
  0
LINE
  5
47B0
  8
245
  6
CENTER2
 10
50.500000000004412
 20
18.090823110613599
 30
0.0
 11
50.500000000004462
 21
9.9100924036012543
 31
0.0
  0
LINE
  5
47B2
  8
240
  6
CONTINUOUS
 10
63.499999999995602
 20
20.499999999998799
 30
0.0
 11
63.500000000006722
 21
-20.499999999999041
 31
0.0
  0
LINE
  5
47B3
  8
241
  6
CONTINUOUS
 10
59.029000000008381
 20
20.499999999999972
 30
0.0
 11
59.029000000006732
 21
-20.50000000000259
 31
0.0
  0
LINE
  5
47B4
  8
241
  6
CONTINUOUS
 10
57.970699475587963
 20
20.499999999999972
 30
0.0
 11
57.970699475587907
 21
-20.500000000002469
 31
0.0
  0
LINE
  5
47B5
  8
240
  6
CONTINUOUS
 10
0.0000000000010242
 20
26.999999999994539
 30
0.0
 11
1.5430709124914099
 21
21.241180954897541
 31
0.0
  0
LINE
  5
47B6
  8
240
  6
CONTINUOUS
 10
0.0000000000015434
 20
-26.999999999994539
 30
0.0
 11
1.543070912491628
 21
-21.241180954896791
 31
0.0
  0
POLYLINE
  5
47B7
  8
242
  6
CONTINUOUS
 10
46.50000000000481
 20
-14.268735884414689
 30
0.0
 66
     1
 70
     8
  0
VERTEX
  8
242
  5
4C64
 10
46.5000
 20
-14.2687
 30
0.000000
  70
    32
  0
VERTEX
  8
242
  5
4C65
 10
46.5048
 20
-14.1281
 30
0.000000
  70
    32
  0
VERTEX
  8
242
  5
4C66
 10
46.5193
 20
-13.9877
 30
0.000000
  70
    32
  0
VERTEX
  8
242
  5
4C67
 10
46.5433
 20
-13.8481
 30
0.000000
  70
    32
  0
VERTEX
  8
242
  5
4C68
 10
46.5769
 20
-13.7094
 30
0.000000
  70
    32
  0
VERTEX
  8
242
  5
4C69
 10
46.6199
 20
-13.5721
 30
0.000000
  70
    32
  0
VERTEX
  8
242
  5
4C6A
 10
46.6722
 20
-13.4365
 30
0.000000
  70
    32
  0
VERTEX
  8
242
  5
4C6B
 10
46.7338
 20
-13.3029
 30
0.000000
  70
    32
  0
VERTEX
  8
242
  5
4C6C
 10
46.8045
 20
-13.1716
 30
0.000000
  70
    32
  0
VERTEX
  8
242
  5
4C6D
 10
46.8840
 20
-13.0430
 30
0.000000
  70
    32
  0
VERTEX
  8
242
  5
4C6E
 10
46.9723
 20
-12.9173
 30
0.000000
  70
    32
  0
VERTEX
  8
242
  5
4C6F
 10
47.0691
 20
-12.7949
 30
0.000000
  70
    32
  0
VERTEX
  8
242
  5
4C70
 10
47.1741
 20
-12.6760
 30
0.000000
  70
    32
  0
VERTEX
  8
242
  5
4C71
 10
47.2872
 20
-12.5609
 30
0.000000
  70
    32
  0
VERTEX
  8
242
  5
4C72
 10
47.4080
 20
-12.4500
 30
0.000000
  70
    32
  0
VERTEX
  8
242
  5
4C73
 10
47.5362
 20
-12.3434
 30
0.000000
  70
    32
  0
VERTEX
  8
242
  5
4C74
 10
47.6716
 20
-12.2415
 30
0.000000
  70
    32
  0
VERTEX
  8
242
  5
4C75
 10
47.8138
 20
-12.1445
 30
0.000000
  70
    32
  0
VERTEX
  8
242
  5
4C76
 10
47.9624
 20
-12.0526
 30
0.000000
  70
    32
  0
VERTEX
  8
242
  5
4C77
 10
48.1172
 20
-11.9660
 30
0.000000
  70
    32
  0
VERTEX
  8
242
  5
4C78
 10
48.2777
 20
-11.8850
 30
0.000000
  70
    32
  0
VERTEX
  8
242
  5
4C79
 10
48.4436
 20
-11.8097
 30
0.000000
  70
    32
  0
VERTEX
  8
242
  5
4C7A
 10
48.6144
 20
-11.7404
 30
0.000000
  70
    32
  0
VERTEX
  8
242
  5
4C7B
 10
48.7898
 20
-11.6771
 30
0.000000
  70
    32
  0
VERTEX
  8
242
  5
4C7C
 10
48.9693
 20
-11.6201
 30
0.000000
  70
    32
  0
VERTEX
  8
242
  5
4C7D
 10
49.1524
 20
-11.5694
 30
0.000000
  70
    32
  0
VERTEX
  8
242
  5
4C7E
 10
49.3389
 20
-11.5253
 30
0.000000
  70
    32
  0
VERTEX
  8
242
  5
4C7F
 10
49.5281
 20
-11.4878
 30
0.000000
  70
    32
  0
VERTEX
  8
242
  5
4C80
 10
49.7196
 20
-11.4569
 30
0.000000
  70
    32
  0
VERTEX
  8
242
  5
4C81
 10
49.9131
 20
-11.4329
 30
0.000000
  70
    32
  0
VERTEX
  8
242
  5
4C82
 10
50.1079
 20
-11.4156
 30
0.000000
  70
    32
  0
VERTEX
  8
242
  5
4C83
 10
50.3037
 20
-11.4053
 30
0.000000
  70
    32
  0
VERTEX
  8
242
  5
4C84
 10
50.5000
 20
-11.4018
 30
0.000000
  70
    32
  0
VERTEX
  8
242
  5
4C85
 10
50.6963
 20
-11.4053
 30
0.000000
  70
    32
  0
VERTEX
  8
242
  5
4C86
 10
50.8921
 20
-11.4156
 30
0.000000
  70
    32
  0
VERTEX
  8
242
  5
4C87
 10
51.0869
 20
-11.4329
 30
0.000000
  70
    32
  0
VERTEX
  8
242
  5
4C88
 10
51.2804
 20
-11.4569
 30
0.000000
  70
    32
  0
VERTEX
  8
242
  5
4C89
 10
51.4719
 20
-11.4878
 30
0.000000
  70
    32
  0
VERTEX
  8
242
  5
4C8A
 10
51.6611
 20
-11.5253
 30
0.000000
  70
    32
  0
VERTEX
  8
242
  5
4C8B
 10
51.8476
 20
-11.5694
 30
0.000000
  70
    32
  0
VERTEX
  8
242
  5
4C8C
 10
52.0307
 20
-11.6201
 30
0.000000
  70
    32
  0
VERTEX
  8
242
  5
4C8D
 10
52.2102
 20
-11.6771
 30
0.000000
  70
    32
  0
VERTEX
  8
242
  5
4C8E
 10
52.3856
 20
-11.7404
 30
0.000000
  70
    32
  0
VERTEX
  8
242
  5
4C8F
 10
52.5564
 20
-11.8097
 30
0.000000
  70
    32
  0
VERTEX
  8
242
  5
4C90
 10
52.7223
 20
-11.8850
 30
0.000000
  70
    32
  0
VERTEX
  8
242
  5
4C91
 10
52.8828
 20
-11.9660
 30
0.000000
  70
    32
  0
VERTEX
  8
242
  5
4C92
 10
53.0376
 20
-12.0526
 30
0.000000
  70
    32
  0
VERTEX
  8
242
  5
4C93
 10
53.1862
 20
-12.1445
 30
0.000000
  70
    32
  0
VERTEX
  8
242
  5
4C94
 10
53.3284
 20
-12.2415
 30
0.000000
  70
    32
  0
VERTEX
  8
242
  5
4C95
 10
53.4638
 20
-12.3434
 30
0.000000
  70
    32
  0
VERTEX
  8
242
  5
4C96
 10
53.5920
 20
-12.4500
 30
0.000000
  70
    32
  0
VERTEX
  8
242
  5
4C97
 10
53.7128
 20
-12.5609
 30
0.000000
  70
    32
  0
VERTEX
  8
242
  5
4C98
 10
53.8259
 20
-12.6760
 30
0.000000
  70
    32
  0
VERTEX
  8
242
  5
4C99
 10
53.9309
 20
-12.7949
 30
0.000000
  70
    32
  0
VERTEX
  8
242
  5
4C9A
 10
54.0277
 20
-12.9173
 30
0.000000
  70
    32
  0
VERTEX
  8
242
  5
4C9B
 10
54.1160
 20
-13.0430
 30
0.000000
  70
    32
  0
VERTEX
  8
242
  5
4C9C
 10
54.1955
 20
-13.1716
 30
0.000000
  70
    32
  0
VERTEX
  8
242
  5
4C9D
 10
54.2662
 20
-13.3029
 30
0.000000
  70
    32
  0
VERTEX
  8
242
  5
4C9E
 10
54.3278
 20
-13.4365
 30
0.000000
  70
    32
  0
VERTEX
  8
242
  5
4C9F
 10
54.3801
 20
-13.5721
 30
0.000000
  70
    32
  0
VERTEX
  8
242
  5
4CA0
 10
54.4231
 20
-13.7094
 30
0.000000
  70
    32
  0
VERTEX
  8
242
  5
4CA1
 10
54.4567
 20
-13.8481
 30
0.000000
  70
    32
  0
VERTEX
  8
242
  5
4CA2
 10
54.4807
 20
-13.9877
 30
0.000000
  70
    32
  0
VERTEX
  8
242
  5
4CA3
 10
54.4952
 20
-14.1281
 30
0.000000
  70
    32
  0
VERTEX
  8
242
  5
4CA4
 10
54.5000
 20
-14.2687
 30
0.000000
  70
    32
  0
VERTEX
  8
242
  5
4CA5
 10
54.4952
 20
-14.4094
 30
0.000000
  70
    32
  0
VERTEX
  8
242
  5
4CA6
 10
54.4807
 20
-14.5497
 30
0.000000
  70
    32
  0
VERTEX
  8
242
  5
4CA7
 10
54.4567
 20
-14.6894
 30
0.000000
  70
    32
  0
VERTEX
  8
242
  5
4CA8
 10
54.4231
 20
-14.8280
 30
0.000000
  70
    32
  0
VERTEX
  8
242
  5
4CA9
 10
54.3801
 20
-14.9653
 30
0.000000
  70
    32
  0
VERTEX
  8
242
  5
4CAA
 10
54.3278
 20
-15.1010
 30
0.000000
  70
    32
  0
VERTEX
  8
242
  5
4CAB
 10
54.2662
 20
-15.2346
 30
0.000000
  70
    32
  0
VERTEX
  8
242
  5
4CAC
 10
54.1955
 20
-15.3659
 30
0.000000
  70
    32
  0
VERTEX
  8
242
  5
4CAD
 10
54.1160
 20
-15.4945
 30
0.000000
  70
    32
  0
VERTEX
  8
242
  5
4CAE
 10
54.0277
 20
-15.6202
 30
0.000000
  70
    32
  0
VERTEX
  8
242
  5
4CAF
 10
53.9309
 20
-15.7426
 30
0.000000
  70
    32
  0
VERTEX
  8
242
  5
4CB0
 10
53.8259
 20
-15.8615
 30
0.000000
  70
    32
  0
VERTEX
  8
242
  5
4CB1
 10
53.7128
 20
-15.9765
 30
0.000000
  70
    32
  0
VERTEX
  8
242
  5
4CB2
 10
53.5920
 20
-16.0875
 30
0.000000
  70
    32
  0
VERTEX
  8
242
  5
4CB3
 10
53.4638
 20
-16.1940
 30
0.000000
  70
    32
  0
VERTEX
  8
242
  5
4CB4
 10
53.3284
 20
-16.2959
 30
0.000000
  70
    32
  0
VERTEX
  8
242
  5
4CB5
 10
53.1862
 20
-16.3930
 30
0.000000
  70
    32
  0
VERTEX
  8
242
  5
4CB6
 10
53.0376
 20
-16.4849
 30
0.000000
  70
    32
  0
VERTEX
  8
242
  5
4CB7
 10
52.8828
 20
-16.5715
 30
0.000000
  70
    32
  0
VERTEX
  8
242
  5
4CB8
 10
52.7223
 20
-16.6525
 30
0.000000
  70
    32
  0
VERTEX
  8
242
  5
4CB9
 10
52.5564
 20
-16.7278
 30
0.000000
  70
    32
  0
VERTEX
  8
242
  5
4CBA
 10
52.3856
 20
-16.7971
 30
0.000000
  70
    32
  0
VERTEX
  8
242
  5
4CBB
 10
52.2102
 20
-16.8604
 30
0.000000
  70
    32
  0
VERTEX
  8
242
  5
4CBC
 10
52.0307
 20
-16.9174
 30
0.000000
  70
    32
  0
VERTEX
  8
242
  5
4CBD
 10
51.8476
 20
-16.9680
 30
0.000000
  70
    32
  0
VERTEX
  8
242
  5
4CBE
 10
51.6611
 20
-17.0122
 30
0.000000
  70
    32
  0
VERTEX
  8
242
  5
4CBF
 10
51.4719
 20
-17.0497
 30
0.000000
  70
    32
  0
VERTEX
  8
242
  5
4CC0
 10
51.2804
 20
-17.0805
 30
0.000000
  70
    32
  0
VERTEX
  8
242
  5
4CC1
 10
51.0869
 20
-17.1046
 30
0.000000
  70
    32
  0
VERTEX
  8
242
  5
4CC2
 10
50.8921
 20
-17.1218
 30
0.000000
  70
    32
  0
VERTEX
  8
242
  5
4CC3
 10
50.6963
 20
-17.1322
 30
0.000000
  70
    32
  0
VERTEX
  8
242
  5
4CC4
 10
50.5000
 20
-17.1356
 30
0.000000
  70
    32
  0
VERTEX
  8
242
  5
4CC5
 10
50.3037
 20
-17.1322
 30
0.000000
  70
    32
  0
VERTEX
  8
242
  5
4CC6
 10
50.1079
 20
-17.1218
 30
0.000000
  70
    32
  0
VERTEX
  8
242
  5
4CC7
 10
49.9131
 20
-17.1046
 30
0.000000
  70
    32
  0
VERTEX
  8
242
  5
4CC8
 10
49.7196
 20
-17.0805
 30
0.000000
  70
    32
  0
VERTEX
  8
242
  5
4CC9
 10
49.5281
 20
-17.0497
 30
0.000000
  70
    32
  0
VERTEX
  8
242
  5
4CCA
 10
49.3389
 20
-17.0122
 30
0.000000
  70
    32
  0
VERTEX
  8
242
  5
4CCB
 10
49.1524
 20
-16.9680
 30
0.000000
  70
    32
  0
VERTEX
  8
242
  5
4CCC
 10
48.9693
 20
-16.9174
 30
0.000000
  70
    32
  0
VERTEX
  8
242
  5
4CCD
 10
48.7898
 20
-16.8604
 30
0.000000
  70
    32
  0
VERTEX
  8
242
  5
4CCE
 10
48.6144
 20
-16.7971
 30
0.000000
  70
    32
  0
VERTEX
  8
242
  5
4CCF
 10
48.4436
 20
-16.7278
 30
0.000000
  70
    32
  0
VERTEX
  8
242
  5
4CD0
 10
48.2777
 20
-16.6525
 30
0.000000
  70
    32
  0
VERTEX
  8
242
  5
4CD1
 10
48.1172
 20
-16.5715
 30
0.000000
  70
    32
  0
VERTEX
  8
242
  5
4CD2
 10
47.9624
 20
-16.4849
 30
0.000000
  70
    32
  0
VERTEX
  8
242
  5
4CD3
 10
47.8138
 20
-16.3930
 30
0.000000
  70
    32
  0
VERTEX
  8
242
  5
4CD4
 10
47.6716
 20
-16.2959
 30
0.000000
  70
    32
  0
VERTEX
  8
242
  5
4CD5
 10
47.5362
 20
-16.1940
 30
0.000000
  70
    32
  0
VERTEX
  8
242
  5
4CD6
 10
47.4080
 20
-16.0875
 30
0.000000
  70
    32
  0
VERTEX
  8
242
  5
4CD7
 10
47.2872
 20
-15.9765
 30
0.000000
  70
    32
  0
VERTEX
  8
242
  5
4CD8
 10
47.1741
 20
-15.8615
 30
0.000000
  70
    32
  0
VERTEX
  8
242
  5
4CD9
 10
47.0691
 20
-15.7426
 30
0.000000
  70
    32
  0
VERTEX
  8
242
  5
4CDA
 10
46.9723
 20
-15.6202
 30
0.000000
  70
    32
  0
VERTEX
  8
242
  5
4CDB
 10
46.8840
 20
-15.4945
 30
0.000000
  70
    32
  0
VERTEX
  8
242
  5
4CDC
 10
46.8045
 20
-15.3659
 30
0.000000
  70
    32
  0
VERTEX
  8
242
  5
4CDD
 10
46.7338
 20
-15.2346
 30
0.000000
  70
    32
  0
VERTEX
  8
242
  5
4CDE
 10
46.6722
 20
-15.1010
 30
0.000000
  70
    32
  0
VERTEX
  8
242
  5
4CDF
 10
46.6199
 20
-14.9653
 30
0.000000
  70
    32
  0
VERTEX
  8
242
  5
4CE0
 10
46.5769
 20
-14.8280
 30
0.000000
  70
    32
  0
VERTEX
  8
242
  5
4CE1
 10
46.5433
 20
-14.6894
 30
0.000000
  70
    32
  0
VERTEX
  8
242
  5
4CE2
 10
46.5193
 20
-14.5497
 30
0.000000
  70
    32
  0
VERTEX
  8
242
  5
4CE3
 10
46.5048
 20
-14.4094
 30
0.000000
  70
    32
  0
VERTEX
  8
242
  5
4CE4
 10
46.5000
 20
-14.2687
 30
0.000000
  70
    32
  0
SEQEND
  8
242
  5
4CE5
  0
LINE
  5
47B8
  8
245
  6
CENTER2
 10
50.500000000004412
 20
-18.090823110613599
 30
0.0
 11
50.500000000004412
 21
-9.9100924036012543
 31
0.0
  0
LINE
  5
47B9
  8
245
  6
CENTER2
 10
45.375274146277057
 20
-14.495689014286031
 30
0.0
 11
55.185811260878701
 21
-14.495689014286031
 31
0.0
  0
POLYLINE
  5
47BA
  8
241
  6
CONTINUOUS
 10
47.12500000000481
 20
-14.307209303764289
 30
0.0
 66
     1
 70
     8
  0
VERTEX
  8
241
  5
4CE6
 10
47.1250
 20
-14.3072
 30
0.000000
  70
    32
  0
VERTEX
  8
241
  5
4CE7
 10
47.1291
 20
-14.1901
 30
0.000000
  70
    32
  0
VERTEX
  8
241
  5
4CE8
 10
47.1413
 20
-14.0733
 30
0.000000
  70
    32
  0
VERTEX
  8
241
  5
4CE9
 10
47.1615
 20
-13.9570
 30
0.000000
  70
    32
  0
VERTEX
  8
241
  5
4CEA
 10
47.1898
 20
-13.8416
 30
0.000000
  70
    32
  0
VERTEX
  8
241
  5
4CEB
 10
47.2261
 20
-13.7273
 30
0.000000
  70
    32
  0
VERTEX
  8
241
  5
4CEC
 10
47.2703
 20
-13.6144
 30
0.000000
  70
    32
  0
VERTEX
  8
241
  5
4CED
 10
47.3223
 20
-13.5032
 30
0.000000
  70
    32
  0
VERTEX
  8
241
  5
4CEE
 10
47.3819
 20
-13.3939
 30
0.000000
  70
    32
  0
VERTEX
  8
241
  5
4CEF
 10
47.4490
 20
-13.2869
 30
0.000000
  70
    32
  0
VERTEX
  8
241
  5
4CF0
 10
47.5235
 20
-13.1822
 30
0.000000
  70
    32
  0
VERTEX
  8
241
  5
4CF1
 10
47.6052
 20
-13.0803
 30
0.000000
  70
    32
  0
VERTEX
  8
241
  5
4CF2
 10
47.6938
 20
-12.9813
 30
0.000000
  70
    32
  0
VERTEX
  8
241
  5
4CF3
 10
47.7892
 20
-12.8856
 30
0.000000
  70
    32
  0
VERTEX
  8
241
  5
4CF4
 10
47.8911
 20
-12.7932
 30
0.000000
  70
    32
  0
VERTEX
  8
241
  5
4CF5
 10
47.9993
 20
-12.7045
 30
0.000000
  70
    32
  0
VERTEX
  8
241
  5
4CF6
 10
48.1135
 20
-12.6197
 30
0.000000
  70
    32
  0
VERTEX
  8
241
  5
4CF7
 10
48.2335
 20
-12.5389
 30
0.000000
  70
    32
  0
VERTEX
  8
241
  5
4CF8
 10
48.3589
 20
-12.4624
 30
0.000000
  70
    32
  0
VERTEX
  8
241
  5
4CF9
 10
48.4895
 20
-12.3904
 30
0.000000
  70
    32
  0
VERTEX
  8
241
  5
4CFA
 10
48.6250
 20
-12.3229
 30
0.000000
  70
    32
  0
VERTEX
  8
241
  5
4CFB
 10
48.7649
 20
-12.2603
 30
0.000000
  70
    32
  0
VERTEX
  8
241
  5
4CFC
 10
48.9090
 20
-12.2025
 30
0.000000
  70
    32
  0
VERTEX
  8
241
  5
4CFD
 10
49.0570
 20
-12.1499
 30
0.000000
  70
    32
  0
VERTEX
  8
241
  5
4CFE
 10
49.2084
 20
-12.1024
 30
0.000000
  70
    32
  0
VERTEX
  8
241
  5
4CFF
 10
49.3630
 20
-12.0602
 30
0.000000
  70
    32
  0
VERTEX
  8
241
  5
4D00
 10
49.5203
 20
-12.0235
 30
0.000000
  70
    32
  0
VERTEX
  8
241
  5
4D01
 10
49.6799
 20
-11.9922
 30
0.000000
  70
    32
  0
VERTEX
  8
241
  5
4D02
 10
49.8416
 20
-11.9666
 30
0.000000
  70
    32
  0
VERTEX
  8
241
  5
4D03
 10
50.0048
 20
-11.9466
 30
0.000000
  70
    32
  0
VERTEX
  8
241
  5
4D04
 10
50.1692
 20
-11.9322
 30
0.000000
  70
    32
  0
VERTEX
  8
241
  5
4D05
 10
50.3344
 20
-11.9236
 30
0.000000
  70
    32
  0
VERTEX
  8
241
  5
4D06
 10
50.5000
 20
-11.9207
 30
0.000000
  70
    32
  0
VERTEX
  8
241
  5
4D07
 10
50.6656
 20
-11.9236
 30
0.000000
  70
    32
  0
VERTEX
  8
241
  5
4D08
 10
50.8308
 20
-11.9322
 30
0.000000
  70
    32
  0
VERTEX
  8
241
  5
4D09
 10
50.9952
 20
-11.9466
 30
0.000000
  70
    32
  0
VERTEX
  8
241
  5
4D0A
 10
51.1584
 20
-11.9666
 30
0.000000
  70
    32
  0
VERTEX
  8
241
  5
4D0B
 10
51.3201
 20
-11.9922
 30
0.000000
  70
    32
  0
VERTEX
  8
241
  5
4D0C
 10
51.4797
 20
-12.0235
 30
0.000000
  70
    32
  0
VERTEX
  8
241
  5
4D0D
 10
51.6370
 20
-12.0602
 30
0.000000
  70
    32
  0
VERTEX
  8
241
  5
4D0E
 10
51.7916
 20
-12.1024
 30
0.000000
  70
    32
  0
VERTEX
  8
241
  5
4D0F
 10
51.9430
 20
-12.1499
 30
0.000000
  70
    32
  0
VERTEX
  8
241
  5
4D10
 10
52.0910
 20
-12.2025
 30
0.000000
  70
    32
  0
VERTEX
  8
241
  5
4D11
 10
52.2351
 20
-12.2603
 30
0.000000
  70
    32
  0
VERTEX
  8
241
  5
4D12
 10
52.3750
 20
-12.3229
 30
0.000000
  70
    32
  0
VERTEX
  8
241
  5
4D13
 10
52.5105
 20
-12.3904
 30
0.000000
  70
    32
  0
VERTEX
  8
241
  5
4D14
 10
52.6411
 20
-12.4624
 30
0.000000
  70
    32
  0
VERTEX
  8
241
  5
4D15
 10
52.7665
 20
-12.5389
 30
0.000000
  70
    32
  0
VERTEX
  8
241
  5
4D16
 10
52.8865
 20
-12.6197
 30
0.000000
  70
    32
  0
VERTEX
  8
241
  5
4D17
 10
53.0007
 20
-12.7045
 30
0.000000
  70
    32
  0
VERTEX
  8
241
  5
4D18
 10
53.1089
 20
-12.7932
 30
0.000000
  70
    32
  0
VERTEX
  8
241
  5
4D19
 10
53.2108
 20
-12.8856
 30
0.000000
  70
    32
  0
VERTEX
  8
241
  5
4D1A
 10
53.3062
 20
-12.9813
 30
0.000000
  70
    32
  0
VERTEX
  8
241
  5
4D1B
 10
53.3948
 20
-13.0803
 30
0.000000
  70
    32
  0
VERTEX
  8
241
  5
4D1C
 10
53.4765
 20
-13.1822
 30
0.000000
  70
    32
  0
VERTEX
  8
241
  5
4D1D
 10
53.5510
 20
-13.2869
 30
0.000000
  70
    32
  0
VERTEX
  8
241
  5
4D1E
 10
53.6181
 20
-13.3939
 30
0.000000
  70
    32
  0
VERTEX
  8
241
  5
4D1F
 10
53.6777
 20
-13.5032
 30
0.000000
  70
    32
  0
VERTEX
  8
241
  5
4D20
 10
53.7297
 20
-13.6144
 30
0.000000
  70
    32
  0
VERTEX
  8
241
  5
4D21
 10
53.7739
 20
-13.7273
 30
0.000000
  70
    32
  0
VERTEX
  8
241
  5
4D22
 10
53.8102
 20
-13.8416
 30
0.000000
  70
    32
  0
VERTEX
  8
241
  5
4D23
 10
53.8385
 20
-13.9570
 30
0.000000
  70
    32
  0
VERTEX
  8
241
  5
4D24
 10
53.8587
 20
-14.0733
 30
0.000000
  70
    32
  0
VERTEX
  8
241
  5
4D25
 10
53.8709
 20
-14.1901
 30
0.000000
  70
    32
  0
VERTEX
  8
241
  5
4D26
 10
53.8750
 20
-14.3072
 30
0.000000
  70
    32
  0
VERTEX
  8
241
  5
4D27
 10
53.8709
 20
-14.4243
 30
0.000000
  70
    32
  0
VERTEX
  8
241
  5
4D28
 10
53.8587
 20
-14.5411
 30
0.000000
  70
    32
  0
VERTEX
  8
241
  5
4D29
 10
53.8385
 20
-14.6574
 30
0.000000
  70
    32
  0
VERTEX
  8
241
  5
4D2A
 10
53.8102
 20
-14.7728
 30
0.000000
  70
    32
  0
VERTEX
  8
241
  5
4D2B
 10
53.7739
 20
-14.8871
 30
0.000000
  70
    32
  0
VERTEX
  8
241
  5
4D2C
 10
53.7297
 20
-15.0000
 30
0.000000
  70
    32
  0
VERTEX
  8
241
  5
4D2D
 10
53.6777
 20
-15.1112
 30
0.000000
  70
    32
  0
VERTEX
  8
241
  5
4D2E
 10
53.6181
 20
-15.2205
 30
0.000000
  70
    32
  0
VERTEX
  8
241
  5
4D2F
 10
53.5510
 20
-15.3276
 30
0.000000
  70
    32
  0
VERTEX
  8
241
  5
4D30
 10
53.4765
 20
-15.4322
 30
0.000000
  70
    32
  0
VERTEX
  8
241
  5
4D31
 10
53.3948
 20
-15.5341
 30
0.000000
  70
    32
  0
VERTEX
  8
241
  5
4D32
 10
53.3062
 20
-15.6331
 30
0.000000
  70
    32
  0
VERTEX
  8
241
  5
4D33
 10
53.2108
 20
-15.7288
 30
0.000000
  70
    32
  0
VERTEX
  8
241
  5
4D34
 10
53.1089
 20
-15.8212
 30
0.000000
  70
    32
  0
VERTEX
  8
241
  5
4D35
 10
53.0007
 20
-15.9099
 30
0.000000
  70
    32
  0
VERTEX
  8
241
  5
4D36
 10
52.8865
 20
-15.9947
 30
0.000000
  70
    32
  0
VERTEX
  8
241
  5
4D37
 10
52.7665
 20
-16.0755
 30
0.000000
  70
    32
  0
VERTEX
  8
241
  5
4D38
 10
52.6411
 20
-16.1520
 30
0.000000
  70
    32
  0
VERTEX
  8
241
  5
4D39
 10
52.5105
 20
-16.2241
 30
0.000000
  70
    32
  0
VERTEX
  8
241
  5
4D3A
 10
52.3750
 20
-16.2915
 30
0.000000
  70
    32
  0
VERTEX
  8
241
  5
4D3B
 10
52.2351
 20
-16.3542
 30
0.000000
  70
    32
  0
VERTEX
  8
241
  5
4D3C
 10
52.0910
 20
-16.4119
 30
0.000000
  70
    32
  0
VERTEX
  8
241
  5
4D3D
 10
51.9430
 20
-16.4646
 30
0.000000
  70
    32
  0
VERTEX
  8
241
  5
4D3E
 10
51.7916
 20
-16.5120
 30
0.000000
  70
    32
  0
VERTEX
  8
241
  5
4D3F
 10
51.6370
 20
-16.5542
 30
0.000000
  70
    32
  0
VERTEX
  8
241
  5
4D40
 10
51.4797
 20
-16.5909
 30
0.000000
  70
    32
  0
VERTEX
  8
241
  5
4D41
 10
51.3201
 20
-16.6222
 30
0.000000
  70
    32
  0
VERTEX
  8
241
  5
4D42
 10
51.1584
 20
-16.6478
 30
0.000000
  70
    32
  0
VERTEX
  8
241
  5
4D43
 10
50.9952
 20
-16.6679
 30
0.000000
  70
    32
  0
VERTEX
  8
241
  5
4D44
 10
50.8308
 20
-16.6822
 30
0.000000
  70
    32
  0
VERTEX
  8
241
  5
4D45
 10
50.6656
 20
-16.6908
 30
0.000000
  70
    32
  0
VERTEX
  8
241
  5
4D46
 10
50.5000
 20
-16.6937
 30
0.000000
  70
    32
  0
VERTEX
  8
241
  5
4D47
 10
50.3344
 20
-16.6908
 30
0.000000
  70
    32
  0
VERTEX
  8
241
  5
4D48
 10
50.1692
 20
-16.6822
 30
0.000000
  70
    32
  0
VERTEX
  8
241
  5
4D49
 10
50.0048
 20
-16.6679
 30
0.000000
  70
    32
  0
VERTEX
  8
241
  5
4D4A
 10
49.8416
 20
-16.6478
 30
0.000000
  70
    32
  0
VERTEX
  8
241
  5
4D4B
 10
49.6799
 20
-16.6222
 30
0.000000
  70
    32
  0
VERTEX
  8
241
  5
4D4C
 10
49.5203
 20
-16.5909
 30
0.000000
  70
    32
  0
VERTEX
  8
241
  5
4D4D
 10
49.3630
 20
-16.5542
 30
0.000000
  70
    32
  0
VERTEX
  8
241
  5
4D4E
 10
49.2084
 20
-16.5120
 30
0.000000
  70
    32
  0
VERTEX
  8
241
  5
4D4F
 10
49.0570
 20
-16.4646
 30
0.000000
  70
    32
  0
VERTEX
  8
241
  5
4D50
 10
48.9090
 20
-16.4119
 30
0.000000
  70
    32
  0
VERTEX
  8
241
  5
4D51
 10
48.7649
 20
-16.3542
 30
0.000000
  70
    32
  0
VERTEX
  8
241
  5
4D52
 10
48.6250
 20
-16.2915
 30
0.000000
  70
    32
  0
VERTEX
  8
241
  5
4D53
 10
48.4895
 20
-16.2241
 30
0.000000
  70
    32
  0
VERTEX
  8
241
  5
4D54
 10
48.3589
 20
-16.1520
 30
0.000000
  70
    32
  0
VERTEX
  8
241
  5
4D55
 10
48.2335
 20
-16.0755
 30
0.000000
  70
    32
  0
VERTEX
  8
241
  5
4D56
 10
48.1135
 20
-15.9947
 30
0.000000
  70
    32
  0
VERTEX
  8
241
  5
4D57
 10
47.9993
 20
-15.9099
 30
0.000000
  70
    32
  0
VERTEX
  8
241
  5
4D58
 10
47.8911
 20
-15.8212
 30
0.000000
  70
    32
  0
VERTEX
  8
241
  5
4D59
 10
47.7892
 20
-15.7288
 30
0.000000
  70
    32
  0
VERTEX
  8
241
  5
4D5A
 10
47.6938
 20
-15.6331
 30
0.000000
  70
    32
  0
VERTEX
  8
241
  5
4D5B
 10
47.6052
 20
-15.5341
 30
0.000000
  70
    32
  0
VERTEX
  8
241
  5
4D5C
 10
47.5235
 20
-15.4322
 30
0.000000
  70
    32
  0
VERTEX
  8
241
  5
4D5D
 10
47.4490
 20
-15.3276
 30
0.000000
  70
    32
  0
VERTEX
  8
241
  5
4D5E
 10
47.3819
 20
-15.2205
 30
0.000000
  70
    32
  0
VERTEX
  8
241
  5
4D5F
 10
47.3223
 20
-15.1112
 30
0.000000
  70
    32
  0
VERTEX
  8
241
  5
4D60
 10
47.2703
 20
-15.0000
 30
0.000000
  70
    32
  0
VERTEX
  8
241
  5
4D61
 10
47.2261
 20
-14.8871
 30
0.000000
  70
    32
  0
VERTEX
  8
241
  5
4D62
 10
47.1898
 20
-14.7728
 30
0.000000
  70
    32
  0
VERTEX
  8
241
  5
4D63
 10
47.1615
 20
-14.6574
 30
0.000000
  70
    32
  0
VERTEX
  8
241
  5
4D64
 10
47.1413
 20
-14.5411
 30
0.000000
  70
    32
  0
VERTEX
  8
241
  5
4D65
 10
47.1291
 20
-14.4243
 30
0.000000
  70
    32
  0
VERTEX
  8
241
  5
4D66
 10
47.1250
 20
-14.3072
 30
0.000000
  70
    32
  0
SEQEND
  8
241
  5
4D67
  0
ARC
  5
47BB
  8
240
  6
CONTINUOUS
 10
2.5089967387804961
 20
21.500000000000011
 30
0.0
 40
1.0
 50
194.99999999999699
 51
269.99999999999892
1001
GENIUS_GENODEF_13
1002
{
1000
HIER
1070
     0
1002
}
1002
{
1000
MANEDIT
1070
     0
1002
}
1002
{
1000
NOSEL
1070
     0
1002
}
1002
{
1000
BEHIND
1070
     0
1002
}
1002
{
1000
OTHER
1070
     0
1002
}
1002
{
1000
REACTOR
1002
}
1001
GENIUS_GENOBJ-N-FIL_13
1002
{
1000
OWNER
1000
GEN
1002
}
  0
ARC
  5
47BD
  8
240
  6
CONTINUOUS
 10
2.508996738780731
 20
-21.499999999999179
 30
0.0
 40
1.0
 50
90.000000000000142
 51
165.00000000000759
1001
GENIUS_GENOBJ-N-FIL_13
1002
{
1000
OWNER
1000
GEN
1002
}
1001
GENIUS_GENODEF_13
1002
{
1000
HIER
1070
     0
1002
}
1002
{
1000
MANEDIT
1070
     0
1002
}
1002
{
1000
NOSEL
1070
     0
1002
}
1002
{
1000
BEHIND
1070
     0
1002
}
1002
{
1000
OTHER
1070
     0
1002
}
1002
{
1000
REACTOR
1002
}
  0
LINE
  5
47C5
  8
241
  6
CONTINUOUS
 10
1.741669750801486
 20
20.858743971943301
 30
0.0
 11
1.741669750801486
 21
-20.858743971942761
 31
0.0
  0
LINE
  5
47D5
  8
243
  6
HIDDEN2
 10
9.0000000000036522
 20
7.669999999999586
 30
0.0
 11
8.9999999999988987
 21
-7.6700000000000292
 31
0.0
  0
LINE
  5
47D8
  8
243
  6
HIDDEN2
 10
31.500000000003659
 20
10.159999999999959
 30
0.0
 11
31.499999999998561
 21
-10.15999999999994
 31
0.0
  0
LINE
  5
47D9
  8
243
  6
HIDDEN2
 10
63.499999999998401
 20
10.159999999999981
 30
0.0
 11
31.500000000003659
 21
10.159999999999959
 31
0.0
  0
LINE
  5
47DA
  8
243
  6
HIDDEN2
 10
63.500000000003922
 20
-10.160000000000011
 30
0.0
 11
31.499999999998561
 21
-10.15999999999994
 31
0.0
  0
LINE
  5
47DB
  8
243
  6
HIDDEN2
 10
9.0000000000036522
 20
7.669999999999586
 30
0.0
 11
31.500000000003041
 21
7.6699999999996642
 31
0.0
  0
LINE
  5
47DC
  8
243
  6
HIDDEN2
 10
8.9999999999988987
 20
-7.6700000000000284
 30
0.0
 11
31.49999999999919
 21
-7.6700000000001642
 31
0.0
  0
LINE
  5
47DD
  8
244
  6
HIDDEN2
 10
9.0000000000036522
 20
7.669999999999586
 30
0.0
 11
31.49999999999919
 21
-7.6700000000001642
 31
0.0
  0
LINE
  5
47DE
  8
244
  6
HIDDEN2
 10
8.9999999999988987
 20
-7.6700000000000284
 30
0.0
 11
31.500000000003041
 21
7.6699999999996642
 31
0.0
  0
CIRCLE
  5
47E7
  8
241
  6
CONTINUOUS
 10
21.500000000001339
 20
-0.0000000000001847
 30
0.0
 40
3.3749999999999432
  0
CIRCLE
  5
47E8
  8
242
  6
CONTINUOUS
 10
21.500000000001339
 20
-0.0000000000001847
 30
0.0
 40
4.0000000000000284
  0
LINE
  5
47E9
  8
245
  6
CENTER2
 10
21.500000000001339
 20
4.9999999999998153
 30
0.0
 11
21.500000000001339
 21
-5.0000000000001839
 31
0.0
  0
LINE
  5
48F0
  8
250
  6
CONTINUOUS
 10
8.5000000000036504
 20
7.669999999999586
 30
0.0
 11
5.9811816769252557
 21
7.6699999999995869
 31
0.0
  0
LINE
  5
48F1
  8
250
  6
CONTINUOUS
 10
8.4999999999988987
 20
-7.6700000000000284
 30
0.0
 11
5.981181676925253
 21
-7.6700000000000266
 31
0.0
  0
LINE
  5
48F2
  8
250
  6
CONTINUOUS
 10
6.9811816769252557
 20
9.8999999999995865
 30
0.0
 11
6.9811816769252566
 21
12.12999999999958
 31
0.0
  0
LINE
  5
48F3
  8
250
  6
CONTINUOUS
 10
6.981181676925253
 20
-9.9000000000000288
 30
0.0
 11
6.9811816769252522
 21
-12.130000000000029
 31
0.0
  0
LINE
  5
48F4
  8
250
  6
CONTINUOUS
 10
6.9811816769252557
 20
7.669999999999586
 30
0.0
 11
6.981181676925253
 21
-7.6700000000000284
 31
0.0
  0
LINE
  5
48F8
  8
250
  6
CONTINUOUS
 10
-0.0000000000018435
 20
27.50000000000524
 30
0.0
 11
-0.0000000000018425
 21
43.0
 31
0.0
  0
LINE
  5
48F9
  8
250
  6
CONTINUOUS
 10
63.499999999995602
 20
20.999999999998799
 30
0.0
 11
63.499999999995602
 21
43.0
 31
0.0
  0
LINE
  5
48FA
  8
250
  6
CONTINUOUS
 10
2.229999999998157
 20
42.0
 30
0.0
 11
61.269999999995612
 21
42.0
 31
0.0
  0
LINE
  5
48FE
  8
250
  6
CONTINUOUS
 10
63.999999999998408
 20
10.159999999999981
 30
0.0
 11
78.0
 21
10.159999999999981
 31
0.0
  0
LINE
  5
48FF
  8
250
  6
CONTINUOUS
 10
64.000000000003922
 20
-10.160000000000011
 30
0.0
 11
78.0
 21
-10.16000000000002
 31
0.0
  0
LINE
  5
4900
  8
250
  6
CONTINUOUS
 10
77.0
 20
7.9299999999999766
 30
0.0
 11
77.0
 21
-7.9300000000000157
 31
0.0
  0
LINE
  5
4904
  8
250
  6
CONTINUOUS
 10
63.999999999995609
 20
20.499999999998799
 30
0.0
 11
85.0
 21
20.499999999998799
 31
0.0
  0
LINE
  5
4905
  8
250
  6
CONTINUOUS
 10
64.000000000006736
 20
-20.499999999999041
 30
0.0
 11
85.0
 21
-20.499999999999041
 31
0.0
  0
LINE
  5
4906
  8
250
  6
CONTINUOUS
 10
84.0
 20
18.269999999998799
 30
0.0
 11
84.0
 21
-18.26999999999904
 31
0.0
  0
TEXT
  5
490A
  8
250
  6
CONTINUOUS
 10
75.999999999999986
 20
-5.484818862004186
 30
0.0
 40
2.7999999999999989
  1
\U+2205.800
 50
90.0
  0
LINE
  5
490B
  8
250
  6
CONTINUOUS
 10
77.371666666666655
 20
-7.9300000000000166
 30
0.0
 11
77.0
 21
-10.16000000000002
 31
0.0
  0
LINE
  5
490C
  8
250
  6
CONTINUOUS
 10
76.62833333333333
 20
-7.9300000000000166
 30
0.0
 11
77.0
 21
-10.16000000000002
 31
0.0
  0
LINE
  5
490D
  8
250
  6
CONTINUOUS
 10
77.0
 20
-10.16000000000002
 30
0.0
 11
77.0
 21
-7.9300000000000166
 31
0.0
  0
LINE
  5
490E
  8
250
  6
CONTINUOUS
 10
76.62833333333333
 20
7.9299999999999757
 30
0.0
 11
77.0
 21
10.159999999999981
 31
0.0
  0
LINE
  5
490F
  8
250
  6
CONTINUOUS
 10
77.371666666666655
 20
7.9299999999999757
 30
0.0
 11
77.0
 21
10.159999999999981
 31
0.0
  0
LINE
  5
4910
  8
250
  6
CONTINUOUS
 10
77.0
 20
10.159999999999981
 30
0.0
 11
77.0
 21
7.9299999999999757
 31
0.0
  0
TEXT
  5
4911
  8
250
  6
CONTINUOUS
 10
82.999999999999986
 20
-6.4809074681714476
 30
0.0
 40
2.7999999999999989
  1
\U+22051.614
 50
90.0
  0
LINE
  5
4912
  8
250
  6
CONTINUOUS
 10
84.371666666666684
 20
-18.26999999999904
 30
0.0
 11
84.0
 21
-20.499999999999041
 31
0.0
  0
LINE
  5
4913
  8
250
  6
CONTINUOUS
 10
83.628333333333316
 20
-18.26999999999904
 30
0.0
 11
84.0
 21
-20.499999999999041
 31
0.0
  0
LINE
  5
4914
  8
250
  6
CONTINUOUS
 10
84.0
 20
-20.499999999999041
 30
0.0
 11
84.0
 21
-18.26999999999904
 31
0.0
  0
LINE
  5
4915
  8
250
  6
CONTINUOUS
 10
83.628333333333316
 20
18.269999999998799
 30
0.0
 11
84.0
 21
20.499999999998799
 31
0.0
  0
LINE
  5
4916
  8
250
  6
CONTINUOUS
 10
84.371666666666684
 20
18.269999999998799
 30
0.0
 11
84.0
 21
20.499999999998799
 31
0.0
  0
LINE
  5
4917
  8
250
  6
CONTINUOUS
 10
84.0
 20
20.499999999998799
 30
0.0
 11
84.0
 21
18.269999999998799
 31
0.0
  0
TEXT
  5
4918
  8
250
  6
CONTINUOUS
 10
28.416666666663549
 20
43.0
 30
0.0
 40
2.7999999999999989
  1
2.5
  0
LINE
  5
4919
  8
250
  6
CONTINUOUS
 10
61.269999999995612
 20
42.371666666666663
 30
0.0
 11
63.499999999995602
 21
42.0
 31
0.0
  0
LINE
  5
491A
  8
250
  6
CONTINUOUS
 10
61.269999999995612
 20
41.62833333333333
 30
0.0
 11
63.499999999995602
 21
42.0
 31
0.0
  0
LINE
  5
491B
  8
250
  6
CONTINUOUS
 10
63.499999999995602
 20
42.0
 30
0.0
 11
61.269999999995612
 21
42.0
 31
0.0
  0
LINE
  5
491C
  8
250
  6
CONTINUOUS
 10
2.229999999998157
 20
41.62833333333333
 30
0.0
 11
-0.0000000000018426
 21
42.0
 31
0.0
  0
LINE
  5
491D
  8
250
  6
CONTINUOUS
 10
2.229999999998157
 20
42.371666666666663
 30
0.0
 11
-0.0000000000018426
 21
42.0
 31
0.0
  0
LINE
  5
491E
  8
250
  6
CONTINUOUS
 10
-0.0000000000018426
 20
42.0
 30
0.0
 11
2.229999999998157
 21
42.0
 31
0.0
  0
LINE
  5
491F
  8
250
  6
CONTINUOUS
 10
7.3528483435919227
 20
9.8999999999995865
 30
0.0
 11
6.9811816769252557
 21
7.669999999999586
 31
0.0
  0
LINE
  5
4920
  8
250
  6
CONTINUOUS
 10
6.6095150102585896
 20
9.8999999999995865
 30
0.0
 11
6.9811816769252557
 21
7.669999999999586
 31
0.0
  0
LINE
  5
4921
  8
250
  6
CONTINUOUS
 10
6.9811816769252557
 20
7.669999999999586
 30
0.0
 11
6.9811816769252557
 21
9.8999999999995865
 31
0.0
  0
LINE
  5
4922
  8
250
  6
CONTINUOUS
 10
6.609515010258586
 20
-9.9000000000000288
 30
0.0
 11
6.981181676925253
 21
-7.6700000000000284
 31
0.0
  0
LINE
  5
4923
  8
250
  6
CONTINUOUS
 10
7.3528483435919192
 20
-9.9000000000000288
 30
0.0
 11
6.981181676925253
 21
-7.6700000000000284
 31
0.0
  0
LINE
  5
4924
  8
250
  6
CONTINUOUS
 10
6.981181676925253
 20
-7.6700000000000284
 30
0.0
 11
6.981181676925253
 21
-9.9000000000000288
 31
0.0
  0
TEXT
  5
493E
  8
250
  6
CONTINUOUS
 10
5.981181676925253
 20
-7.6666666666668819
 30
0.0
 40
2.7999999999999989
  1
üá
 50
90.0
  0
TEXT
  5
493F
  8
250
  6
CONTINUOUS
 10
5.981181676925253
 20
-4.3333333333335489
 30
0.0
 40
2.7999999999999989
  1
.600
 50
90.0
  0
VIEWPORT
  5
22
 67
     1
  8
0
 10
261.51769911504419
 20
148.5
 30
0.0
 40
523.0353982300885
 41
297.0
 68
     1
 69
     1
1001
ACAD
1000
MVIEW
1002
{
1070
    16
1010
0.0
1020
0.0
1030
0.0
1010
0.0
1020
0.0
1030
1.0
1040
0.0
1040
297.0
1040
261.51769911504419
1040
148.5
1040
50.0
1040
0.0
1040
0.0
1070
     0
1070
   100
1070
     1
1070
     1
1070
     0
1070
     0
1070
     0
1070
     0
1040
0.0
1040
0.0
1040
0.0
1040
1.0
1040
1.0
1040
10.0
1040
10.0
1070
     0
1002
{
1002
}
1002
}
1001
GENIUS_GENODEF_13
1002
{
1000
HIER
1070
     0
1002
}
1002
{
1000
MANEDIT
1070
     0
1002
}
1002
{
1000
NOSEL
1070
     0
1002
}
1002
{
1000
BEHIND
1070
     0
1002
}
1002
{
1000
OTHER
1070
     0
1002
}
1002
{
1000
REACTOR
1002
}
1001
GENIUS_GENOBJ-N-SDF_13
1002
{
1000
OWNER
1000
GEN
1002
}
1001
GENIUS_GENSCREG_15
1000
PF
1040
1.0
1000
DF
1040
1.0
1000
MIN
1011
0.0
1021
0.0
1031
0.0
1021
0.0
1031
0.0
1000
MAX
1011
523.0353982300885
1021
0.0
1031
0.0
1021
297.0
1031
0.0
1000
FLAGS
1070
     4
  0
ENDSEC
  0
EOF
