  0
SECTION
  2
HEADER
  9
$ACADVER
  1
AC1009
  9
$INSBASE
 10
0.0
 20
0.0
 30
0.0
  9
$EXTMIN
 10
-92.566831448673483
 20
-27.000000000010921
 30
0.0
  9
$EXTMAX
 10
85.001062255570659
 20
64.928571428571459
 30
0.0
  9
$LIMMIN
 10
0.0
 20
0.0
  9
$LIMMAX
 10
297.0
 20
210.0
  9
$ORTHOMODE
 70
     0
  9
$REGENMODE
 70
     1
  9
$FILLMODE
 70
     1
  9
$QTEXTMODE
 70
     0
  9
$MIRRTEXT
 70
     1
  9
$DRAGMODE
 70
     2
  9
$LTSCALE
 40
10.0
  9
$OSMODE
 70
    37
  9
$ATTMODE
 70
     1
  9
$TEXTSIZE
 40
3.0
  9
$TRACEWID
 40
1.0
  9
$TEXTSTYLE
  7
YOKO
  9
$CLAYER
  8
240
  9
$CELTYPE
  6
BYLAYER
  9
$CECOLOR
 62
   256
  9
$DIMSCALE
 40
1.0
  9
$DIMASZ
 40
2.2299999999999991
  9
$DIMEXO
 40
0.5
  9
$DIMDLI
 40
7.0
  9
$DIMRND
 40
0.0
  9
$DIMDLE
 40
0.0
  9
$DIMEXE
 40
1.0
  9
$DIMTP
 40
0.0
  9
$DIMTM
 40
0.01
  9
$DIMTXT
 40
2.7999999999999989
  9
$DIMCEN
 40
0.0
  9
$DIMTSZ
 40
0.0
  9
$DIMTOL
 70
     0
  9
$DIMLIM
 70
     0
  9
$DIMTIH
 70
     0
  9
$DIMTOH
 70
     0
  9
$DIMSE1
 70
     0
  9
$DIMSE2
 70
     0
  9
$DIMTAD
 70
     3
  9
$DIMZIN
 70
     9
  9
$DIMBLK
  1
OPEN
  9
$DIMASO
 70
     1
  9
$DIMSHO
 70
     1
  9
$DIMPOST
  1

  9
$DIMAPOST
  1

  9
$DIMALT
 70
     0
  9
$DIMALTD
 70
     2
  9
$DIMALTF
 40
25.399999999999999
  9
$DIMLFAC
 40
1.0
  9
$DIMTOFL
 70
     1
  9
$DIMTVP
 40
0.0
  9
$DIMTIX
 70
     1
  9
$DIMSOXD
 70
     0
  9
$DIMSAH
 70
     0
  9
$DIMBLK1
  1

  9
$DIMBLK2
  1

  9
$DIMSTYLE
  2
BIGT
  9
$DIMCLRD
 70
   256
  9
$DIMCLRE
 70
   256
  9
$DIMCLRT
 70
    40
  9
$DIMTFAC
 40
1.0
  9
$DIMGAP
 40
1.0
  9
$LUNITS
 70
     2
  9
$LUPREC
 70
     6
  9
$SKETCHINC
 40
1.0
  9
$FILLETRAD
 40
1.0
  9
$AUNITS
 70
     0
  9
$AUPREC
 70
     6
  9
$MENU
  1
.
  9
$ELEVATION
 40
0.0
  9
$PELEVATION
 40
0.0
  9
$THICKNESS
 40
0.0
  9
$LIMCHECK
 70
     0
  9
$BLIPMODE
 70
     0
  9
$CHAMFERA
 40
0.2
  9
$CHAMFERB
 40
0.2
  9
$SKPOLY
 70
     0
  9
$TDCREATE
 40
2458148.5663247001
  9
$TDUPDATE
 40
2458148.5915060998
  9
$TDINDWG
 40
0.0137903935
  9
$TDUSRTIMER
 40
0.0137903704
  9
$USRTIMER
 70
     1
  9
$ANGBASE
 50
0.0
  9
$ANGDIR
 70
     0
  9
$PDMODE
 70
     1
  9
$PDSIZE
 40
0.0
  9
$PLINEWID
 40
0.0
  9
$COORDS
 70
     1
  9
$SPLFRAME
 70
     0
  9
$SPLINETYPE
 70
     6
  9
$SPLINESEGS
 70
     4
  9
$ATTDIA
 70
     1
  9
$ATTREQ
 70
     1
  9
$HANDLING
 70
     1
  9
$HANDSEED
  5
49A7
  9
$SURFTAB1
 70
     6
  9
$SURFTAB2
 70
     6
  9
$SURFTYPE
 70
     6
  9
$SURFU
 70
     6
  9
$SURFV
 70
     6
  9
$UCSNAME
  2

  9
$UCSORG
 10
0.0
 20
0.0
 30
0.0
  9
$UCSXDIR
 10
1.0
 20
0.0
 30
0.0
  9
$UCSYDIR
 10
0.0
 20
1.0
 30
0.0
  9
$PUCSNAME
  2

  9
$PUCSORG
 10
0.0
 20
0.0
 30
0.0
  9
$PUCSXDIR
 10
1.0
 20
0.0
 30
0.0
  9
$PUCSYDIR
 10
0.0
 20
1.0
 30
0.0
  9
$USERI1
 70
     1
  9
$USERI2
 70
     0
  9
$USERI3
 70
     0
  9
$USERI4
 70
     0
  9
$USERI5
 70
     0
  9
$USERR1
 40
0.0
  9
$USERR2
 40
0.0
  9
$USERR3
 40
0.0
  9
$USERR4
 40
0.0
  9
$USERR5
 40
0.0
  9
$WORLDVIEW
 70
     1
  9
$SHADEDGE
 70
     3
  9
$SHADEDIF
 70
    70
  9
$TILEMODE
 70
     1
  9
$MAXACTVP
 70
    16
  9
$PLIMCHECK
 70
     0
  9
$PEXTMIN
 10
1.0000000000000000E+020
 20
1.0000000000000000E+020
 30
1.0000000000000000E+020
  9
$PEXTMAX
 10
-1.0000000000000000E+020
 20
-1.0000000000000000E+020
 30
-1.0000000000000000E+020
  9
$PLIMMIN
 10
0.0
 20
0.0
  9
$PLIMMAX
 10
420.0
 20
297.0
  9
$UNITMODE
 70
     0
  9
$VISRETAIN
 70
     1
  9
$PLINEGEN
 70
     0
  9
$PSLTSCALE
 70
     1
  0
ENDSEC
  0
SECTION
  2
TABLES
  0
TABLE
  2
VPORT
 70
     1
  0
VPORT
  2
*ACTIVE
 70
     0
 10
0.0
 20
0.0
 11
1.0
 21
1.0
 12
19.58982741351312
 22
7.9961369683708758
 13
0.0
 23
0.0
 14
7.0
 24
7.0
 15
7.0
 25
7.0
 16
0.0
 26
0.0
 36
1.0
 17
0.0
 27
0.0
 37
0.0
 40
180.64761897836729
 41
1.5644444444444441
 42
50.0
 43
0.0
 44
0.0
 50
0.0
 51
0.0
 71
     0
 72
  2000
 73
     1
 74
     0
 75
     0
 76
     1
 77
     0
 78
     0
  0
ENDTAB
  0
TABLE
  2
LTYPE
 70
    18
  0
LTYPE
  2
CONTINUOUS
 70
     0
  3
Solid line
 72
    65
 73
     0
 40
0.0
  0
LTYPE
  2
CENTER2
 70
     0
  3
___ _ ___ _ ___ _ ___ _ ___ _ ___ _ ___ _ ___ _
 72
    65
 73
     4
 40
1.125
 49
0.75
 49
-0.125
 49
0.125
 49
-0.125
  0
LTYPE
  2
HIDDEN2
 70
     0
  3
_ _ _ _ _ _ _ _ _ _ _ _ _ _ _ _ _ _ _ _ _ _ _ _
 72
    65
 73
     2
 40
0.1875
 49
0.125
 49
-0.0625
  0
LTYPE
  2
AM_ISO02W050
 70
     0
  3
__ __ __ __ __ __ __ __ __ __ __ __ __ __ __
 72
    65
 73
     2
 40
7.5
 49
6.0
 49
-1.5
  0
LTYPE
  2
AMCONSTR
 70
     0
  3
_______________________
 72
    65
 73
     2
 40
9999.0
 49
9999.0
 49
0.0
  0
LTYPE
  2
ACISOWELD
 70
     0
  3
_ _ _ _ _
 72
    65
 73
     2
 40
2.0
 49
2.0
 49
-1.0
  0
LTYPE
  2
ACISOTGB
 70
     0
  3
__ . . __ . .
 72
    65
 73
     6
 40
9.0
 49
4.0
 49
-1.0
 49
1.0
 49
-1.0
 49
1.0
 49
-1.0
  0
LTYPE
  2
ACISOTGL
 70
     0
  3
_ _ _ _ _
 72
    65
 73
     2
 40
3.0
 49
2.0
 49
-1.0
  0
LTYPE
  2
AM_ISO08W050
 70
     0
  3
____ . ____ . ____ . ____ . ____ . ____ . ____
 72
    65
 73
     4
 40
18.0
 49
12.0
 49
-1.5
 49
3.0
 49
-1.5
  0
LTYPE
  2
AM_ISO09W050
 70
     0
  3
_____ . . _____ . . _____ . . ____ .. ____
 72
    65
 73
     6
 40
22.5
 49
12.0
 49
-1.5
 49
3.0
 49
-1.5
 49
3.0
 49
-1.5
  0
LTYPE
  2
AM_ISO08W050X2
 70
     0
  3
__ . __ . __ . __ . __ . __
 72
    65
 73
     4
 40
9.0
 49
6.0
 49
-0.75
 49
1.5
 49
-0.75
  0
LTYPE
  2
AM_ISO02W050X2
 70
     0
  3
 _ _ _ _ _ _ _ _ _ _ _ _
 72
    65
 73
     2
 40
3.75
 49
3.0
 49
-0.75
  0
LTYPE
  2
AMZIGZAG
 70
     0
  3
/\/-/\/-/\/-/\/-/\/-/\/
 72
    65
 73
     2
 40
11.0001
 49
0.0001
 49
-11.0
  0
ENDTAB
  0
TABLE
  2
LAYER
 70
    10
  0
LAYER
  2
0
 70
     0
 62
     7
  6
CONTINUOUS
  0
LAYER
  2
DEFPOINTS
 70
     0
 62
     7
  6
CONTINUOUS
  0
LAYER
  2
245
 70
     0
 62
     2
  6
CENTER2
  0
LAYER
  2
240
 70
     0
 62
     4
  6
CONTINUOUS
  0
LAYER
  2
241
 70
     0
 62
   211
  6
CONTINUOUS
  0
LAYER
  2
242
 70
     0
 62
     3
  6
CONTINUOUS
  0
LAYER
  2
243
 70
     0
 62
   211
  6
HIDDEN2
  0
LAYER
  2
244
 70
     0
 62
     3
  6
HIDDEN2
  0
LAYER
  2
247
 70
     0
 62
    60
  6
CONTINUOUS
  0
LAYER
  2
250
 70
     0
 62
     3
  6
CONTINUOUS
  0
ENDTAB
  0
TABLE
  2
STYLE
 70
     7
  0
STYLE
  2
STANDARD
 70
     0
 40
0.0
 41
1.0
 50
0.0
 71
     0
 42
3.0
  3
romans.shx
  4
extfont.shx
  0
STYLE
  2
ACISOGDT
 70
     0
 40
0.0
 41
1.0
 50
0.0
 71
     0
 42
3.0
  3
amgdt.shx
  4
extfont.shx
  0
STYLE
  2
YOKO
 70
     0
 40
0.0
 41
1.0
 50
0.0
 71
     0
 42
3.0
  3
romans.shx
  4
extfont.shx
  0
STYLE
  2

 70
     1
 40
0.0
 41
1.0
 50
0.0
 71
     0
 42
3.0
  3
genltshp.shx
  4

  0
ENDTAB
  0
TABLE
  2
VIEW
 70
     0
  0
ENDTAB
  0
TABLE
  2
UCS
 70
     0
  0
ENDTAB
  0
TABLE
  2
APPID
 70
    40
  0
APPID
  2
ACAD
 70
     0
  0
APPID
  2
GLOBAL
 70
     0
  0
APPID
  2
DETAIL
 70
     0
  0
APPID
  2
GRPNAME
 70
     0
  0
APPID
  2
GPARA
 70
     0
  0
APPID
  2
MCAD_NO_VIS
 70
     0
  0
APPID
  2
ACAD_TEMP_GRAPHIC
 70
     0
  0
APPID
  2
ACATTRIBSERVICES
 70
     0
  0
APPID
  2
GENIUS_GENSCREG_15
 70
     0
  0
APPID
  2
GENIUS_GENODEF_13
 70
     0
  0
APPID
  2
GENIUS_GENOBJ-N-SDF_13
 70
     0
  0
APPID
  2
GENIUS_GENREC_14
 70
     0
  0
APPID
  2
GENIUS_GENOBJ-N-REC_13
 70
     0
  0
APPID
  2
GENIUS_GENDIMSH_14
 70
     0
  0
APPID
  2
GENIUS_GENOBJ-N-DIM_13
 70
     0
  0
APPID
  2
GENIUS_GENDIM_13
 70
     0
  0
APPID
  2
GENIUS_GENDTOL_13
 70
     0
  0
APPID
  2
GENIUS_GENOLIS_13
 70
     0
  0
APPID
  2
GENIUS_GENOENT_13
 70
     0
  0
APPID
  2
GENIUS_GENOBJ-F-FEM_13
 70
     0
  0
APPID
  2
GENIUS_GENOREF_13
 70
     0
  0
APPID
  2
GENIUS_GEFFEM_13
 70
     0
  0
APPID
  2
GENIUS_GEFFEMP_13
 70
     0
  0
APPID
  2
AD_DRAW
 70
     0
  0
APPID
  2
DESIGNERASSEMBLIES
 70
     0
  0
APPID
  2
ACADM_DIM_EDIT
 70
     0
  0
APPID
  2
AMDT_DM_ADJ
 70
     0
  0
APPID
  2
ITEMNAME
 70
     0
  0
APPID
  2
GENIUS_GENOBJ-N-FIL_13
 70
     0
  0
APPID
  2
GENIUS_GENFIL_13
 70
     0
  0
APPID
  2
GENIUS_GENOBJ-N-CHA_13
 70
     0
  0
APPID
  2
ACAECLAYERSTANDARD
 70
     0
  0
APPID
  2
ACAD_NAV_VCDISPLAY
 70
     0
  0
APPID
  2
GENIUS_GENOBJ-N-CRS_13
 70
     0
  0
APPID
  2
ACAD_PSEXT
 70
     0
  0
APPID
  2
ACAD_DSTYLE_DIMJAG
 70
     0
  0
APPID
  2
ACAD_DSTYLE_DIMBREAK
 70
     0
  0
APPID
  2
ACAD_DSTYLE_DIMINSPECT
 70
     0
  0
APPID
  2
ACAD_EXEMPT_FROM_CAD_STANDARDS
 70
     0
  0
APPID
  2
ACAD_MLEADERVER
 70
     0
  0
ENDTAB
  0
TABLE
  2
DIMSTYLE
 70
    24
  0
DIMSTYLE
  2
BIGT
 70
     0
  3

  4

  5
OPEN
  6

  7

 40
1.0
 41
2.2299999999999991
 42
0.5
 43
7.0
 44
1.0
 45
0.0
 46
0.0
 47
0.0
 48
0.01
140
2.7999999999999989
141
0.0
142
0.0
143
25.399999999999999
144
1.0
145
0.0
146
1.0
147
1.0
 71
     0
 72
     0
 73
     0
 74
     0
 75
     0
 76
     0
 77
     3
 78
     9
170
     0
171
     2
172
     1
173
     0
174
     1
175
     0
176
   256
177
   256
178
    40
  0
DIMSTYLE
  2
AM_ISO
 70
     0
  3

  4
"
  5

  6

  7

 40
1.0
 41
2.5
 42
1.0
 43
10.0
 44
1.0
 45
0.0
 46
0.0
 47
0.1
 48
0.1
140
3.5
141
0.0
142
0.0
143
0.0393701
144
1.0
145
0.0
146
0.71
147
1.5
 71
     0
 72
     0
 73
     0
 74
     0
 75
     0
 76
     0
 77
     1
 78
     8
170
     0
171
     2
172
     1
173
     0
174
     0
175
     0
176
   256
177
   256
178
     2
  0
DIMSTYLE
  2
AM_ISO$3
 70
     0
  3

  4
"
  5

  6

  7

 40
1.0
 41
2.5
 42
1.0
 43
10.0
 44
1.0
 45
0.0
 46
0.0
 47
0.1
 48
0.1
140
3.5
141
0.0
142
0.0
143
0.0393701
144
1.0
145
0.0
146
0.71
147
1.5
 71
     0
 72
     0
 73
     0
 74
     1
 75
     0
 76
     0
 77
     1
 78
     8
170
     0
171
     2
172
     0
173
     0
174
     0
175
     0
176
   256
177
   256
178
     2
  0
DIMSTYLE
  2
AM_ISO$4
 70
     0
  3

  4
"
  5

  6

  7

 40
1.0
 41
2.5
 42
1.0
 43
10.0
 44
1.0
 45
0.0
 46
0.0
 47
0.1
 48
0.1
140
3.5
141
0.0
142
0.0
143
0.0393701
144
1.0
145
0.0
146
0.71
147
1.5
 71
     0
 72
     0
 73
     0
 74
     1
 75
     0
 76
     0
 77
     1
 78
     8
170
     0
171
     2
172
     0
173
     0
174
     0
175
     0
176
   256
177
   256
178
     2
  0
DIMSTYLE
  2
AM_ISO$6
 70
     0
  3

  4
"
  5

  6

  7

 40
1.0
 41
2.5
 42
1.0
 43
10.0
 44
1.0
 45
0.0
 46
0.0
 47
0.1
 48
0.1
140
3.5
141
0.0
142
0.0
143
0.0393701
144
1.0
145
0.0
146
0.71
147
1.5
 71
     0
 72
     0
 73
     0
 74
     0
 75
     0
 76
     0
 77
     0
 78
     8
170
     0
171
     2
172
     1
173
     0
174
     0
175
     0
176
   256
177
   256
178
     2
  0
DIMSTYLE
  2
AM_ISO$7
 70
     0
  3

  4
"
  5

  6

  7

 40
1.0
 41
2.5
 42
1.0
 43
10.0
 44
1.0
 45
0.0
 46
0.0
 47
0.1
 48
0.1
140
5.0
141
0.0
142
0.0
143
0.0393701
144
1.0
145
0.0
146
0.71
147
1.5
 71
     0
 72
     0
 73
     0
 74
     0
 75
     0
 76
     0
 77
     1
 78
     8
170
     0
171
     2
172
     1
173
     0
174
     0
175
     0
176
   256
177
   256
178
     2
  0
DIMSTYLE
  2
AM_ISO$SF
 70
     0
  3

  4
"
  5

  6

  7

 40
1.0
 41
2.5
 42
1.0
 43
10.0
 44
1.0
 45
0.0
 46
0.0
 47
0.1
 48
0.1
140
3.5
141
0.0
142
0.0
143
0.0393701
144
1.0
145
0.0
146
0.71
147
1.5
 71
     0
 72
     0
 73
     0
 74
     0
 75
     1
 76
     1
 77
     1
 78
     8
170
     0
171
     2
172
     1
173
     0
174
     0
175
     0
176
   256
177
   256
178
     2
  0
DIMSTYLE
  2
AM_ISO$SH
 70
     0
  3

  4
"
  5

  6
GENAXEH
  7

 40
1.0
 41
2.5
 42
1.0
 43
10.0
 44
1.0
 45
0.0
 46
0.0
 47
0.1
 48
0.1
140
3.5
141
0.0
142
0.0
143
0.0393701
144
2.0
145
0.0
146
0.71
147
1.5
 71
     0
 72
     0
 73
     0
 74
     0
 75
     1
 76
     1
 77
     1
 78
     8
170
     0
171
     2
172
     1
173
     1
174
     0
175
     0
176
   256
177
   256
178
     2
  0
DIMSTYLE
  2
STANDARD
 70
     0
  3

  4

  5

  6

  7

 40
1.0
 41
2.0
 42
2.0
 43
3.75
 44
2.0
 45
0.0
 46
0.0
 47
0.0
 48
0.0
140
4.0
141
0.09
142
0.0
143
25.399999999999999
144
1.0
145
0.0
146
1.0
147
1.0
 71
     0
 72
     0
 73
     1
 74
     1
 75
     0
 76
     0
 77
     0
 78
     8
170
     0
171
     2
172
     0
173
     1
174
     0
175
     0
176
   256
177
   256
178
   256
  0
ENDTAB
  0
ENDSEC
  0
SECTION
  2
BLOCKS
  0
BLOCK
  8
0
  2
$MODEL_SPACE
 70
     0
 10
0.0
 20
0.0
 30
0.0
  3
$MODEL_SPACE
  1

  0
ENDBLK
  5
1C
  8
0
  0
BLOCK
 67
     1
  8
0
  2
$PAPER_SPACE
 70
     0
 10
0.0
 20
0.0
 30
0.0
  3
$PAPER_SPACE
  1

  0
ENDBLK
  5
19
 67
     1
  8
0
  0
BLOCK
  8
0
  2
_OPEN
 70
     0
 10
0.0
 20
0.0
 30
0.0
  3
_OPEN
  1

  0
LINE
  5
3E1A
  8
0
  6
BYBLOCK
 62
     0
 10
-1.0
 20
0.1666666666666666
 30
0.0
 11
0.0
 21
0.0
 31
0.0
  0
LINE
  5
3E1B
  8
0
  6
BYBLOCK
 62
     0
 10
-1.0
 20
-0.1666666666666666
 30
0.0
 11
0.0
 21
0.0
 31
0.0
  0
LINE
  5
3E1C
  8
0
  6
BYBLOCK
 62
     0
 10
0.0
 20
0.0
 30
0.0
 11
-1.0
 21
0.0
 31
0.0
  0
ENDBLK
  5
3E1D
  8
0
  0
BLOCK
  8
0
  2
GENAXEH
 70
     0
 10
0.0
 20
0.0
 30
0.0
  3
GENAXEH
  1

  0
LINE
  5
3E45
  8
0
 10
-1.0
 20
0.0
 30
0.0
 11
1.0
 21
0.0
 31
0.0
  0
ENDBLK
  5
3E46
  8
0
  0
ENDSEC
  0
SECTION
  2
ENTITIES
  0
TEXT
  5
42B6
  8
241
  6
CONTINUOUS
 10
-91.0
 20
56.0
 30
0.0
 40
7.5
  1
MGT36-AP3/4-2.5
  7
YOKO
  0
LINE
  5
42B7
  8
245
  6
CENTER2
 10
-92.566831448673483
 20
0.0
 30
0.0
 11
66.033353562681768
 21
0.0
 31
0.0
  0
LINE
  5
42B8
  8
245
  6
CENTER2
 10
-66.000000000001819
 20
19.999999999979991
 30
0.0
 11
-66.000000000005471
 21
-20.000000000012729
 31
0.0
1001
GENIUS_GENOREF_13
1005
4336
  0
LINE
  5
42B9
  8
241
  6
CONTINUOUS
 10
-9.0000000000018172
 20
-20.000000000018829
 30
0.0
 11
-9.0000000000018172
 21
19.999999999986091
 31
0.0
  0
LINE
  5
42BA
  8
240
  6
CONTINUOUS
 10
-9.0000000000018172
 20
26.499999999980169
 30
0.0
 11
-7.6262612902781131
 21
26.999999999978169
 31
0.0
  0
LINE
  5
42BB
  8
240
  6
CONTINUOUS
 10
-0.0004294680931121
 20
26.999999999978169
 30
0.0
 11
-7.6262612902781131
 21
26.999999999978169
 31
0.0
  0
LINE
  5
42BC
  8
240
  6
CONTINUOUS
 10
-51.500000000020009
 20
19.999999999983629
 30
0.0
 11
-9.0000000000018172
 21
19.999999999986091
 31
0.0
  0
LINE
  5
42BD
  8
240
  6
CONTINUOUS
 10
-55.000000000020009
 20
16.499999999983629
 30
0.0
 11
-51.500000000020009
 21
19.999999999983629
 31
0.0
  0
LINE
  5
42BE
  8
240
  6
CONTINUOUS
 10
-55.000000000020009
 20
16.499999999983629
 30
0.0
 11
-66.000000000005471
 21
16.499999999983629
 31
0.0
  0
LINE
  5
42BF
  8
240
  6
CONTINUOUS
 10
-76.999999999987267
 20
16.49999999998181
 30
0.0
 11
-66.000000000001819
 21
16.499999999956341
 31
0.0
  0
LINE
  5
42C0
  8
240
  6
CONTINUOUS
 10
-76.999999999987267
 20
16.49999999998181
 30
0.0
 11
-80.499999999990905
 21
19.99999999998181
 31
0.0
  0
LINE
  5
42C1
  8
241
  6
CONTINUOUS
 10
-7.6262612902773981
 20
26.999999999977721
 30
0.0
 11
-7.6262612902773981
 21
-27.000000000010921
 31
0.0
  0
LINE
  5
42C2
  8
240
  6
CONTINUOUS
 10
-9.0000000000018172
 20
-26.500000000012921
 30
0.0
 11
-7.6262612902780802
 21
-27.000000000010921
 31
0.0
  0
LINE
  5
42C3
  8
240
  6
CONTINUOUS
 10
-0.0000000000023001
 20
-27.000000000010921
 30
0.0
 11
-7.6262612902780802
 21
-27.000000000010921
 31
0.0
  0
LINE
  5
42C4
  8
240
  6
CONTINUOUS
 10
-51.500000000020009
 20
-20.000000000016371
 30
0.0
 11
-9.0000000000018172
 21
-20.000000000018829
 31
0.0
  0
LINE
  5
42C5
  8
240
  6
CONTINUOUS
 10
-55.000000000020009
 20
-16.500000000016371
 30
0.0
 11
-51.500000000020009
 21
-20.000000000016371
 31
0.0
  0
LINE
  5
42C6
  8
240
  6
CONTINUOUS
 10
-55.000000000020009
 20
-16.500000000016371
 30
0.0
 11
-66.000000000005471
 21
-16.500000000016371
 31
0.0
  0
LINE
  5
42C7
  8
240
  6
CONTINUOUS
 10
-76.999999999987267
 20
-16.500000000014541
 30
0.0
 11
-66.000000000001819
 21
-16.499999999989079
 31
0.0
  0
LINE
  5
42C8
  8
240
  6
CONTINUOUS
 10
-76.999999999987267
 20
-16.500000000014541
 30
0.0
 11
-80.499999999990905
 21
-20.000000000014541
 31
0.0
  0
LINE
  5
42C9
  8
241
  6
CONTINUOUS
 10
-0.0000000000018435
 20
-27.000000000010921
 30
0.0
 11
0.0000000000018435
 21
26.999999999978169
 31
0.0
  0
LINE
  5
42CA
  8
240
  6
CONTINUOUS
 10
-90.000000000002771
 20
19.999999999995449
 30
0.0
 11
-80.499999999995453
 21
19.999999999995449
 31
0.0
  0
LINE
  5
42CB
  8
240
  6
CONTINUOUS
 10
-90.000000000000824
 20
-20.00000000000864
 30
0.0
 11
-90.000000000002771
 21
19.999999999995449
 31
0.0
  0
LINE
  5
42CC
  8
240
  6
CONTINUOUS
 10
-90.000000000000824
 20
-20.00000000000864
 30
0.0
 11
-80.499999999995453
 21
-20.00000000000864
 31
0.0
  0
LINE
  5
42CD
  8
241
  6
CONTINUOUS
 10
-45.000000000005457
 20
-20.00000000001674
 30
0.0
 11
-45.000000000001791
 21
19.999999999983999
 31
0.0
  0
LINE
  5
42CE
  8
241
  6
CONTINUOUS
 10
-31.500000000001808
 20
-20.000000000017529
 30
0.0
 11
-31.500000000001808
 21
19.99999999998478
 31
0.0
  0
LINE
  5
42CF
  8
241
  6
CONTINUOUS
 10
-42.500000000005457
 20
19.999999999984151
 30
0.0
 11
-42.500000000005457
 21
-20.00000000001689
 31
0.0
  0
LINE
  5
42D0
  8
241
  6
CONTINUOUS
 10
-29.000000000005471
 20
19.999999999984919
 30
0.0
 11
-29.000000000005461
 21
-20.000000000017671
 31
0.0
  0
LINE
  5
42D1
  8
240
  6
CONTINUOUS
 10
-9.0000000000018172
 20
19.999999999986091
 30
0.0
 11
-9.0000000000018172
 21
26.499999999980169
 31
0.0
  0
LINE
  5
42D2
  8
240
  6
CONTINUOUS
 10
-9.0000000000018172
 20
-20.000000000018829
 30
0.0
 11
-9.0000000000018172
 21
-26.500000000012921
 31
0.0
  0
LINE
  5
42D3
  8
247
  6
CONTINUOUS
 10
7.7062868435531859
 20
-11.750000000003791
 30
0.0
 11
7.7062868435532428
 21
-7.1153846156738112
 31
0.0
  0
LINE
  5
42D4
  8
247
  6
CONTINUOUS
 10
5.206286843553241
 20
-10.954893499991719
 30
0.0
 11
7.3062868434692509
 21
-11.55705881006114
 31
0.0
  0
LINE
  5
42D5
  8
247
  6
CONTINUOUS
 10
6.202440689667239
 20
-10.32515140352281
 30
0.0
 11
6.202440689667239
 21
-11.24053601887082
 31
0.0
  0
ARC
  5
42D6
  8
247
  6
CONTINUOUS
 10
5.5910059108473433
 20
-10.08726340195059
 30
0.0
 40
0.3876715809326743
 50
72.997889675291987
 51
172.92416621851271
  0
ARC
  5
42D7
  8
247
  6
CONTINUOUS
 10
5.5115099745812559
 20
-10.38247755680789
 30
0.0
 40
0.6933047965358772
 50
4.7429368522014004
 51
73.849226273266481
1001
GENIUS_GENOBJ-N-FIL_13
1002
{
1000
OWNER
1000
GEN
1002
}
1001
GENIUS_GENODEF_13
1002
{
1000
HIER
1070
     0
1002
}
1002
{
1000
MANEDIT
1070
     0
1002
}
1002
{
1000
NOSEL
1070
     0
1002
}
1002
{
1000
BEHIND
1070
     0
1002
}
1002
{
1000
OTHER
1070
     0
1002
}
1002
{
1000
REACTOR
1002
}
  0
LINE
  5
42D8
  8
247
  6
CONTINUOUS
 10
7.3062868434692509
 20
-10.64167419471314
 30
0.0
 11
7.3062868434692509
 21
-11.55705881006114
 31
0.0
  0
LINE
  5
42D9
  8
247
  6
CONTINUOUS
 10
5.206286843553241
 20
-10.95489349999173
 30
0.0
 11
5.206286843553241
 21
-10.03950888464373
 31
0.0
  0
ARC
  5
42DA
  8
247
  6
CONTINUOUS
 10
6.5937038063211171
 20
-10.378306476270611
 30
0.0
 40
0.394857301075386
 50
65.990941652528775
 51
172.2634434590698
  0
ARC
  5
42DB
  8
247
  6
CONTINUOUS
 10
6.5974871708858132
 20
-10.712446610430691
 30
0.0
 40
0.7123241612361686
 50
5.7019851642581454
 51
77.27733843682222
1001
GENIUS_GENOBJ-N-FIL_13
1002
{
1000
OWNER
1000
GEN
1002
}
1001
GENIUS_GENODEF_13
1002
{
1000
HIER
1070
     0
1002
}
1002
{
1000
MANEDIT
1070
     0
1002
}
1002
{
1000
NOSEL
1070
     0
1002
}
1002
{
1000
BEHIND
1070
     0
1002
}
1002
{
1000
OTHER
1070
     0
1002
}
1002
{
1000
REACTOR
1002
}
  0
LINE
  5
42DC
  8
247
  6
CONTINUOUS
 10
7.3062868434692509
 20
-9.683981887067155
 30
0.0
 11
5.206286843553241
 21
-9.0818165769977437
 31
0.0
  0
LINE
  5
42DD
  8
247
  6
CONTINUOUS
 10
5.206286843553241
 20
-7.5856627309117419
 30
0.0
 11
5.206286843553241
 21
-7.9816783643073634
 31
0.0
  0
LINE
  5
42DE
  8
247
  6
CONTINUOUS
 10
7.3062868434692509
 20
-8.6087396539477439
 30
0.0
 11
7.3062868434692509
 21
-8.1779704231957524
 31
0.0
  0
ARC
  5
42DF
  8
247
  6
CONTINUOUS
 10
6.6645864386366052
 20
-7.3818165770737423
 30
0.0
 40
1.576855057639547
 50
202.35948814152741
 51
254.99324854284589
  0
ARC
  5
42E0
  8
247
  6
CONTINUOUS
 10
5.7721057020913804
 20
-7.8475113661370051
 30
0.0
 40
0.6234706797009447
 50
94.994589319075374
 51
155.16632895730319
1001
GENIUS_GENOBJ-N-FIL_13
1002
{
1000
OWNER
1000
GEN
1002
}
1001
GENIUS_GENODEF_13
1002
{
1000
HIER
1070
     0
1002
}
1002
{
1000
MANEDIT
1070
     0
1002
}
1002
{
1000
NOSEL
1070
     0
1002
}
1002
{
1000
BEHIND
1070
     0
1002
}
1002
{
1000
OTHER
1070
     0
1002
}
1002
{
1000
REACTOR
1002
}
  0
ARC
  5
42E1
  8
247
  6
CONTINUOUS
 10
6.3683889655226809
 20
-8.4441839510365568
 30
0.0
 40
0.9749472149106983
 50
15.846096555779839
 51
82.325137004169122
  0
ARC
  5
42E2
  8
247
  6
CONTINUOUS
 10
6.5777572455243103
 20
-8.0352116387759942
 30
0.0
 40
0.9271945638692009
 50
249.71360167049701
 51
321.7887456564099
1001
GENIUS_GENOBJ-N-FIL_13
1002
{
1000
OWNER
1000
GEN
1002
}
1001
GENIUS_GENODEF_13
1002
{
1000
HIER
1070
     0
1002
}
1002
{
1000
MANEDIT
1070
     0
1002
}
1002
{
1000
NOSEL
1070
     0
1002
}
1002
{
1000
BEHIND
1070
     0
1002
}
1002
{
1000
OTHER
1070
     0
1002
}
1002
{
1000
REACTOR
1002
}
  0
LINE
  5
42E3
  8
247
  6
CONTINUOUS
 10
6.4985945358092172
 20
-7.9625858078197398
 30
0.0
 11
6.4985945358092172
 21
-7.4779704232237441
 31
0.0
  0
ARC
  5
42E4
  8
247
  6
CONTINUOUS
 10
6.456286843553241
 20
-11.750000000003791
 30
0.0
 40
1.25
 50
180.0
 51
0.0
  0
LINE
  5
42E5
  8
247
  6
CONTINUOUS
 10
5.206286843553241
 20
-11.750000000003791
 30
0.0
 11
5.206286843553241
 21
-11.30384615391778
 31
0.0
  0
ARC
  5
42E6
  8
247
  6
CONTINUOUS
 10
6.456286843553241
 20
-7.1153846156737961
 30
0.0
 40
1.25
 50
0.0
 51
180.0
  0
POINT
  5
4336
  8
0
 10
-15041.480041667361
 20
9982.2519074072497
 30
0.0
1001
GENIUS_GENOLIS_13
1002
{
1000
ENT
1005
0
1005
0
1005
42B8
1005
0
1002
}
1001
GENIUS_GENOENT_13
1002
{
1000
MYREF
1005
4336
1002
}
1002
{
1000
GRP
1005
0
1002
}
1001
GENIUS_GENOBJ-N-CRS_13
1002
{
1000
OWNER
1000
GEN
1002
}
1001
GENIUS_GENODEF_13
1002
{
1000
HIER
1070
    10
1002
}
1002
{
1000
MANEDIT
1070
     1
1002
}
1002
{
1000
NOSEL
1070
     0
1002
}
1002
{
1000
BEHIND
1070
     0
1002
}
1002
{
1000
OTHER
1070
     0
1002
}
1002
{
1000
REACTOR
1002
}
  0
LINE
  5
4371
  8
241
  6
CONTINUOUS
 10
45.499785265915669
 20
-21.500801398383999
 30
0.0
 11
45.499785265916699
 21
21.499999999999861
 31
0.0
  0
LINE
  5
4372
  8
241
  6
CONTINUOUS
 10
43.89978526591031
 20
-21.500801398383992
 30
0.0
 11
43.899785265910651
 21
21.499999999999861
 31
0.0
  0
LINE
  5
4373
  8
241
  6
CONTINUOUS
 10
42.499785265916742
 20
-21.500801398383992
 30
0.0
 11
42.499785265915847
 21
21.499999999999861
 31
0.0
  0
LINE
  5
4374
  8
241
  6
CONTINUOUS
 10
40.899785265910033
 20
-21.500801398383992
 30
0.0
 11
40.899785265910928
 21
21.499999999999861
 31
0.0
  0
LINE
  5
4377
  8
240
  6
CONTINUOUS
 10
63.499785265952973
 20
-18.499999999999972
 30
0.0
 11
63.499785265952973
 21
18.499999999999829
 31
0.0
  0
LINE
  5
4379
  8
241
  6
CONTINUOUS
 10
59.028785265958248
 20
-21.500000000000139
 30
0.0
 11
59.028785265960401
 21
21.49999999999628
 31
0.0
  0
LINE
  5
437A
  8
241
  6
CONTINUOUS
 10
57.970484741539757
 20
-21.50000000000006
 30
0.0
 11
57.970484741539707
 21
21.49999999999633
 31
0.0
  0
LINE
  5
437B
  8
240
  6
CONTINUOUS
 10
1.274906986011874
 20
-22.241982353281379
 30
0.0
 11
-0.0000000000023002
 21
-27.000000000010921
 31
0.0
  0
LINE
  5
437C
  8
240
  6
CONTINUOUS
 10
2.2408328123009462
 20
-21.500801398383899
 30
0.0
 11
60.498983867569002
 21
-21.500801398384031
 31
0.0
  0
LINE
  5
437E
  8
240
  6
CONTINUOUS
 10
2.2408328123009009
 20
21.49919860161619
 30
0.0
 11
60.500586664336829
 21
21.499198601616062
 31
0.0
  0
LINE
  5
4380
  8
240
  6
CONTINUOUS
 10
1.2749069860118341
 20
22.24037955651367
 30
0.0
 11
-0.0004294680931121
 21
26.999999999978169
 31
0.0
  0
LINE
  5
4381
  8
243
  6
HIDDEN2
 10
36.499785265954962
 20
-11.51000000000081
 30
0.0
 11
36.499785265955069
 21
11.510000000000369
 31
0.0
  0
LINE
  5
4382
  8
243
  6
HIDDEN2
 10
36.499785265955069
 20
11.510000000000369
 30
0.0
 11
63.499785265952973
 21
11.510000000000369
 31
0.0
  0
LINE
  5
4383
  8
243
  6
HIDDEN2
 10
16.999785265954479
 20
8.6749999999996561
 30
0.0
 11
16.999785265955119
 21
-8.6750000000015035
 31
0.0
1001
GRPNAME
1000
0000002L
  0
CIRCLE
  5
4384
  8
241
  6
CONTINUOUS
 10
28.49978526595865
 20
-0.0000000000001847
 30
0.0
 40
3.3749999999999432
  0
CIRCLE
  5
4385
  8
242
  6
CONTINUOUS
 10
28.49978526595865
 20
-0.0000000000001847
 30
0.0
 40
4.0000000000000284
  0
LINE
  5
4387
  8
243
  6
HIDDEN2
 10
36.499785265954962
 20
-11.51000000000081
 30
0.0
 11
63.499785265952973
 21
-11.50999999999649
 31
0.0
  0
LINE
  5
4389
  8
243
  6
HIDDEN2
 10
16.999785265954479
 20
8.6749999999996561
 30
0.0
 11
36.499785265955062
 21
8.6749999999996561
 31
0.0
  0
LINE
  5
438A
  8
243
  6
HIDDEN2
 10
16.999785265955119
 20
-8.6750000000015035
 30
0.0
 11
36.499785265954969
 21
-8.6750000000015035
 31
0.0
  0
LINE
  5
438B
  8
244
  6
HIDDEN2
 10
16.999785265954479
 20
8.6749999999996561
 30
0.0
 11
36.499785265954969
 21
-8.6750000000029157
 31
0.0
  0
LINE
  5
438C
  8
244
  6
HIDDEN2
 10
16.999785265955119
 20
-8.6750000000015035
 30
0.0
 11
36.499785265955062
 21
8.6750000000001553
 31
0.0
  0
LINE
  5
438D
  8
245
  6
CENTER2
 10
28.49978526595865
 20
4.735784032559053
 30
0.0
 11
28.49978526595865
 21
-4.9325213159449666
 31
0.0
  0
LINE
  5
438E
  8
241
  6
CONTINUOUS
 10
60.49978526595234
 20
21.320359442248812
 30
0.0
 11
60.499785265953939
 21
-21.499999999999091
 31
0.0
  0
LINE
  5
438F
  8
240
  6
CONTINUOUS
 10
63.499785265952973
 20
-18.499999999999972
 30
0.0
 11
60.498983867569002
 21
-21.500801398384031
 31
0.0
  0
LINE
  5
4390
  8
240
  6
CONTINUOUS
 10
63.499785265952973
 20
18.499999999999819
 30
0.0
 11
60.500586664336829
 21
21.499198601616062
 31
0.0
  0
ARC
  5
4391
  8
240
  6
CONTINUOUS
 10
2.240832812300944
 20
-22.500801398383899
 30
0.0
 40
1.0
 50
89.999999999999844
 51
165.0000000000004
1001
GENIUS_GENODEF_13
1002
{
1000
HIER
1070
     0
1002
}
1002
{
1000
MANEDIT
1070
     0
1002
}
1002
{
1000
NOSEL
1070
     0
1002
}
1002
{
1000
BEHIND
1070
     0
1002
}
1002
{
1000
OTHER
1070
     0
1002
}
1002
{
1000
REACTOR
1002
}
1001
GENIUS_GENOBJ-N-FIL_13
1002
{
1000
OWNER
1000
GEN
1002
}
  0
ARC
  5
4393
  8
240
  6
CONTINUOUS
 10
2.2408328123009031
 20
22.49919860161619
 30
0.0
 40
1.0
 50
194.99999999999969
 51
269.99999999999977
1001
GENIUS_GENOBJ-N-FIL_13
1002
{
1000
OWNER
1000
GEN
1002
}
1001
GENIUS_GENODEF_13
1002
{
1000
HIER
1070
     0
1002
}
1002
{
1000
MANEDIT
1070
     0
1002
}
1002
{
1000
NOSEL
1070
     0
1002
}
1002
{
1000
BEHIND
1070
     0
1002
}
1002
{
1000
OTHER
1070
     0
1002
}
1002
{
1000
REACTOR
1002
}
  0
LINE
  5
439A
  8
241
  6
CONTINUOUS
 10
1.4735058243219381
 20
21.857942573559441
 30
0.0
 11
1.473505824321979
 21
-21.85954537032714
 31
0.0
  0
LINE
  5
45C7
  8
250
  6
CONTINUOUS
 10
0.0000000000018435
 20
27.499999999978169
 30
0.0
 11
0.0000000000018445
 21
43.0
 31
0.0
  0
LINE
  5
45C8
  8
250
  6
CONTINUOUS
 10
63.499785265952973
 20
18.999999999999829
 30
0.0
 11
63.499785265952973
 21
43.0
 31
0.0
  0
LINE
  5
45C9
  8
250
  6
CONTINUOUS
 10
2.2300000000018438
 20
42.0
 30
0.0
 11
61.269785265952969
 21
42.0
 31
0.0
  0
LINE
  5
45CD
  8
250
  6
CONTINUOUS
 10
63.999785265952973
 20
11.510000000000369
 30
0.0
 11
78.0
 21
11.510000000000369
 31
0.0
  0
LINE
  5
45CE
  8
250
  6
CONTINUOUS
 10
63.999785265952973
 20
-11.50999999999649
 30
0.0
 11
78.0
 21
-11.50999999999649
 31
0.0
  0
LINE
  5
45CF
  8
250
  6
CONTINUOUS
 10
77.0
 20
9.2800000000003688
 30
0.0
 11
77.0
 21
-9.2799999999964964
 31
0.0
  0
LINE
  5
45D3
  8
250
  6
CONTINUOUS
 10
61.000586663989473
 20
21.499179964444352
 30
0.0
 11
85.001062255570659
 21
21.498285362474469
 31
0.0
  0
LINE
  5
45D4
  8
250
  6
CONTINUOUS
 10
60.998983867221646
 20
-21.50082003555573
 30
0.0
 11
84.999459458802818
 21
-21.501714637525609
 31
0.0
  0
LINE
  5
45D5
  8
250
  6
CONTINUOUS
 10
84.000979134479564
 20
19.268322638367039
 30
0.0
 11
83.999542581283336
 21
-19.27167736473135
 31
0.0
  0
LINE
  5
45D9
  8
250
  6
CONTINUOUS
 10
16.499785265954479
 20
8.6749999999996561
 30
0.0
 11
12.69777134073934
 21
8.6749999999996561
 31
0.0
  0
LINE
  5
45DA
  8
250
  6
CONTINUOUS
 10
16.499785265955119
 20
-8.6750000000015035
 30
0.0
 11
12.69777134073933
 21
-8.6750000000015035
 31
0.0
  0
LINE
  5
45DB
  8
250
  6
CONTINUOUS
 10
13.69777134073934
 20
6.4449999999996557
 30
0.0
 11
13.69777134073933
 21
-6.4450000000015022
 31
0.0
  0
TEXT
  5
45DF
  8
250
  6
CONTINUOUS
 10
28.416559299644071
 20
43.0
 30
0.0
 40
2.7999999999999989
  1
2.50
  0
LINE
  5
45E0
  8
250
  6
CONTINUOUS
 10
61.269785265952969
 20
42.371666666666663
 30
0.0
 11
63.499785265952973
 21
42.0
 31
0.0
  0
LINE
  5
45E1
  8
250
  6
CONTINUOUS
 10
61.269785265952969
 20
41.62833333333333
 30
0.0
 11
63.499785265952973
 21
42.0
 31
0.0
  0
LINE
  5
45E2
  8
250
  6
CONTINUOUS
 10
63.499785265952973
 20
42.0
 30
0.0
 11
61.269785265952969
 21
42.0
 31
0.0
  0
LINE
  5
45E3
  8
250
  6
CONTINUOUS
 10
2.2300000000018438
 20
41.62833333333333
 30
0.0
 11
0.0000000000018444
 21
42.0
 31
0.0
  0
LINE
  5
45E4
  8
250
  6
CONTINUOUS
 10
2.2300000000018438
 20
42.371666666666663
 30
0.0
 11
0.0000000000018444
 21
42.0
 31
0.0
  0
LINE
  5
45E5
  8
250
  6
CONTINUOUS
 10
0.0000000000018444
 20
42.0
 30
0.0
 11
2.2300000000018438
 21
42.0
 31
0.0
  0
TEXT
  5
45E6
  8
250
  6
CONTINUOUS
 10
75.999999999999986
 20
-7.2666666666647153
 30
0.0
 40
2.7999999999999989
  1
\U+2205.906
 50
90.0
  0
LINE
  5
45E7
  8
250
  6
CONTINUOUS
 10
77.371666666666655
 20
-9.2799999999964964
 30
0.0
 11
77.0
 21
-11.50999999999649
 31
0.0
  0
LINE
  5
45E8
  8
250
  6
CONTINUOUS
 10
76.62833333333333
 20
-9.2799999999964964
 30
0.0
 11
77.0
 21
-11.50999999999649
 31
0.0
  0
LINE
  5
45E9
  8
250
  6
CONTINUOUS
 10
77.0
 20
-11.50999999999649
 30
0.0
 11
77.0
 21
-9.2799999999964964
 31
0.0
  0
LINE
  5
45EA
  8
250
  6
CONTINUOUS
 10
76.62833333333333
 20
9.2800000000003688
 30
0.0
 11
77.0
 21
11.510000000000369
 31
0.0
  0
LINE
  5
45EB
  8
250
  6
CONTINUOUS
 10
77.371666666666655
 20
9.2800000000003688
 30
0.0
 11
77.0
 21
11.510000000000369
 31
0.0
  0
LINE
  5
45EC
  8
250
  6
CONTINUOUS
 10
77.0
 20
11.510000000000369
 30
0.0
 11
77.0
 21
9.2800000000003688
 31
0.0
  0
TEXT
  5
45ED
  8
250
  6
CONTINUOUS
 10
82.999989998347317
 20
-7.2683067504573469
 30
0.0
 40
2.7999999999999989
  1
\U+22051.693
 50
89.997864337437875
  0
LINE
  5
45EE
  8
250
  6
CONTINUOUS
 10
84.371209247691795
 20
-19.271691218362321
 30
0.0
 11
83.999459459497515
 21
-21.5016773631822
 31
0.0
  0
LINE
  5
45EF
  8
250
  6
CONTINUOUS
 10
83.627875914874863
 20
-19.271663511100378
 30
0.0
 11
83.999459459497515
 21
-21.5016773631822
 31
0.0
  0
LINE
  5
45F0
  8
250
  6
CONTINUOUS
 10
83.999459459497515
 20
-21.5016773631822
 30
0.0
 11
83.999542581283336
 21
-19.27167736473135
 31
0.0
  0
LINE
  5
45F1
  8
250
  6
CONTINUOUS
 10
83.629312468071063
 20
19.26833649199801
 30
0.0
 11
84.001062256265357
 21
21.498322636817889
 31
0.0
  0
LINE
  5
45F2
  8
250
  6
CONTINUOUS
 10
84.372645800888023
 20
19.268308784736071
 30
0.0
 11
84.001062256265357
 21
21.498322636817889
 31
0.0
  0
LINE
  5
45F3
  8
250
  6
CONTINUOUS
 10
84.001062256265357
 20
21.498322636817889
 30
0.0
 11
84.000979134479564
 21
19.268322638367039
 31
0.0
  0
TEXT
  5
45F4
  8
250
  6
CONTINUOUS
 10
12.69777134073933
 20
-7.600000000000918
 30
0.0
 40
2.7999999999999989
  1
üá
 50
90.0
  0
TEXT
  5
45F5
  8
250
  6
CONTINUOUS
 10
12.69777134073933
 20
-4.2666666666675841
 30
0.0
 40
2.7999999999999989
  1
.679
 50
90.0
  0
LINE
  5
45F6
  8
250
  6
CONTINUOUS
 10
13.326104674072671
 20
6.4449999999996548
 30
0.0
 11
13.69777134073934
 21
8.6749999999996561
 31
0.0
  0
LINE
  5
45F7
  8
250
  6
CONTINUOUS
 10
14.069438007405999
 20
6.4449999999996548
 30
0.0
 11
13.69777134073934
 21
8.6749999999996561
 31
0.0
  0
LINE
  5
45F8
  8
250
  6
CONTINUOUS
 10
13.69777134073934
 20
8.6749999999996561
 30
0.0
 11
13.69777134073934
 21
6.4449999999996548
 31
0.0
  0
LINE
  5
45F9
  8
250
  6
CONTINUOUS
 10
14.069438007405999
 20
-6.4450000000015031
 30
0.0
 11
13.69777134073933
 21
-8.6750000000015035
 31
0.0
  0
LINE
  5
45FA
  8
250
  6
CONTINUOUS
 10
13.326104674072671
 20
-6.4450000000015031
 30
0.0
 11
13.69777134073933
 21
-8.6750000000015035
 31
0.0
  0
LINE
  5
45FB
  8
250
  6
CONTINUOUS
 10
13.69777134073933
 20
-8.6750000000015035
 30
0.0
 11
13.69777134073933
 21
-6.4450000000015031
 31
0.0
  0
LINE
  5
468F
  8
245
  6
CENTER2
 10
47.375059412228858
 20
14.49488761590214
 30
0.0
 11
57.185596526830487
 21
14.49488761590214
 31
0.0
  0
LINE
  5
4690
  8
245
  6
CENTER2
 10
52.499785265956199
 20
18.09002171222971
 30
0.0
 11
52.499785265956262
 21
9.9092910052173657
 31
0.0
  0
POLYLINE
  5
4691
  8
242
  6
CONTINUOUS
 10
48.499785183906312
 20
14.2162658096897
 30
0.0
 66
     1
 70
     8
  0
VERTEX
  8
242
  5
479F
 10
48.4998
 20
14.2163
 30
0.000000
  70
    32
  0
VERTEX
  8
242
  5
47A0
 10
48.5046
 20
14.0775
 30
0.000000
  70
    32
  0
VERTEX
  8
242
  5
47A1
 10
48.5190
 20
13.9390
 30
0.000000
  70
    32
  0
VERTEX
  8
242
  5
47A2
 10
48.5431
 20
13.8012
 30
0.000000
  70
    32
  0
VERTEX
  8
242
  5
47A3
 10
48.5766
 20
13.6645
 30
0.000000
  70
    32
  0
VERTEX
  8
242
  5
47A4
 10
48.6197
 20
13.5290
 30
0.000000
  70
    32
  0
VERTEX
  8
242
  5
47A5
 10
48.6720
 20
13.3952
 30
0.000000
  70
    32
  0
VERTEX
  8
242
  5
47A6
 10
48.7336
 20
13.2634
 30
0.000000
  70
    32
  0
VERTEX
  8
242
  5
47A7
 10
48.8043
 20
13.1339
 30
0.000000
  70
    32
  0
VERTEX
  8
242
  5
47A8
 10
48.8838
 20
13.0070
 30
0.000000
  70
    32
  0
VERTEX
  8
242
  5
47A9
 10
48.9721
 20
12.8830
 30
0.000000
  70
    32
  0
VERTEX
  8
242
  5
47AA
 10
49.0689
 20
12.7622
 30
0.000000
  70
    32
  0
VERTEX
  8
242
  5
47AB
 10
49.1739
 20
12.6449
 30
0.000000
  70
    32
  0
VERTEX
  8
242
  5
47AC
 10
49.2870
 20
12.5314
 30
0.000000
  70
    32
  0
VERTEX
  8
242
  5
47AD
 10
49.4077
 20
12.4219
 30
0.000000
  70
    32
  0
VERTEX
  8
242
  5
47AE
 10
49.5360
 20
12.3168
 30
0.000000
  70
    32
  0
VERTEX
  8
242
  5
47AF
 10
49.6714
 20
12.2163
 30
0.000000
  70
    32
  0
VERTEX
  8
242
  5
47B0
 10
49.8135
 20
12.1205
 30
0.000000
  70
    32
  0
VERTEX
  8
242
  5
47B1
 10
49.9622
 20
12.0299
 30
0.000000
  70
    32
  0
VERTEX
  8
242
  5
47B2
 10
50.1170
 20
11.9445
 30
0.000000
  70
    32
  0
VERTEX
  8
242
  5
47B3
 10
50.2775
 20
11.8645
 30
0.000000
  70
    32
  0
VERTEX
  8
242
  5
47B4
 10
50.4434
 20
11.7902
 30
0.000000
  70
    32
  0
VERTEX
  8
242
  5
47B5
 10
50.6142
 20
11.7218
 30
0.000000
  70
    32
  0
VERTEX
  8
242
  5
47B6
 10
50.7896
 20
11.6594
 30
0.000000
  70
    32
  0
VERTEX
  8
242
  5
47B7
 10
50.9691
 20
11.6031
 30
0.000000
  70
    32
  0
VERTEX
  8
242
  5
47B8
 10
51.1522
 20
11.5532
 30
0.000000
  70
    32
  0
VERTEX
  8
242
  5
47B9
 10
51.3386
 20
11.5096
 30
0.000000
  70
    32
  0
VERTEX
  8
242
  5
47BA
 10
51.5279
 20
11.4726
 30
0.000000
  70
    32
  0
VERTEX
  8
242
  5
47BB
 10
51.7194
 20
11.4422
 30
0.000000
  70
    32
  0
VERTEX
  8
242
  5
47BC
 10
51.9129
 20
11.4185
 30
0.000000
  70
    32
  0
VERTEX
  8
242
  5
47BD
 10
52.1077
 20
11.4015
 30
0.000000
  70
    32
  0
VERTEX
  8
242
  5
47BE
 10
52.3035
 20
11.3912
 30
0.000000
  70
    32
  0
VERTEX
  8
242
  5
47BF
 10
52.4998
 20
11.3878
 30
0.000000
  70
    32
  0
VERTEX
  8
242
  5
47C0
 10
52.6961
 20
11.3912
 30
0.000000
  70
    32
  0
VERTEX
  8
242
  5
47C1
 10
52.8919
 20
11.4015
 30
0.000000
  70
    32
  0
VERTEX
  8
242
  5
47C2
 10
53.0867
 20
11.4185
 30
0.000000
  70
    32
  0
VERTEX
  8
242
  5
47C3
 10
53.2801
 20
11.4422
 30
0.000000
  70
    32
  0
VERTEX
  8
242
  5
47C4
 10
53.4717
 20
11.4726
 30
0.000000
  70
    32
  0
VERTEX
  8
242
  5
47C5
 10
53.6609
 20
11.5096
 30
0.000000
  70
    32
  0
VERTEX
  8
242
  5
47C6
 10
53.8473
 20
11.5532
 30
0.000000
  70
    32
  0
VERTEX
  8
242
  5
47C7
 10
54.0305
 20
11.6031
 30
0.000000
  70
    32
  0
VERTEX
  8
242
  5
47C8
 10
54.2100
 20
11.6594
 30
0.000000
  70
    32
  0
VERTEX
  8
242
  5
47C9
 10
54.3854
 20
11.7218
 30
0.000000
  70
    32
  0
VERTEX
  8
242
  5
47CA
 10
54.5562
 20
11.7902
 30
0.000000
  70
    32
  0
VERTEX
  8
242
  5
47CB
 10
54.7221
 20
11.8645
 30
0.000000
  70
    32
  0
VERTEX
  8
242
  5
47CC
 10
54.8826
 20
11.9445
 30
0.000000
  70
    32
  0
VERTEX
  8
242
  5
47CD
 10
55.0374
 20
12.0299
 30
0.000000
  70
    32
  0
VERTEX
  8
242
  5
47CE
 10
55.1860
 20
12.1205
 30
0.000000
  70
    32
  0
VERTEX
  8
242
  5
47CF
 10
55.3282
 20
12.2163
 30
0.000000
  70
    32
  0
VERTEX
  8
242
  5
47D0
 10
55.4636
 20
12.3168
 30
0.000000
  70
    32
  0
VERTEX
  8
242
  5
47D1
 10
55.5918
 20
12.4219
 30
0.000000
  70
    32
  0
VERTEX
  8
242
  5
47D2
 10
55.7126
 20
12.5314
 30
0.000000
  70
    32
  0
VERTEX
  8
242
  5
47D3
 10
55.8257
 20
12.6449
 30
0.000000
  70
    32
  0
VERTEX
  8
242
  5
47D4
 10
55.9307
 20
12.7622
 30
0.000000
  70
    32
  0
VERTEX
  8
242
  5
47D5
 10
56.0275
 20
12.8830
 30
0.000000
  70
    32
  0
VERTEX
  8
242
  5
47D6
 10
56.1157
 20
13.0070
 30
0.000000
  70
    32
  0
VERTEX
  8
242
  5
47D7
 10
56.1953
 20
13.1339
 30
0.000000
  70
    32
  0
VERTEX
  8
242
  5
47D8
 10
56.2660
 20
13.2634
 30
0.000000
  70
    32
  0
VERTEX
  8
242
  5
47D9
 10
56.3275
 20
13.3952
 30
0.000000
  70
    32
  0
VERTEX
  8
242
  5
47DA
 10
56.3799
 20
13.5290
 30
0.000000
  70
    32
  0
VERTEX
  8
242
  5
47DB
 10
56.4229
 20
13.6645
 30
0.000000
  70
    32
  0
VERTEX
  8
242
  5
47DC
 10
56.4565
 20
13.8012
 30
0.000000
  70
    32
  0
VERTEX
  8
242
  5
47DD
 10
56.4805
 20
13.9390
 30
0.000000
  70
    32
  0
VERTEX
  8
242
  5
47DE
 10
56.4950
 20
14.0775
 30
0.000000
  70
    32
  0
VERTEX
  8
242
  5
47DF
 10
56.4998
 20
14.2163
 30
0.000000
  70
    32
  0
VERTEX
  8
242
  5
47E0
 10
56.4950
 20
14.3551
 30
0.000000
  70
    32
  0
VERTEX
  8
242
  5
47E1
 10
56.4805
 20
14.4935
 30
0.000000
  70
    32
  0
VERTEX
  8
242
  5
47E2
 10
56.4565
 20
14.6313
 30
0.000000
  70
    32
  0
VERTEX
  8
242
  5
47E3
 10
56.4229
 20
14.7681
 30
0.000000
  70
    32
  0
VERTEX
  8
242
  5
47E4
 10
56.3799
 20
14.9035
 30
0.000000
  70
    32
  0
VERTEX
  8
242
  5
47E5
 10
56.3275
 20
15.0373
 30
0.000000
  70
    32
  0
VERTEX
  8
242
  5
47E6
 10
56.2660
 20
15.1691
 30
0.000000
  70
    32
  0
VERTEX
  8
242
  5
47E7
 10
56.1953
 20
15.2987
 30
0.000000
  70
    32
  0
VERTEX
  8
242
  5
47E8
 10
56.1157
 20
15.4256
 30
0.000000
  70
    32
  0
VERTEX
  8
242
  5
47E9
 10
56.0275
 20
15.5496
 30
0.000000
  70
    32
  0
VERTEX
  8
242
  5
47EA
 10
55.9307
 20
15.6704
 30
0.000000
  70
    32
  0
VERTEX
  8
242
  5
47EB
 10
55.8257
 20
15.7877
 30
0.000000
  70
    32
  0
VERTEX
  8
242
  5
47EC
 10
55.7126
 20
15.9012
 30
0.000000
  70
    32
  0
VERTEX
  8
242
  5
47ED
 10
55.5918
 20
16.0106
 30
0.000000
  70
    32
  0
VERTEX
  8
242
  5
47EE
 10
55.4636
 20
16.1157
 30
0.000000
  70
    32
  0
VERTEX
  8
242
  5
47EF
 10
55.3282
 20
16.2163
 30
0.000000
  70
    32
  0
VERTEX
  8
242
  5
47F0
 10
55.1860
 20
16.3120
 30
0.000000
  70
    32
  0
VERTEX
  8
242
  5
47F1
 10
55.0374
 20
16.4027
 30
0.000000
  70
    32
  0
VERTEX
  8
242
  5
47F2
 10
54.8826
 20
16.4881
 30
0.000000
  70
    32
  0
VERTEX
  8
242
  5
47F3
 10
54.7221
 20
16.5680
 30
0.000000
  70
    32
  0
VERTEX
  8
242
  5
47F4
 10
54.5562
 20
16.6423
 30
0.000000
  70
    32
  0
VERTEX
  8
242
  5
47F5
 10
54.3854
 20
16.7107
 30
0.000000
  70
    32
  0
VERTEX
  8
242
  5
47F6
 10
54.2100
 20
16.7731
 30
0.000000
  70
    32
  0
VERTEX
  8
242
  5
47F7
 10
54.0305
 20
16.8294
 30
0.000000
  70
    32
  0
VERTEX
  8
242
  5
47F8
 10
53.8473
 20
16.8794
 30
0.000000
  70
    32
  0
VERTEX
  8
242
  5
47F9
 10
53.6609
 20
16.9229
 30
0.000000
  70
    32
  0
VERTEX
  8
242
  5
47FA
 10
53.4717
 20
16.9599
 30
0.000000
  70
    32
  0
VERTEX
  8
242
  5
47FB
 10
53.2801
 20
16.9903
 30
0.000000
  70
    32
  0
VERTEX
  8
242
  5
47FC
 10
53.0867
 20
17.0141
 30
0.000000
  70
    32
  0
VERTEX
  8
242
  5
47FD
 10
52.8919
 20
17.0311
 30
0.000000
  70
    32
  0
VERTEX
  8
242
  5
47FE
 10
52.6961
 20
17.0413
 30
0.000000
  70
    32
  0
VERTEX
  8
242
  5
47FF
 10
52.4998
 20
17.0447
 30
0.000000
  70
    32
  0
VERTEX
  8
242
  5
4800
 10
52.3035
 20
17.0413
 30
0.000000
  70
    32
  0
VERTEX
  8
242
  5
4801
 10
52.1077
 20
17.0311
 30
0.000000
  70
    32
  0
VERTEX
  8
242
  5
4802
 10
51.9129
 20
17.0141
 30
0.000000
  70
    32
  0
VERTEX
  8
242
  5
4803
 10
51.7194
 20
16.9903
 30
0.000000
  70
    32
  0
VERTEX
  8
242
  5
4804
 10
51.5279
 20
16.9599
 30
0.000000
  70
    32
  0
VERTEX
  8
242
  5
4805
 10
51.3386
 20
16.9229
 30
0.000000
  70
    32
  0
VERTEX
  8
242
  5
4806
 10
51.1522
 20
16.8794
 30
0.000000
  70
    32
  0
VERTEX
  8
242
  5
4807
 10
50.9691
 20
16.8294
 30
0.000000
  70
    32
  0
VERTEX
  8
242
  5
4808
 10
50.7896
 20
16.7731
 30
0.000000
  70
    32
  0
VERTEX
  8
242
  5
4809
 10
50.6142
 20
16.7107
 30
0.000000
  70
    32
  0
VERTEX
  8
242
  5
480A
 10
50.4434
 20
16.6423
 30
0.000000
  70
    32
  0
VERTEX
  8
242
  5
480B
 10
50.2775
 20
16.5680
 30
0.000000
  70
    32
  0
VERTEX
  8
242
  5
480C
 10
50.1170
 20
16.4881
 30
0.000000
  70
    32
  0
VERTEX
  8
242
  5
480D
 10
49.9622
 20
16.4027
 30
0.000000
  70
    32
  0
VERTEX
  8
242
  5
480E
 10
49.8135
 20
16.3120
 30
0.000000
  70
    32
  0
VERTEX
  8
242
  5
480F
 10
49.6714
 20
16.2163
 30
0.000000
  70
    32
  0
VERTEX
  8
242
  5
4810
 10
49.5360
 20
16.1157
 30
0.000000
  70
    32
  0
VERTEX
  8
242
  5
4811
 10
49.4077
 20
16.0106
 30
0.000000
  70
    32
  0
VERTEX
  8
242
  5
4812
 10
49.2870
 20
15.9012
 30
0.000000
  70
    32
  0
VERTEX
  8
242
  5
4813
 10
49.1739
 20
15.7877
 30
0.000000
  70
    32
  0
VERTEX
  8
242
  5
4814
 10
49.0689
 20
15.6704
 30
0.000000
  70
    32
  0
VERTEX
  8
242
  5
4815
 10
48.9721
 20
15.5496
 30
0.000000
  70
    32
  0
VERTEX
  8
242
  5
4816
 10
48.8838
 20
15.4256
 30
0.000000
  70
    32
  0
VERTEX
  8
242
  5
4817
 10
48.8043
 20
15.2987
 30
0.000000
  70
    32
  0
VERTEX
  8
242
  5
4818
 10
48.7336
 20
15.1691
 30
0.000000
  70
    32
  0
VERTEX
  8
242
  5
4819
 10
48.6720
 20
15.0373
 30
0.000000
  70
    32
  0
VERTEX
  8
242
  5
481A
 10
48.6197
 20
14.9035
 30
0.000000
  70
    32
  0
VERTEX
  8
242
  5
481B
 10
48.5766
 20
14.7681
 30
0.000000
  70
    32
  0
VERTEX
  8
242
  5
481C
 10
48.5431
 20
14.6313
 30
0.000000
  70
    32
  0
VERTEX
  8
242
  5
481D
 10
48.5190
 20
14.4935
 30
0.000000
  70
    32
  0
VERTEX
  8
242
  5
481E
 10
48.5046
 20
14.3551
 30
0.000000
  70
    32
  0
VERTEX
  8
242
  5
481F
 10
48.4998
 20
14.2163
 30
0.000000
  70
    32
  0
SEQEND
  8
242
  5
4820
  0
POLYLINE
  5
4692
  8
241
  6
CONTINUOUS
 10
49.124785187490794
 20
14.297089617390659
 30
0.0
 66
     1
 70
     8
  0
VERTEX
  8
241
  5
4821
 10
49.1248
 20
14.2971
 30
0.000000
  70
    32
  0
VERTEX
  8
241
  5
4822
 10
49.1289
 20
14.1800
 30
0.000000
  70
    32
  0
VERTEX
  8
241
  5
4823
 10
49.1410
 20
14.0632
 30
0.000000
  70
    32
  0
VERTEX
  8
241
  5
4824
 10
49.1613
 20
13.9469
 30
0.000000
  70
    32
  0
VERTEX
  8
241
  5
4825
 10
49.1896
 20
13.8315
 30
0.000000
  70
    32
  0
VERTEX
  8
241
  5
4826
 10
49.2259
 20
13.7172
 30
0.000000
  70
    32
  0
VERTEX
  8
241
  5
4827
 10
49.2701
 20
13.6043
 30
0.000000
  70
    32
  0
VERTEX
  8
241
  5
4828
 10
49.3221
 20
13.4931
 30
0.000000
  70
    32
  0
VERTEX
  8
241
  5
4829
 10
49.3817
 20
13.3838
 30
0.000000
  70
    32
  0
VERTEX
  8
241
  5
482A
 10
49.4488
 20
13.2767
 30
0.000000
  70
    32
  0
VERTEX
  8
241
  5
482B
 10
49.5233
 20
13.1721
 30
0.000000
  70
    32
  0
VERTEX
  8
241
  5
482C
 10
49.6050
 20
13.0702
 30
0.000000
  70
    32
  0
VERTEX
  8
241
  5
482D
 10
49.6936
 20
12.9712
 30
0.000000
  70
    32
  0
VERTEX
  8
241
  5
482E
 10
49.7890
 20
12.8755
 30
0.000000
  70
    32
  0
VERTEX
  8
241
  5
482F
 10
49.8909
 20
12.7831
 30
0.000000
  70
    32
  0
VERTEX
  8
241
  5
4830
 10
49.9991
 20
12.6944
 30
0.000000
  70
    32
  0
VERTEX
  8
241
  5
4831
 10
50.1133
 20
12.6096
 30
0.000000
  70
    32
  0
VERTEX
  8
241
  5
4832
 10
50.2333
 20
12.5288
 30
0.000000
  70
    32
  0
VERTEX
  8
241
  5
4833
 10
50.3587
 20
12.4523
 30
0.000000
  70
    32
  0
VERTEX
  8
241
  5
4834
 10
50.4893
 20
12.3802
 30
0.000000
  70
    32
  0
VERTEX
  8
241
  5
4835
 10
50.6247
 20
12.3128
 30
0.000000
  70
    32
  0
VERTEX
  8
241
  5
4836
 10
50.7647
 20
12.2501
 30
0.000000
  70
    32
  0
VERTEX
  8
241
  5
4837
 10
50.9088
 20
12.1924
 30
0.000000
  70
    32
  0
VERTEX
  8
241
  5
4838
 10
51.0568
 20
12.1397
 30
0.000000
  70
    32
  0
VERTEX
  8
241
  5
4839
 10
51.2082
 20
12.0923
 30
0.000000
  70
    32
  0
VERTEX
  8
241
  5
483A
 10
51.3628
 20
12.0501
 30
0.000000
  70
    32
  0
VERTEX
  8
241
  5
483B
 10
51.5201
 20
12.0134
 30
0.000000
  70
    32
  0
VERTEX
  8
241
  5
483C
 10
51.6797
 20
11.9821
 30
0.000000
  70
    32
  0
VERTEX
  8
241
  5
483D
 10
51.8414
 20
11.9565
 30
0.000000
  70
    32
  0
VERTEX
  8
241
  5
483E
 10
52.0046
 20
11.9364
 30
0.000000
  70
    32
  0
VERTEX
  8
241
  5
483F
 10
52.1690
 20
11.9221
 30
0.000000
  70
    32
  0
VERTEX
  8
241
  5
4840
 10
52.3342
 20
11.9135
 30
0.000000
  70
    32
  0
VERTEX
  8
241
  5
4841
 10
52.4998
 20
11.9106
 30
0.000000
  70
    32
  0
VERTEX
  8
241
  5
4842
 10
52.6654
 20
11.9135
 30
0.000000
  70
    32
  0
VERTEX
  8
241
  5
4843
 10
52.8306
 20
11.9221
 30
0.000000
  70
    32
  0
VERTEX
  8
241
  5
4844
 10
52.9950
 20
11.9364
 30
0.000000
  70
    32
  0
VERTEX
  8
241
  5
4845
 10
53.1582
 20
11.9565
 30
0.000000
  70
    32
  0
VERTEX
  8
241
  5
4846
 10
53.3198
 20
11.9821
 30
0.000000
  70
    32
  0
VERTEX
  8
241
  5
4847
 10
53.4795
 20
12.0134
 30
0.000000
  70
    32
  0
VERTEX
  8
241
  5
4848
 10
53.6368
 20
12.0501
 30
0.000000
  70
    32
  0
VERTEX
  8
241
  5
4849
 10
53.7913
 20
12.0923
 30
0.000000
  70
    32
  0
VERTEX
  8
241
  5
484A
 10
53.9428
 20
12.1397
 30
0.000000
  70
    32
  0
VERTEX
  8
241
  5
484B
 10
54.0907
 20
12.1924
 30
0.000000
  70
    32
  0
VERTEX
  8
241
  5
484C
 10
54.2349
 20
12.2501
 30
0.000000
  70
    32
  0
VERTEX
  8
241
  5
484D
 10
54.3748
 20
12.3128
 30
0.000000
  70
    32
  0
VERTEX
  8
241
  5
484E
 10
54.5103
 20
12.3802
 30
0.000000
  70
    32
  0
VERTEX
  8
241
  5
484F
 10
54.6409
 20
12.4523
 30
0.000000
  70
    32
  0
VERTEX
  8
241
  5
4850
 10
54.7663
 20
12.5288
 30
0.000000
  70
    32
  0
VERTEX
  8
241
  5
4851
 10
54.8863
 20
12.6096
 30
0.000000
  70
    32
  0
VERTEX
  8
241
  5
4852
 10
55.0005
 20
12.6944
 30
0.000000
  70
    32
  0
VERTEX
  8
241
  5
4853
 10
55.1087
 20
12.7831
 30
0.000000
  70
    32
  0
VERTEX
  8
241
  5
4854
 10
55.2106
 20
12.8755
 30
0.000000
  70
    32
  0
VERTEX
  8
241
  5
4855
 10
55.3060
 20
12.9712
 30
0.000000
  70
    32
  0
VERTEX
  8
241
  5
4856
 10
55.3946
 20
13.0702
 30
0.000000
  70
    32
  0
VERTEX
  8
241
  5
4857
 10
55.4763
 20
13.1721
 30
0.000000
  70
    32
  0
VERTEX
  8
241
  5
4858
 10
55.5507
 20
13.2767
 30
0.000000
  70
    32
  0
VERTEX
  8
241
  5
4859
 10
55.6179
 20
13.3838
 30
0.000000
  70
    32
  0
VERTEX
  8
241
  5
485A
 10
55.6775
 20
13.4931
 30
0.000000
  70
    32
  0
VERTEX
  8
241
  5
485B
 10
55.7295
 20
13.6043
 30
0.000000
  70
    32
  0
VERTEX
  8
241
  5
485C
 10
55.7736
 20
13.7172
 30
0.000000
  70
    32
  0
VERTEX
  8
241
  5
485D
 10
55.8099
 20
13.8315
 30
0.000000
  70
    32
  0
VERTEX
  8
241
  5
485E
 10
55.8383
 20
13.9469
 30
0.000000
  70
    32
  0
VERTEX
  8
241
  5
485F
 10
55.8585
 20
14.0632
 30
0.000000
  70
    32
  0
VERTEX
  8
241
  5
4860
 10
55.8707
 20
14.1800
 30
0.000000
  70
    32
  0
VERTEX
  8
241
  5
4861
 10
55.8748
 20
14.2971
 30
0.000000
  70
    32
  0
VERTEX
  8
241
  5
4862
 10
55.8707
 20
14.4142
 30
0.000000
  70
    32
  0
VERTEX
  8
241
  5
4863
 10
55.8585
 20
14.5310
 30
0.000000
  70
    32
  0
VERTEX
  8
241
  5
4864
 10
55.8383
 20
14.6473
 30
0.000000
  70
    32
  0
VERTEX
  8
241
  5
4865
 10
55.8099
 20
14.7627
 30
0.000000
  70
    32
  0
VERTEX
  8
241
  5
4866
 10
55.7736
 20
14.8770
 30
0.000000
  70
    32
  0
VERTEX
  8
241
  5
4867
 10
55.7295
 20
14.9898
 30
0.000000
  70
    32
  0
VERTEX
  8
241
  5
4868
 10
55.6775
 20
15.1011
 30
0.000000
  70
    32
  0
VERTEX
  8
241
  5
4869
 10
55.6179
 20
15.2104
 30
0.000000
  70
    32
  0
VERTEX
  8
241
  5
486A
 10
55.5507
 20
15.3174
 30
0.000000
  70
    32
  0
VERTEX
  8
241
  5
486B
 10
55.4763
 20
15.4221
 30
0.000000
  70
    32
  0
VERTEX
  8
241
  5
486C
 10
55.3946
 20
15.5240
 30
0.000000
  70
    32
  0
VERTEX
  8
241
  5
486D
 10
55.3060
 20
15.6229
 30
0.000000
  70
    32
  0
VERTEX
  8
241
  5
486E
 10
55.2106
 20
15.7187
 30
0.000000
  70
    32
  0
VERTEX
  8
241
  5
486F
 10
55.1087
 20
15.8111
 30
0.000000
  70
    32
  0
VERTEX
  8
241
  5
4870
 10
55.0005
 20
15.8998
 30
0.000000
  70
    32
  0
VERTEX
  8
241
  5
4871
 10
54.8863
 20
15.9846
 30
0.000000
  70
    32
  0
VERTEX
  8
241
  5
4872
 10
54.7663
 20
16.0654
 30
0.000000
  70
    32
  0
VERTEX
  8
241
  5
4873
 10
54.6409
 20
16.1419
 30
0.000000
  70
    32
  0
VERTEX
  8
241
  5
4874
 10
54.5103
 20
16.2139
 30
0.000000
  70
    32
  0
VERTEX
  8
241
  5
4875
 10
54.3748
 20
16.2814
 30
0.000000
  70
    32
  0
VERTEX
  8
241
  5
4876
 10
54.2349
 20
16.3440
 30
0.000000
  70
    32
  0
VERTEX
  8
241
  5
4877
 10
54.0907
 20
16.4018
 30
0.000000
  70
    32
  0
VERTEX
  8
241
  5
4878
 10
53.9428
 20
16.4544
 30
0.000000
  70
    32
  0
VERTEX
  8
241
  5
4879
 10
53.7913
 20
16.5019
 30
0.000000
  70
    32
  0
VERTEX
  8
241
  5
487A
 10
53.6368
 20
16.5441
 30
0.000000
  70
    32
  0
VERTEX
  8
241
  5
487B
 10
53.4795
 20
16.5808
 30
0.000000
  70
    32
  0
VERTEX
  8
241
  5
487C
 10
53.3198
 20
16.6121
 30
0.000000
  70
    32
  0
VERTEX
  8
241
  5
487D
 10
53.1582
 20
16.6377
 30
0.000000
  70
    32
  0
VERTEX
  8
241
  5
487E
 10
52.9950
 20
16.6577
 30
0.000000
  70
    32
  0
VERTEX
  8
241
  5
487F
 10
52.8306
 20
16.6721
 30
0.000000
  70
    32
  0
VERTEX
  8
241
  5
4880
 10
52.6654
 20
16.6807
 30
0.000000
  70
    32
  0
VERTEX
  8
241
  5
4881
 10
52.4998
 20
16.6836
 30
0.000000
  70
    32
  0
VERTEX
  8
241
  5
4882
 10
52.3342
 20
16.6807
 30
0.000000
  70
    32
  0
VERTEX
  8
241
  5
4883
 10
52.1690
 20
16.6721
 30
0.000000
  70
    32
  0
VERTEX
  8
241
  5
4884
 10
52.0046
 20
16.6577
 30
0.000000
  70
    32
  0
VERTEX
  8
241
  5
4885
 10
51.8414
 20
16.6377
 30
0.000000
  70
    32
  0
VERTEX
  8
241
  5
4886
 10
51.6797
 20
16.6121
 30
0.000000
  70
    32
  0
VERTEX
  8
241
  5
4887
 10
51.5201
 20
16.5808
 30
0.000000
  70
    32
  0
VERTEX
  8
241
  5
4888
 10
51.3628
 20
16.5441
 30
0.000000
  70
    32
  0
VERTEX
  8
241
  5
4889
 10
51.2082
 20
16.5019
 30
0.000000
  70
    32
  0
VERTEX
  8
241
  5
488A
 10
51.0568
 20
16.4544
 30
0.000000
  70
    32
  0
VERTEX
  8
241
  5
488B
 10
50.9088
 20
16.4018
 30
0.000000
  70
    32
  0
VERTEX
  8
241
  5
488C
 10
50.7647
 20
16.3440
 30
0.000000
  70
    32
  0
VERTEX
  8
241
  5
488D
 10
50.6247
 20
16.2814
 30
0.000000
  70
    32
  0
VERTEX
  8
241
  5
488E
 10
50.4893
 20
16.2139
 30
0.000000
  70
    32
  0
VERTEX
  8
241
  5
488F
 10
50.3587
 20
16.1419
 30
0.000000
  70
    32
  0
VERTEX
  8
241
  5
4890
 10
50.2333
 20
16.0654
 30
0.000000
  70
    32
  0
VERTEX
  8
241
  5
4891
 10
50.1133
 20
15.9846
 30
0.000000
  70
    32
  0
VERTEX
  8
241
  5
4892
 10
49.9991
 20
15.8998
 30
0.000000
  70
    32
  0
VERTEX
  8
241
  5
4893
 10
49.8909
 20
15.8111
 30
0.000000
  70
    32
  0
VERTEX
  8
241
  5
4894
 10
49.7890
 20
15.7187
 30
0.000000
  70
    32
  0
VERTEX
  8
241
  5
4895
 10
49.6936
 20
15.6229
 30
0.000000
  70
    32
  0
VERTEX
  8
241
  5
4896
 10
49.6050
 20
15.5240
 30
0.000000
  70
    32
  0
VERTEX
  8
241
  5
4897
 10
49.5233
 20
15.4221
 30
0.000000
  70
    32
  0
VERTEX
  8
241
  5
4898
 10
49.4488
 20
15.3174
 30
0.000000
  70
    32
  0
VERTEX
  8
241
  5
4899
 10
49.3817
 20
15.2104
 30
0.000000
  70
    32
  0
VERTEX
  8
241
  5
489A
 10
49.3221
 20
15.1011
 30
0.000000
  70
    32
  0
VERTEX
  8
241
  5
489B
 10
49.2701
 20
14.9898
 30
0.000000
  70
    32
  0
VERTEX
  8
241
  5
489C
 10
49.2259
 20
14.8770
 30
0.000000
  70
    32
  0
VERTEX
  8
241
  5
489D
 10
49.1896
 20
14.7627
 30
0.000000
  70
    32
  0
VERTEX
  8
241
  5
489E
 10
49.1613
 20
14.6473
 30
0.000000
  70
    32
  0
VERTEX
  8
241
  5
489F
 10
49.1410
 20
14.5310
 30
0.000000
  70
    32
  0
VERTEX
  8
241
  5
48A0
 10
49.1289
 20
14.4142
 30
0.000000
  70
    32
  0
VERTEX
  8
241
  5
48A1
 10
49.1248
 20
14.2971
 30
0.000000
  70
    32
  0
SEQEND
  8
241
  5
48A2
  0
LINE
  5
4693
  8
245
  6
CENTER2
 10
47.375059412228858
 20
-14.496490412669919
 30
0.0
 11
57.185596526830487
 21
-14.496490412669919
 31
0.0
  0
LINE
  5
4694
  8
245
  6
CENTER2
 10
52.499785265956199
 20
-18.091624508997491
 30
0.0
 11
52.499785265956262
 21
-9.9108938019851411
 31
0.0
  0
POLYLINE
  5
4695
  8
242
  6
CONTINUOUS
 10
48.499785183906312
 20
-14.21786860645747
 30
0.0
 66
     1
 70
     8
  0
VERTEX
  8
242
  5
48A3
 10
48.4998
 20
-14.2179
 30
0.000000
  70
    32
  0
VERTEX
  8
242
  5
48A4
 10
48.5046
 20
-14.0791
 30
0.000000
  70
    32
  0
VERTEX
  8
242
  5
48A5
 10
48.5190
 20
-13.9406
 30
0.000000
  70
    32
  0
VERTEX
  8
242
  5
48A6
 10
48.5431
 20
-13.8029
 30
0.000000
  70
    32
  0
VERTEX
  8
242
  5
48A7
 10
48.5766
 20
-13.6661
 30
0.000000
  70
    32
  0
VERTEX
  8
242
  5
48A8
 10
48.6197
 20
-13.5306
 30
0.000000
  70
    32
  0
VERTEX
  8
242
  5
48A9
 10
48.6720
 20
-13.3968
 30
0.000000
  70
    32
  0
VERTEX
  8
242
  5
48AA
 10
48.7336
 20
-13.2650
 30
0.000000
  70
    32
  0
VERTEX
  8
242
  5
48AB
 10
48.8043
 20
-13.1355
 30
0.000000
  70
    32
  0
VERTEX
  8
242
  5
48AC
 10
48.8838
 20
-13.0086
 30
0.000000
  70
    32
  0
VERTEX
  8
242
  5
48AD
 10
48.9721
 20
-12.8846
 30
0.000000
  70
    32
  0
VERTEX
  8
242
  5
48AE
 10
49.0689
 20
-12.7638
 30
0.000000
  70
    32
  0
VERTEX
  8
242
  5
48AF
 10
49.1739
 20
-12.6465
 30
0.000000
  70
    32
  0
VERTEX
  8
242
  5
48B0
 10
49.2870
 20
-12.5330
 30
0.000000
  70
    32
  0
VERTEX
  8
242
  5
48B1
 10
49.4077
 20
-12.4235
 30
0.000000
  70
    32
  0
VERTEX
  8
242
  5
48B2
 10
49.5360
 20
-12.3184
 30
0.000000
  70
    32
  0
VERTEX
  8
242
  5
48B3
 10
49.6714
 20
-12.2179
 30
0.000000
  70
    32
  0
VERTEX
  8
242
  5
48B4
 10
49.8135
 20
-12.1221
 30
0.000000
  70
    32
  0
VERTEX
  8
242
  5
48B5
 10
49.9622
 20
-12.0315
 30
0.000000
  70
    32
  0
VERTEX
  8
242
  5
48B6
 10
50.1170
 20
-11.9461
 30
0.000000
  70
    32
  0
VERTEX
  8
242
  5
48B7
 10
50.2775
 20
-11.8661
 30
0.000000
  70
    32
  0
VERTEX
  8
242
  5
48B8
 10
50.4434
 20
-11.7918
 30
0.000000
  70
    32
  0
VERTEX
  8
242
  5
48B9
 10
50.6142
 20
-11.7234
 30
0.000000
  70
    32
  0
VERTEX
  8
242
  5
48BA
 10
50.7896
 20
-11.6610
 30
0.000000
  70
    32
  0
VERTEX
  8
242
  5
48BB
 10
50.9691
 20
-11.6047
 30
0.000000
  70
    32
  0
VERTEX
  8
242
  5
48BC
 10
51.1522
 20
-11.5548
 30
0.000000
  70
    32
  0
VERTEX
  8
242
  5
48BD
 10
51.3386
 20
-11.5112
 30
0.000000
  70
    32
  0
VERTEX
  8
242
  5
48BE
 10
51.5279
 20
-11.4742
 30
0.000000
  70
    32
  0
VERTEX
  8
242
  5
48BF
 10
51.7194
 20
-11.4438
 30
0.000000
  70
    32
  0
VERTEX
  8
242
  5
48C0
 10
51.9129
 20
-11.4201
 30
0.000000
  70
    32
  0
VERTEX
  8
242
  5
48C1
 10
52.1077
 20
-11.4031
 30
0.000000
  70
    32
  0
VERTEX
  8
242
  5
48C2
 10
52.3035
 20
-11.3928
 30
0.000000
  70
    32
  0
VERTEX
  8
242
  5
48C3
 10
52.4998
 20
-11.3894
 30
0.000000
  70
    32
  0
VERTEX
  8
242
  5
48C4
 10
52.6961
 20
-11.3928
 30
0.000000
  70
    32
  0
VERTEX
  8
242
  5
48C5
 10
52.8919
 20
-11.4031
 30
0.000000
  70
    32
  0
VERTEX
  8
242
  5
48C6
 10
53.0867
 20
-11.4201
 30
0.000000
  70
    32
  0
VERTEX
  8
242
  5
48C7
 10
53.2801
 20
-11.4438
 30
0.000000
  70
    32
  0
VERTEX
  8
242
  5
48C8
 10
53.4717
 20
-11.4742
 30
0.000000
  70
    32
  0
VERTEX
  8
242
  5
48C9
 10
53.6609
 20
-11.5112
 30
0.000000
  70
    32
  0
VERTEX
  8
242
  5
48CA
 10
53.8473
 20
-11.5548
 30
0.000000
  70
    32
  0
VERTEX
  8
242
  5
48CB
 10
54.0305
 20
-11.6047
 30
0.000000
  70
    32
  0
VERTEX
  8
242
  5
48CC
 10
54.2100
 20
-11.6610
 30
0.000000
  70
    32
  0
VERTEX
  8
242
  5
48CD
 10
54.3854
 20
-11.7234
 30
0.000000
  70
    32
  0
VERTEX
  8
242
  5
48CE
 10
54.5562
 20
-11.7918
 30
0.000000
  70
    32
  0
VERTEX
  8
242
  5
48CF
 10
54.7221
 20
-11.8661
 30
0.000000
  70
    32
  0
VERTEX
  8
242
  5
48D0
 10
54.8826
 20
-11.9461
 30
0.000000
  70
    32
  0
VERTEX
  8
242
  5
48D1
 10
55.0374
 20
-12.0315
 30
0.000000
  70
    32
  0
VERTEX
  8
242
  5
48D2
 10
55.1860
 20
-12.1221
 30
0.000000
  70
    32
  0
VERTEX
  8
242
  5
48D3
 10
55.3282
 20
-12.2179
 30
0.000000
  70
    32
  0
VERTEX
  8
242
  5
48D4
 10
55.4636
 20
-12.3184
 30
0.000000
  70
    32
  0
VERTEX
  8
242
  5
48D5
 10
55.5918
 20
-12.4235
 30
0.000000
  70
    32
  0
VERTEX
  8
242
  5
48D6
 10
55.7126
 20
-12.5330
 30
0.000000
  70
    32
  0
VERTEX
  8
242
  5
48D7
 10
55.8257
 20
-12.6465
 30
0.000000
  70
    32
  0
VERTEX
  8
242
  5
48D8
 10
55.9307
 20
-12.7638
 30
0.000000
  70
    32
  0
VERTEX
  8
242
  5
48D9
 10
56.0275
 20
-12.8846
 30
0.000000
  70
    32
  0
VERTEX
  8
242
  5
48DA
 10
56.1157
 20
-13.0086
 30
0.000000
  70
    32
  0
VERTEX
  8
242
  5
48DB
 10
56.1953
 20
-13.1355
 30
0.000000
  70
    32
  0
VERTEX
  8
242
  5
48DC
 10
56.2660
 20
-13.2650
 30
0.000000
  70
    32
  0
VERTEX
  8
242
  5
48DD
 10
56.3275
 20
-13.3968
 30
0.000000
  70
    32
  0
VERTEX
  8
242
  5
48DE
 10
56.3799
 20
-13.5306
 30
0.000000
  70
    32
  0
VERTEX
  8
242
  5
48DF
 10
56.4229
 20
-13.6661
 30
0.000000
  70
    32
  0
VERTEX
  8
242
  5
48E0
 10
56.4565
 20
-13.8029
 30
0.000000
  70
    32
  0
VERTEX
  8
242
  5
48E1
 10
56.4805
 20
-13.9406
 30
0.000000
  70
    32
  0
VERTEX
  8
242
  5
48E2
 10
56.4950
 20
-14.0791
 30
0.000000
  70
    32
  0
VERTEX
  8
242
  5
48E3
 10
56.4998
 20
-14.2179
 30
0.000000
  70
    32
  0
VERTEX
  8
242
  5
48E4
 10
56.4950
 20
-14.3567
 30
0.000000
  70
    32
  0
VERTEX
  8
242
  5
48E5
 10
56.4805
 20
-14.4951
 30
0.000000
  70
    32
  0
VERTEX
  8
242
  5
48E6
 10
56.4565
 20
-14.6329
 30
0.000000
  70
    32
  0
VERTEX
  8
242
  5
48E7
 10
56.4229
 20
-14.7697
 30
0.000000
  70
    32
  0
VERTEX
  8
242
  5
48E8
 10
56.3799
 20
-14.9051
 30
0.000000
  70
    32
  0
VERTEX
  8
242
  5
48E9
 10
56.3275
 20
-15.0389
 30
0.000000
  70
    32
  0
VERTEX
  8
242
  5
48EA
 10
56.2660
 20
-15.1707
 30
0.000000
  70
    32
  0
VERTEX
  8
242
  5
48EB
 10
56.1953
 20
-15.3003
 30
0.000000
  70
    32
  0
VERTEX
  8
242
  5
48EC
 10
56.1157
 20
-15.4272
 30
0.000000
  70
    32
  0
VERTEX
  8
242
  5
48ED
 10
56.0275
 20
-15.5512
 30
0.000000
  70
    32
  0
VERTEX
  8
242
  5
48EE
 10
55.9307
 20
-15.6720
 30
0.000000
  70
    32
  0
VERTEX
  8
242
  5
48EF
 10
55.8257
 20
-15.7893
 30
0.000000
  70
    32
  0
VERTEX
  8
242
  5
48F0
 10
55.7126
 20
-15.9028
 30
0.000000
  70
    32
  0
VERTEX
  8
242
  5
48F1
 10
55.5918
 20
-16.0122
 30
0.000000
  70
    32
  0
VERTEX
  8
242
  5
48F2
 10
55.4636
 20
-16.1173
 30
0.000000
  70
    32
  0
VERTEX
  8
242
  5
48F3
 10
55.3282
 20
-16.2179
 30
0.000000
  70
    32
  0
VERTEX
  8
242
  5
48F4
 10
55.1860
 20
-16.3136
 30
0.000000
  70
    32
  0
VERTEX
  8
242
  5
48F5
 10
55.0374
 20
-16.4043
 30
0.000000
  70
    32
  0
VERTEX
  8
242
  5
48F6
 10
54.8826
 20
-16.4897
 30
0.000000
  70
    32
  0
VERTEX
  8
242
  5
48F7
 10
54.7221
 20
-16.5696
 30
0.000000
  70
    32
  0
VERTEX
  8
242
  5
48F8
 10
54.5562
 20
-16.6439
 30
0.000000
  70
    32
  0
VERTEX
  8
242
  5
48F9
 10
54.3854
 20
-16.7123
 30
0.000000
  70
    32
  0
VERTEX
  8
242
  5
48FA
 10
54.2100
 20
-16.7747
 30
0.000000
  70
    32
  0
VERTEX
  8
242
  5
48FB
 10
54.0305
 20
-16.8310
 30
0.000000
  70
    32
  0
VERTEX
  8
242
  5
48FC
 10
53.8473
 20
-16.8810
 30
0.000000
  70
    32
  0
VERTEX
  8
242
  5
48FD
 10
53.6609
 20
-16.9245
 30
0.000000
  70
    32
  0
VERTEX
  8
242
  5
48FE
 10
53.4717
 20
-16.9615
 30
0.000000
  70
    32
  0
VERTEX
  8
242
  5
48FF
 10
53.2801
 20
-16.9919
 30
0.000000
  70
    32
  0
VERTEX
  8
242
  5
4900
 10
53.0867
 20
-17.0157
 30
0.000000
  70
    32
  0
VERTEX
  8
242
  5
4901
 10
52.8919
 20
-17.0327
 30
0.000000
  70
    32
  0
VERTEX
  8
242
  5
4902
 10
52.6961
 20
-17.0429
 30
0.000000
  70
    32
  0
VERTEX
  8
242
  5
4903
 10
52.4998
 20
-17.0463
 30
0.000000
  70
    32
  0
VERTEX
  8
242
  5
4904
 10
52.3035
 20
-17.0429
 30
0.000000
  70
    32
  0
VERTEX
  8
242
  5
4905
 10
52.1077
 20
-17.0327
 30
0.000000
  70
    32
  0
VERTEX
  8
242
  5
4906
 10
51.9129
 20
-17.0157
 30
0.000000
  70
    32
  0
VERTEX
  8
242
  5
4907
 10
51.7194
 20
-16.9919
 30
0.000000
  70
    32
  0
VERTEX
  8
242
  5
4908
 10
51.5279
 20
-16.9615
 30
0.000000
  70
    32
  0
VERTEX
  8
242
  5
4909
 10
51.3386
 20
-16.9245
 30
0.000000
  70
    32
  0
VERTEX
  8
242
  5
490A
 10
51.1522
 20
-16.8810
 30
0.000000
  70
    32
  0
VERTEX
  8
242
  5
490B
 10
50.9691
 20
-16.8310
 30
0.000000
  70
    32
  0
VERTEX
  8
242
  5
490C
 10
50.7896
 20
-16.7747
 30
0.000000
  70
    32
  0
VERTEX
  8
242
  5
490D
 10
50.6142
 20
-16.7123
 30
0.000000
  70
    32
  0
VERTEX
  8
242
  5
490E
 10
50.4434
 20
-16.6439
 30
0.000000
  70
    32
  0
VERTEX
  8
242
  5
490F
 10
50.2775
 20
-16.5696
 30
0.000000
  70
    32
  0
VERTEX
  8
242
  5
4910
 10
50.1170
 20
-16.4897
 30
0.000000
  70
    32
  0
VERTEX
  8
242
  5
4911
 10
49.9622
 20
-16.4043
 30
0.000000
  70
    32
  0
VERTEX
  8
242
  5
4912
 10
49.8135
 20
-16.3136
 30
0.000000
  70
    32
  0
VERTEX
  8
242
  5
4913
 10
49.6714
 20
-16.2179
 30
0.000000
  70
    32
  0
VERTEX
  8
242
  5
4914
 10
49.5360
 20
-16.1173
 30
0.000000
  70
    32
  0
VERTEX
  8
242
  5
4915
 10
49.4077
 20
-16.0122
 30
0.000000
  70
    32
  0
VERTEX
  8
242
  5
4916
 10
49.2870
 20
-15.9028
 30
0.000000
  70
    32
  0
VERTEX
  8
242
  5
4917
 10
49.1739
 20
-15.7893
 30
0.000000
  70
    32
  0
VERTEX
  8
242
  5
4918
 10
49.0689
 20
-15.6720
 30
0.000000
  70
    32
  0
VERTEX
  8
242
  5
4919
 10
48.9721
 20
-15.5512
 30
0.000000
  70
    32
  0
VERTEX
  8
242
  5
491A
 10
48.8838
 20
-15.4272
 30
0.000000
  70
    32
  0
VERTEX
  8
242
  5
491B
 10
48.8043
 20
-15.3003
 30
0.000000
  70
    32
  0
VERTEX
  8
242
  5
491C
 10
48.7336
 20
-15.1707
 30
0.000000
  70
    32
  0
VERTEX
  8
242
  5
491D
 10
48.6720
 20
-15.0389
 30
0.000000
  70
    32
  0
VERTEX
  8
242
  5
491E
 10
48.6197
 20
-14.9051
 30
0.000000
  70
    32
  0
VERTEX
  8
242
  5
491F
 10
48.5766
 20
-14.7697
 30
0.000000
  70
    32
  0
VERTEX
  8
242
  5
4920
 10
48.5431
 20
-14.6329
 30
0.000000
  70
    32
  0
VERTEX
  8
242
  5
4921
 10
48.5190
 20
-14.4951
 30
0.000000
  70
    32
  0
VERTEX
  8
242
  5
4922
 10
48.5046
 20
-14.3567
 30
0.000000
  70
    32
  0
VERTEX
  8
242
  5
4923
 10
48.4998
 20
-14.2179
 30
0.000000
  70
    32
  0
SEQEND
  8
242
  5
4924
  0
POLYLINE
  5
4696
  8
241
  6
CONTINUOUS
 10
49.124785187490794
 20
-14.29869241415844
 30
0.0
 66
     1
 70
     8
  0
VERTEX
  8
241
  5
4925
 10
49.1248
 20
-14.2987
 30
0.000000
  70
    32
  0
VERTEX
  8
241
  5
4926
 10
49.1289
 20
-14.1816
 30
0.000000
  70
    32
  0
VERTEX
  8
241
  5
4927
 10
49.1410
 20
-14.0648
 30
0.000000
  70
    32
  0
VERTEX
  8
241
  5
4928
 10
49.1613
 20
-13.9485
 30
0.000000
  70
    32
  0
VERTEX
  8
241
  5
4929
 10
49.1896
 20
-13.8331
 30
0.000000
  70
    32
  0
VERTEX
  8
241
  5
492A
 10
49.2259
 20
-13.7188
 30
0.000000
  70
    32
  0
VERTEX
  8
241
  5
492B
 10
49.2701
 20
-13.6059
 30
0.000000
  70
    32
  0
VERTEX
  8
241
  5
492C
 10
49.3221
 20
-13.4947
 30
0.000000
  70
    32
  0
VERTEX
  8
241
  5
492D
 10
49.3817
 20
-13.3854
 30
0.000000
  70
    32
  0
VERTEX
  8
241
  5
492E
 10
49.4488
 20
-13.2783
 30
0.000000
  70
    32
  0
VERTEX
  8
241
  5
492F
 10
49.5233
 20
-13.1737
 30
0.000000
  70
    32
  0
VERTEX
  8
241
  5
4930
 10
49.6050
 20
-13.0718
 30
0.000000
  70
    32
  0
VERTEX
  8
241
  5
4931
 10
49.6936
 20
-12.9728
 30
0.000000
  70
    32
  0
VERTEX
  8
241
  5
4932
 10
49.7890
 20
-12.8771
 30
0.000000
  70
    32
  0
VERTEX
  8
241
  5
4933
 10
49.8909
 20
-12.7847
 30
0.000000
  70
    32
  0
VERTEX
  8
241
  5
4934
 10
49.9991
 20
-12.6960
 30
0.000000
  70
    32
  0
VERTEX
  8
241
  5
4935
 10
50.1133
 20
-12.6112
 30
0.000000
  70
    32
  0
VERTEX
  8
241
  5
4936
 10
50.2333
 20
-12.5304
 30
0.000000
  70
    32
  0
VERTEX
  8
241
  5
4937
 10
50.3587
 20
-12.4539
 30
0.000000
  70
    32
  0
VERTEX
  8
241
  5
4938
 10
50.4893
 20
-12.3818
 30
0.000000
  70
    32
  0
VERTEX
  8
241
  5
4939
 10
50.6247
 20
-12.3144
 30
0.000000
  70
    32
  0
VERTEX
  8
241
  5
493A
 10
50.7647
 20
-12.2517
 30
0.000000
  70
    32
  0
VERTEX
  8
241
  5
493B
 10
50.9088
 20
-12.1940
 30
0.000000
  70
    32
  0
VERTEX
  8
241
  5
493C
 10
51.0568
 20
-12.1413
 30
0.000000
  70
    32
  0
VERTEX
  8
241
  5
493D
 10
51.2082
 20
-12.0939
 30
0.000000
  70
    32
  0
VERTEX
  8
241
  5
493E
 10
51.3628
 20
-12.0517
 30
0.000000
  70
    32
  0
VERTEX
  8
241
  5
493F
 10
51.5201
 20
-12.0150
 30
0.000000
  70
    32
  0
VERTEX
  8
241
  5
4940
 10
51.6797
 20
-11.9837
 30
0.000000
  70
    32
  0
VERTEX
  8
241
  5
4941
 10
51.8414
 20
-11.9581
 30
0.000000
  70
    32
  0
VERTEX
  8
241
  5
4942
 10
52.0046
 20
-11.9380
 30
0.000000
  70
    32
  0
VERTEX
  8
241
  5
4943
 10
52.1690
 20
-11.9237
 30
0.000000
  70
    32
  0
VERTEX
  8
241
  5
4944
 10
52.3342
 20
-11.9151
 30
0.000000
  70
    32
  0
VERTEX
  8
241
  5
4945
 10
52.4998
 20
-11.9122
 30
0.000000
  70
    32
  0
VERTEX
  8
241
  5
4946
 10
52.6654
 20
-11.9151
 30
0.000000
  70
    32
  0
VERTEX
  8
241
  5
4947
 10
52.8306
 20
-11.9237
 30
0.000000
  70
    32
  0
VERTEX
  8
241
  5
4948
 10
52.9950
 20
-11.9380
 30
0.000000
  70
    32
  0
VERTEX
  8
241
  5
4949
 10
53.1582
 20
-11.9581
 30
0.000000
  70
    32
  0
VERTEX
  8
241
  5
494A
 10
53.3198
 20
-11.9837
 30
0.000000
  70
    32
  0
VERTEX
  8
241
  5
494B
 10
53.4795
 20
-12.0150
 30
0.000000
  70
    32
  0
VERTEX
  8
241
  5
494C
 10
53.6368
 20
-12.0517
 30
0.000000
  70
    32
  0
VERTEX
  8
241
  5
494D
 10
53.7913
 20
-12.0939
 30
0.000000
  70
    32
  0
VERTEX
  8
241
  5
494E
 10
53.9428
 20
-12.1413
 30
0.000000
  70
    32
  0
VERTEX
  8
241
  5
494F
 10
54.0907
 20
-12.1940
 30
0.000000
  70
    32
  0
VERTEX
  8
241
  5
4950
 10
54.2349
 20
-12.2517
 30
0.000000
  70
    32
  0
VERTEX
  8
241
  5
4951
 10
54.3748
 20
-12.3144
 30
0.000000
  70
    32
  0
VERTEX
  8
241
  5
4952
 10
54.5103
 20
-12.3818
 30
0.000000
  70
    32
  0
VERTEX
  8
241
  5
4953
 10
54.6409
 20
-12.4539
 30
0.000000
  70
    32
  0
VERTEX
  8
241
  5
4954
 10
54.7663
 20
-12.5304
 30
0.000000
  70
    32
  0
VERTEX
  8
241
  5
4955
 10
54.8863
 20
-12.6112
 30
0.000000
  70
    32
  0
VERTEX
  8
241
  5
4956
 10
55.0005
 20
-12.6960
 30
0.000000
  70
    32
  0
VERTEX
  8
241
  5
4957
 10
55.1087
 20
-12.7847
 30
0.000000
  70
    32
  0
VERTEX
  8
241
  5
4958
 10
55.2106
 20
-12.8771
 30
0.000000
  70
    32
  0
VERTEX
  8
241
  5
4959
 10
55.3060
 20
-12.9728
 30
0.000000
  70
    32
  0
VERTEX
  8
241
  5
495A
 10
55.3946
 20
-13.0718
 30
0.000000
  70
    32
  0
VERTEX
  8
241
  5
495B
 10
55.4763
 20
-13.1737
 30
0.000000
  70
    32
  0
VERTEX
  8
241
  5
495C
 10
55.5507
 20
-13.2783
 30
0.000000
  70
    32
  0
VERTEX
  8
241
  5
495D
 10
55.6179
 20
-13.3854
 30
0.000000
  70
    32
  0
VERTEX
  8
241
  5
495E
 10
55.6775
 20
-13.4947
 30
0.000000
  70
    32
  0
VERTEX
  8
241
  5
495F
 10
55.7295
 20
-13.6059
 30
0.000000
  70
    32
  0
VERTEX
  8
241
  5
4960
 10
55.7736
 20
-13.7188
 30
0.000000
  70
    32
  0
VERTEX
  8
241
  5
4961
 10
55.8099
 20
-13.8331
 30
0.000000
  70
    32
  0
VERTEX
  8
241
  5
4962
 10
55.8383
 20
-13.9485
 30
0.000000
  70
    32
  0
VERTEX
  8
241
  5
4963
 10
55.8585
 20
-14.0648
 30
0.000000
  70
    32
  0
VERTEX
  8
241
  5
4964
 10
55.8707
 20
-14.1816
 30
0.000000
  70
    32
  0
VERTEX
  8
241
  5
4965
 10
55.8748
 20
-14.2987
 30
0.000000
  70
    32
  0
VERTEX
  8
241
  5
4966
 10
55.8707
 20
-14.4158
 30
0.000000
  70
    32
  0
VERTEX
  8
241
  5
4967
 10
55.8585
 20
-14.5326
 30
0.000000
  70
    32
  0
VERTEX
  8
241
  5
4968
 10
55.8383
 20
-14.6489
 30
0.000000
  70
    32
  0
VERTEX
  8
241
  5
4969
 10
55.8099
 20
-14.7643
 30
0.000000
  70
    32
  0
VERTEX
  8
241
  5
496A
 10
55.7736
 20
-14.8786
 30
0.000000
  70
    32
  0
VERTEX
  8
241
  5
496B
 10
55.7295
 20
-14.9915
 30
0.000000
  70
    32
  0
VERTEX
  8
241
  5
496C
 10
55.6775
 20
-15.1027
 30
0.000000
  70
    32
  0
VERTEX
  8
241
  5
496D
 10
55.6179
 20
-15.2120
 30
0.000000
  70
    32
  0
VERTEX
  8
241
  5
496E
 10
55.5507
 20
-15.3190
 30
0.000000
  70
    32
  0
VERTEX
  8
241
  5
496F
 10
55.4763
 20
-15.4237
 30
0.000000
  70
    32
  0
VERTEX
  8
241
  5
4970
 10
55.3946
 20
-15.5256
 30
0.000000
  70
    32
  0
VERTEX
  8
241
  5
4971
 10
55.3060
 20
-15.6246
 30
0.000000
  70
    32
  0
VERTEX
  8
241
  5
4972
 10
55.2106
 20
-15.7203
 30
0.000000
  70
    32
  0
VERTEX
  8
241
  5
4973
 10
55.1087
 20
-15.8127
 30
0.000000
  70
    32
  0
VERTEX
  8
241
  5
4974
 10
55.0005
 20
-15.9014
 30
0.000000
  70
    32
  0
VERTEX
  8
241
  5
4975
 10
54.8863
 20
-15.9862
 30
0.000000
  70
    32
  0
VERTEX
  8
241
  5
4976
 10
54.7663
 20
-16.0670
 30
0.000000
  70
    32
  0
VERTEX
  8
241
  5
4977
 10
54.6409
 20
-16.1435
 30
0.000000
  70
    32
  0
VERTEX
  8
241
  5
4978
 10
54.5103
 20
-16.2155
 30
0.000000
  70
    32
  0
VERTEX
  8
241
  5
4979
 10
54.3748
 20
-16.2830
 30
0.000000
  70
    32
  0
VERTEX
  8
241
  5
497A
 10
54.2349
 20
-16.3456
 30
0.000000
  70
    32
  0
VERTEX
  8
241
  5
497B
 10
54.0907
 20
-16.4034
 30
0.000000
  70
    32
  0
VERTEX
  8
241
  5
497C
 10
53.9428
 20
-16.4560
 30
0.000000
  70
    32
  0
VERTEX
  8
241
  5
497D
 10
53.7913
 20
-16.5035
 30
0.000000
  70
    32
  0
VERTEX
  8
241
  5
497E
 10
53.6368
 20
-16.5457
 30
0.000000
  70
    32
  0
VERTEX
  8
241
  5
497F
 10
53.4795
 20
-16.5824
 30
0.000000
  70
    32
  0
VERTEX
  8
241
  5
4980
 10
53.3198
 20
-16.6137
 30
0.000000
  70
    32
  0
VERTEX
  8
241
  5
4981
 10
53.1582
 20
-16.6393
 30
0.000000
  70
    32
  0
VERTEX
  8
241
  5
4982
 10
52.9950
 20
-16.6593
 30
0.000000
  70
    32
  0
VERTEX
  8
241
  5
4983
 10
52.8306
 20
-16.6737
 30
0.000000
  70
    32
  0
VERTEX
  8
241
  5
4984
 10
52.6654
 20
-16.6823
 30
0.000000
  70
    32
  0
VERTEX
  8
241
  5
4985
 10
52.4998
 20
-16.6852
 30
0.000000
  70
    32
  0
VERTEX
  8
241
  5
4986
 10
52.3342
 20
-16.6823
 30
0.000000
  70
    32
  0
VERTEX
  8
241
  5
4987
 10
52.1690
 20
-16.6737
 30
0.000000
  70
    32
  0
VERTEX
  8
241
  5
4988
 10
52.0046
 20
-16.6593
 30
0.000000
  70
    32
  0
VERTEX
  8
241
  5
4989
 10
51.8414
 20
-16.6393
 30
0.000000
  70
    32
  0
VERTEX
  8
241
  5
498A
 10
51.6797
 20
-16.6137
 30
0.000000
  70
    32
  0
VERTEX
  8
241
  5
498B
 10
51.5201
 20
-16.5824
 30
0.000000
  70
    32
  0
VERTEX
  8
241
  5
498C
 10
51.3628
 20
-16.5457
 30
0.000000
  70
    32
  0
VERTEX
  8
241
  5
498D
 10
51.2082
 20
-16.5035
 30
0.000000
  70
    32
  0
VERTEX
  8
241
  5
498E
 10
51.0568
 20
-16.4560
 30
0.000000
  70
    32
  0
VERTEX
  8
241
  5
498F
 10
50.9088
 20
-16.4034
 30
0.000000
  70
    32
  0
VERTEX
  8
241
  5
4990
 10
50.7647
 20
-16.3456
 30
0.000000
  70
    32
  0
VERTEX
  8
241
  5
4991
 10
50.6247
 20
-16.2830
 30
0.000000
  70
    32
  0
VERTEX
  8
241
  5
4992
 10
50.4893
 20
-16.2155
 30
0.000000
  70
    32
  0
VERTEX
  8
241
  5
4993
 10
50.3587
 20
-16.1435
 30
0.000000
  70
    32
  0
VERTEX
  8
241
  5
4994
 10
50.2333
 20
-16.0670
 30
0.000000
  70
    32
  0
VERTEX
  8
241
  5
4995
 10
50.1133
 20
-15.9862
 30
0.000000
  70
    32
  0
VERTEX
  8
241
  5
4996
 10
49.9991
 20
-15.9014
 30
0.000000
  70
    32
  0
VERTEX
  8
241
  5
4997
 10
49.8909
 20
-15.8127
 30
0.000000
  70
    32
  0
VERTEX
  8
241
  5
4998
 10
49.7890
 20
-15.7203
 30
0.000000
  70
    32
  0
VERTEX
  8
241
  5
4999
 10
49.6936
 20
-15.6246
 30
0.000000
  70
    32
  0
VERTEX
  8
241
  5
499A
 10
49.6050
 20
-15.5256
 30
0.000000
  70
    32
  0
VERTEX
  8
241
  5
499B
 10
49.5233
 20
-15.4237
 30
0.000000
  70
    32
  0
VERTEX
  8
241
  5
499C
 10
49.4488
 20
-15.3190
 30
0.000000
  70
    32
  0
VERTEX
  8
241
  5
499D
 10
49.3817
 20
-15.2120
 30
0.000000
  70
    32
  0
VERTEX
  8
241
  5
499E
 10
49.3221
 20
-15.1027
 30
0.000000
  70
    32
  0
VERTEX
  8
241
  5
499F
 10
49.2701
 20
-14.9915
 30
0.000000
  70
    32
  0
VERTEX
  8
241
  5
49A0
 10
49.2259
 20
-14.8786
 30
0.000000
  70
    32
  0
VERTEX
  8
241
  5
49A1
 10
49.1896
 20
-14.7643
 30
0.000000
  70
    32
  0
VERTEX
  8
241
  5
49A2
 10
49.1613
 20
-14.6489
 30
0.000000
  70
    32
  0
VERTEX
  8
241
  5
49A3
 10
49.1410
 20
-14.5326
 30
0.000000
  70
    32
  0
VERTEX
  8
241
  5
49A4
 10
49.1289
 20
-14.4158
 30
0.000000
  70
    32
  0
VERTEX
  8
241
  5
49A5
 10
49.1248
 20
-14.2987
 30
0.000000
  70
    32
  0
SEQEND
  8
241
  5
49A6
  0
VIEWPORT
  5
22
 67
     1
  8
0
 10
261.51769911504419
 20
148.5
 30
0.0
 40
523.0353982300885
 41
297.0
 68
     1
 69
     1
1001
ACAD
1000
MVIEW
1002
{
1070
    16
1010
0.0
1020
0.0
1030
0.0
1010
0.0
1020
0.0
1030
1.0
1040
0.0
1040
297.0
1040
261.51769911504419
1040
148.5
1040
50.0
1040
0.0
1040
0.0
1070
     0
1070
   100
1070
     1
1070
     1
1070
     0
1070
     0
1070
     0
1070
     0
1040
0.0
1040
0.0
1040
0.0
1040
1.0
1040
1.0
1040
10.0
1040
10.0
1070
     0
1002
{
1002
}
1002
}
1001
GENIUS_GENODEF_13
1002
{
1000
HIER
1070
     0
1002
}
1002
{
1000
MANEDIT
1070
     0
1002
}
1002
{
1000
NOSEL
1070
     0
1002
}
1002
{
1000
BEHIND
1070
     0
1002
}
1002
{
1000
OTHER
1070
     0
1002
}
1002
{
1000
REACTOR
1002
}
1001
GENIUS_GENOBJ-N-SDF_13
1002
{
1000
OWNER
1000
GEN
1002
}
1001
GENIUS_GENSCREG_15
1000
PF
1040
1.0
1000
DF
1040
1.0
1000
MIN
1011
0.0
1021
0.0
1031
0.0
1021
0.0
1031
0.0
1000
MAX
1011
523.0353982300885
1021
0.0
1031
0.0
1021
297.0
1031
0.0
1000
FLAGS
1070
     4
  0
ENDSEC
  0
EOF
