  0
SECTION
  2
HEADER
  9
$ACADVER
  1
AC1009
  9
$INSBASE
 10
0.0
 20
0.0
 30
0.0
  9
$EXTMIN
 10
-92.566831448673483
 20
-27.000000000010921
 30
0.0
  9
$EXTMAX
 10
85.0
 20
63.500000000000021
 30
0.0
  9
$LIMMIN
 10
0.0
 20
0.0
  9
$LIMMAX
 10
297.0
 20
210.0
  9
$ORTHOMODE
 70
     0
  9
$REGENMODE
 70
     1
  9
$FILLMODE
 70
     1
  9
$QTEXTMODE
 70
     0
  9
$MIRRTEXT
 70
     1
  9
$DRAGMODE
 70
     2
  9
$LTSCALE
 40
10.0
  9
$OSMODE
 70
    37
  9
$ATTMODE
 70
     1
  9
$TEXTSIZE
 40
3.0
  9
$TRACEWID
 40
1.0
  9
$TEXTSTYLE
  7
YOKO
  9
$CLAYER
  8
240
  9
$CELTYPE
  6
BYLAYER
  9
$CECOLOR
 62
   256
  9
$DIMSCALE
 40
1.0
  9
$DIMASZ
 40
2.2299999999999991
  9
$DIMEXO
 40
0.5
  9
$DIMDLI
 40
7.0
  9
$DIMRND
 40
0.0
  9
$DIMDLE
 40
0.0
  9
$DIMEXE
 40
1.0
  9
$DIMTP
 40
0.0
  9
$DIMTM
 40
0.01
  9
$DIMTXT
 40
2.7999999999999989
  9
$DIMCEN
 40
0.0
  9
$DIMTSZ
 40
0.0
  9
$DIMTOL
 70
     0
  9
$DIMLIM
 70
     0
  9
$DIMTIH
 70
     0
  9
$DIMTOH
 70
     0
  9
$DIMSE1
 70
     0
  9
$DIMSE2
 70
     0
  9
$DIMTAD
 70
     3
  9
$DIMZIN
 70
     9
  9
$DIMBLK
  1
OPEN
  9
$DIMASO
 70
     1
  9
$DIMSHO
 70
     1
  9
$DIMPOST
  1

  9
$DIMAPOST
  1

  9
$DIMALT
 70
     0
  9
$DIMALTD
 70
     2
  9
$DIMALTF
 40
25.399999999999999
  9
$DIMLFAC
 40
1.0
  9
$DIMTOFL
 70
     1
  9
$DIMTVP
 40
0.0
  9
$DIMTIX
 70
     1
  9
$DIMSOXD
 70
     0
  9
$DIMSAH
 70
     0
  9
$DIMBLK1
  1

  9
$DIMBLK2
  1

  9
$DIMSTYLE
  2
BIGT
  9
$DIMCLRD
 70
   256
  9
$DIMCLRE
 70
   256
  9
$DIMCLRT
 70
    40
  9
$DIMTFAC
 40
1.0
  9
$DIMGAP
 40
1.0
  9
$LUNITS
 70
     2
  9
$LUPREC
 70
     6
  9
$SKETCHINC
 40
1.0
  9
$FILLETRAD
 40
0.0
  9
$AUNITS
 70
     0
  9
$AUPREC
 70
     6
  9
$MENU
  1
.
  9
$ELEVATION
 40
0.0
  9
$PELEVATION
 40
0.0
  9
$THICKNESS
 40
0.0
  9
$LIMCHECK
 70
     0
  9
$BLIPMODE
 70
     0
  9
$CHAMFERA
 40
0.2
  9
$CHAMFERB
 40
0.2
  9
$SKPOLY
 70
     0
  9
$TDCREATE
 40
2458148.5818601279
  9
$TDUPDATE
 40
2458148.5910429172
  9
$TDINDWG
 40
0.0081362616
  9
$TDUSRTIMER
 40
0.0081362384
  9
$USRTIMER
 70
     1
  9
$ANGBASE
 50
0.0
  9
$ANGDIR
 70
     0
  9
$PDMODE
 70
     1
  9
$PDSIZE
 40
0.0
  9
$PLINEWID
 40
0.0
  9
$COORDS
 70
     1
  9
$SPLFRAME
 70
     0
  9
$SPLINETYPE
 70
     6
  9
$SPLINESEGS
 70
     4
  9
$ATTDIA
 70
     1
  9
$ATTREQ
 70
     1
  9
$HANDLING
 70
     1
  9
$HANDSEED
  5
4802
  9
$SURFTAB1
 70
     6
  9
$SURFTAB2
 70
     6
  9
$SURFTYPE
 70
     6
  9
$SURFU
 70
     6
  9
$SURFV
 70
     6
  9
$UCSNAME
  2

  9
$UCSORG
 10
0.0
 20
0.0
 30
0.0
  9
$UCSXDIR
 10
1.0
 20
0.0
 30
0.0
  9
$UCSYDIR
 10
0.0
 20
1.0
 30
0.0
  9
$PUCSNAME
  2

  9
$PUCSORG
 10
0.0
 20
0.0
 30
0.0
  9
$PUCSXDIR
 10
1.0
 20
0.0
 30
0.0
  9
$PUCSYDIR
 10
0.0
 20
1.0
 30
0.0
  9
$USERI1
 70
     1
  9
$USERI2
 70
     0
  9
$USERI3
 70
     0
  9
$USERI4
 70
     0
  9
$USERI5
 70
     0
  9
$USERR1
 40
0.0
  9
$USERR2
 40
0.0
  9
$USERR3
 40
0.0
  9
$USERR4
 40
0.0
  9
$USERR5
 40
0.0
  9
$WORLDVIEW
 70
     1
  9
$SHADEDGE
 70
     3
  9
$SHADEDIF
 70
    70
  9
$TILEMODE
 70
     1
  9
$MAXACTVP
 70
    16
  9
$PLIMCHECK
 70
     0
  9
$PEXTMIN
 10
1.0000000000000000E+020
 20
1.0000000000000000E+020
 30
1.0000000000000000E+020
  9
$PEXTMAX
 10
-1.0000000000000000E+020
 20
-1.0000000000000000E+020
 30
-1.0000000000000000E+020
  9
$PLIMMIN
 10
0.0
 20
0.0
  9
$PLIMMAX
 10
420.0
 20
297.0
  9
$UNITMODE
 70
     0
  9
$VISRETAIN
 70
     1
  9
$PLINEGEN
 70
     0
  9
$PSLTSCALE
 70
     1
  0
ENDSEC
  0
SECTION
  2
TABLES
  0
TABLE
  2
VPORT
 70
     1
  0
VPORT
  2
*ACTIVE
 70
     0
 10
0.0
 20
0.0
 11
1.0
 21
1.0
 12
6.2253088085581112
 22
9.9113353490181861
 13
0.0
 23
0.0
 14
7.0
 24
7.0
 15
7.0
 25
7.0
 16
0.0
 26
0.0
 36
1.0
 17
0.0
 27
0.0
 37
0.0
 40
180.13818196538691
 41
1.5644444444444441
 42
50.0
 43
0.0
 44
0.0
 50
0.0
 51
0.0
 71
     0
 72
  2000
 73
     1
 74
     0
 75
     0
 76
     1
 77
     0
 78
     0
  0
ENDTAB
  0
TABLE
  2
LTYPE
 70
    18
  0
LTYPE
  2
CONTINUOUS
 70
     0
  3
Solid line
 72
    65
 73
     0
 40
0.0
  0
LTYPE
  2
CENTER2
 70
     0
  3
___ _ ___ _ ___ _ ___ _ ___ _ ___ _ ___ _ ___ _
 72
    65
 73
     4
 40
1.125
 49
0.75
 49
-0.125
 49
0.125
 49
-0.125
  0
LTYPE
  2
HIDDEN2
 70
     0
  3
_ _ _ _ _ _ _ _ _ _ _ _ _ _ _ _ _ _ _ _ _ _ _ _
 72
    65
 73
     2
 40
0.1875
 49
0.125
 49
-0.0625
  0
LTYPE
  2
AM_ISO02W050
 70
     0
  3
__ __ __ __ __ __ __ __ __ __ __ __ __ __ __
 72
    65
 73
     2
 40
7.5
 49
6.0
 49
-1.5
  0
LTYPE
  2
AMCONSTR
 70
     0
  3
_______________________
 72
    65
 73
     2
 40
9999.0
 49
9999.0
 49
0.0
  0
LTYPE
  2
ACISOWELD
 70
     0
  3
_ _ _ _ _
 72
    65
 73
     2
 40
2.0
 49
2.0
 49
-1.0
  0
LTYPE
  2
ACISOTGB
 70
     0
  3
__ . . __ . .
 72
    65
 73
     6
 40
9.0
 49
4.0
 49
-1.0
 49
1.0
 49
-1.0
 49
1.0
 49
-1.0
  0
LTYPE
  2
ACISOTGL
 70
     0
  3
_ _ _ _ _
 72
    65
 73
     2
 40
3.0
 49
2.0
 49
-1.0
  0
LTYPE
  2
AM_ISO08W050
 70
     0
  3
____ . ____ . ____ . ____ . ____ . ____ . ____
 72
    65
 73
     4
 40
18.0
 49
12.0
 49
-1.5
 49
3.0
 49
-1.5
  0
LTYPE
  2
AM_ISO09W050
 70
     0
  3
_____ . . _____ . . _____ . . ____ .. ____
 72
    65
 73
     6
 40
22.5
 49
12.0
 49
-1.5
 49
3.0
 49
-1.5
 49
3.0
 49
-1.5
  0
LTYPE
  2
AM_ISO08W050X2
 70
     0
  3
__ . __ . __ . __ . __ . __
 72
    65
 73
     4
 40
9.0
 49
6.0
 49
-0.75
 49
1.5
 49
-0.75
  0
LTYPE
  2
AM_ISO02W050X2
 70
     0
  3
 _ _ _ _ _ _ _ _ _ _ _ _
 72
    65
 73
     2
 40
3.75
 49
3.0
 49
-0.75
  0
LTYPE
  2
AMZIGZAG
 70
     0
  3
/\/-/\/-/\/-/\/-/\/-/\/
 72
    65
 73
     2
 40
11.0001
 49
0.0001
 49
-11.0
  0
ENDTAB
  0
TABLE
  2
LAYER
 70
    10
  0
LAYER
  2
0
 70
     0
 62
     7
  6
CONTINUOUS
  0
LAYER
  2
DEFPOINTS
 70
     0
 62
     7
  6
CONTINUOUS
  0
LAYER
  2
245
 70
     0
 62
     2
  6
CENTER2
  0
LAYER
  2
240
 70
     0
 62
     4
  6
CONTINUOUS
  0
LAYER
  2
241
 70
     0
 62
   211
  6
CONTINUOUS
  0
LAYER
  2
242
 70
     0
 62
     3
  6
CONTINUOUS
  0
LAYER
  2
243
 70
     0
 62
   211
  6
HIDDEN2
  0
LAYER
  2
244
 70
     0
 62
     3
  6
HIDDEN2
  0
LAYER
  2
247
 70
     0
 62
    60
  6
CONTINUOUS
  0
LAYER
  2
250
 70
     0
 62
     3
  6
CONTINUOUS
  0
ENDTAB
  0
TABLE
  2
STYLE
 70
     7
  0
STYLE
  2
STANDARD
 70
     0
 40
0.0
 41
1.0
 50
0.0
 71
     0
 42
3.0
  3
romans.shx
  4
extfont.shx
  0
STYLE
  2
ACISOGDT
 70
     0
 40
0.0
 41
1.0
 50
0.0
 71
     0
 42
3.0
  3
amgdt.shx
  4
extfont.shx
  0
STYLE
  2
YOKO
 70
     0
 40
0.0
 41
1.0
 50
0.0
 71
     0
 42
3.0
  3
romans.shx
  4
extfont.shx
  0
STYLE
  2

 70
     1
 40
0.0
 41
1.0
 50
0.0
 71
     0
 42
3.0
  3
genltshp.shx
  4

  0
ENDTAB
  0
TABLE
  2
VIEW
 70
     0
  0
ENDTAB
  0
TABLE
  2
UCS
 70
     0
  0
ENDTAB
  0
TABLE
  2
APPID
 70
    40
  0
APPID
  2
ACAD
 70
     0
  0
APPID
  2
GLOBAL
 70
     0
  0
APPID
  2
DETAIL
 70
     0
  0
APPID
  2
GRPNAME
 70
     0
  0
APPID
  2
GPARA
 70
     0
  0
APPID
  2
MCAD_NO_VIS
 70
     0
  0
APPID
  2
ACAD_TEMP_GRAPHIC
 70
     0
  0
APPID
  2
ACATTRIBSERVICES
 70
     0
  0
APPID
  2
GENIUS_GENSCREG_15
 70
     0
  0
APPID
  2
GENIUS_GENODEF_13
 70
     0
  0
APPID
  2
GENIUS_GENOBJ-N-SDF_13
 70
     0
  0
APPID
  2
GENIUS_GENREC_14
 70
     0
  0
APPID
  2
GENIUS_GENOBJ-N-REC_13
 70
     0
  0
APPID
  2
GENIUS_GENDIMSH_14
 70
     0
  0
APPID
  2
GENIUS_GENOBJ-N-DIM_13
 70
     0
  0
APPID
  2
GENIUS_GENDIM_13
 70
     0
  0
APPID
  2
GENIUS_GENDTOL_13
 70
     0
  0
APPID
  2
GENIUS_GENOLIS_13
 70
     0
  0
APPID
  2
GENIUS_GENOENT_13
 70
     0
  0
APPID
  2
GENIUS_GENOBJ-F-FEM_13
 70
     0
  0
APPID
  2
GENIUS_GENOREF_13
 70
     0
  0
APPID
  2
GENIUS_GEFFEM_13
 70
     0
  0
APPID
  2
GENIUS_GEFFEMP_13
 70
     0
  0
APPID
  2
AD_DRAW
 70
     0
  0
APPID
  2
DESIGNERASSEMBLIES
 70
     0
  0
APPID
  2
ACADM_DIM_EDIT
 70
     0
  0
APPID
  2
AMDT_DM_ADJ
 70
     0
  0
APPID
  2
ITEMNAME
 70
     0
  0
APPID
  2
GENIUS_GENOBJ-N-FIL_13
 70
     0
  0
APPID
  2
GENIUS_GENFIL_13
 70
     0
  0
APPID
  2
GENIUS_GENOBJ-N-CHA_13
 70
     0
  0
APPID
  2
ACAECLAYERSTANDARD
 70
     0
  0
APPID
  2
ACAD_NAV_VCDISPLAY
 70
     0
  0
APPID
  2
GENIUS_GENOBJ-N-CRS_13
 70
     0
  0
APPID
  2
ACAD_PSEXT
 70
     0
  0
APPID
  2
ACAD_DSTYLE_DIMJAG
 70
     0
  0
APPID
  2
ACAD_DSTYLE_DIMBREAK
 70
     0
  0
APPID
  2
ACAD_DSTYLE_DIMINSPECT
 70
     0
  0
APPID
  2
ACAD_EXEMPT_FROM_CAD_STANDARDS
 70
     0
  0
APPID
  2
ACAD_MLEADERVER
 70
     0
  0
ENDTAB
  0
TABLE
  2
DIMSTYLE
 70
    23
  0
DIMSTYLE
  2
BIGT
 70
     0
  3

  4

  5
OPEN
  6

  7

 40
1.0
 41
2.2299999999999991
 42
0.5
 43
7.0
 44
1.0
 45
0.0
 46
0.0
 47
0.0
 48
0.01
140
2.7999999999999989
141
0.0
142
0.0
143
25.399999999999999
144
1.0
145
0.0
146
1.0
147
1.0
 71
     0
 72
     0
 73
     0
 74
     0
 75
     0
 76
     0
 77
     3
 78
     9
170
     0
171
     2
172
     1
173
     0
174
     1
175
     0
176
   256
177
   256
178
    40
  0
DIMSTYLE
  2
AM_ISO
 70
     0
  3

  4
"
  5

  6

  7

 40
1.0
 41
2.5
 42
1.0
 43
10.0
 44
1.0
 45
0.0
 46
0.0
 47
0.1
 48
0.1
140
3.5
141
0.0
142
0.0
143
0.0393701
144
1.0
145
0.0
146
0.71
147
1.5
 71
     0
 72
     0
 73
     0
 74
     0
 75
     0
 76
     0
 77
     1
 78
     8
170
     0
171
     2
172
     1
173
     0
174
     0
175
     0
176
   256
177
   256
178
     2
  0
DIMSTYLE
  2
AM_ISO$3
 70
     0
  3

  4
"
  5

  6

  7

 40
1.0
 41
2.5
 42
1.0
 43
10.0
 44
1.0
 45
0.0
 46
0.0
 47
0.1
 48
0.1
140
3.5
141
0.0
142
0.0
143
0.0393701
144
1.0
145
0.0
146
0.71
147
1.5
 71
     0
 72
     0
 73
     0
 74
     1
 75
     0
 76
     0
 77
     1
 78
     8
170
     0
171
     2
172
     0
173
     0
174
     0
175
     0
176
   256
177
   256
178
     2
  0
DIMSTYLE
  2
AM_ISO$4
 70
     0
  3

  4
"
  5

  6

  7

 40
1.0
 41
2.5
 42
1.0
 43
10.0
 44
1.0
 45
0.0
 46
0.0
 47
0.1
 48
0.1
140
3.5
141
0.0
142
0.0
143
0.0393701
144
1.0
145
0.0
146
0.71
147
1.5
 71
     0
 72
     0
 73
     0
 74
     1
 75
     0
 76
     0
 77
     1
 78
     8
170
     0
171
     2
172
     0
173
     0
174
     0
175
     0
176
   256
177
   256
178
     2
  0
DIMSTYLE
  2
AM_ISO$6
 70
     0
  3

  4
"
  5

  6

  7

 40
1.0
 41
2.5
 42
1.0
 43
10.0
 44
1.0
 45
0.0
 46
0.0
 47
0.1
 48
0.1
140
3.5
141
0.0
142
0.0
143
0.0393701
144
1.0
145
0.0
146
0.71
147
1.5
 71
     0
 72
     0
 73
     0
 74
     0
 75
     0
 76
     0
 77
     0
 78
     8
170
     0
171
     2
172
     1
173
     0
174
     0
175
     0
176
   256
177
   256
178
     2
  0
DIMSTYLE
  2
AM_ISO$7
 70
     0
  3

  4
"
  5

  6

  7

 40
1.0
 41
2.5
 42
1.0
 43
10.0
 44
1.0
 45
0.0
 46
0.0
 47
0.1
 48
0.1
140
5.0
141
0.0
142
0.0
143
0.0393701
144
1.0
145
0.0
146
0.71
147
1.5
 71
     0
 72
     0
 73
     0
 74
     0
 75
     0
 76
     0
 77
     1
 78
     8
170
     0
171
     2
172
     1
173
     0
174
     0
175
     0
176
   256
177
   256
178
     2
  0
DIMSTYLE
  2
AM_ISO$SF
 70
     0
  3

  4
"
  5

  6

  7

 40
1.0
 41
2.5
 42
1.0
 43
10.0
 44
1.0
 45
0.0
 46
0.0
 47
0.1
 48
0.1
140
3.5
141
0.0
142
0.0
143
0.0393701
144
1.0
145
0.0
146
0.71
147
1.5
 71
     0
 72
     0
 73
     0
 74
     0
 75
     1
 76
     1
 77
     1
 78
     8
170
     0
171
     2
172
     1
173
     0
174
     0
175
     0
176
   256
177
   256
178
     2
  0
DIMSTYLE
  2
AM_ISO$SH
 70
     0
  3

  4
"
  5

  6
GENAXEH
  7

 40
1.0
 41
2.5
 42
1.0
 43
10.0
 44
1.0
 45
0.0
 46
0.0
 47
0.1
 48
0.1
140
3.5
141
0.0
142
0.0
143
0.0393701
144
2.0
145
0.0
146
0.71
147
1.5
 71
     0
 72
     0
 73
     0
 74
     0
 75
     1
 76
     1
 77
     1
 78
     8
170
     0
171
     2
172
     1
173
     1
174
     0
175
     0
176
   256
177
   256
178
     2
  0
ENDTAB
  0
ENDSEC
  0
SECTION
  2
BLOCKS
  0
BLOCK
  8
0
  2
$MODEL_SPACE
 70
     0
 10
0.0
 20
0.0
 30
0.0
  3
$MODEL_SPACE
  1

  0
ENDBLK
  5
1C
  8
0
  0
BLOCK
 67
     1
  8
0
  2
$PAPER_SPACE
 70
     0
 10
0.0
 20
0.0
 30
0.0
  3
$PAPER_SPACE
  1

  0
ENDBLK
  5
19
 67
     1
  8
0
  0
BLOCK
  8
0
  2
_OPEN
 70
     0
 10
0.0
 20
0.0
 30
0.0
  3
_OPEN
  1

  0
LINE
  5
3E1A
  8
0
  6
BYBLOCK
 62
     0
 10
-1.0
 20
0.1666666666666666
 30
0.0
 11
0.0
 21
0.0
 31
0.0
  0
LINE
  5
3E1B
  8
0
  6
BYBLOCK
 62
     0
 10
-1.0
 20
-0.1666666666666666
 30
0.0
 11
0.0
 21
0.0
 31
0.0
  0
LINE
  5
3E1C
  8
0
  6
BYBLOCK
 62
     0
 10
0.0
 20
0.0
 30
0.0
 11
-1.0
 21
0.0
 31
0.0
  0
ENDBLK
  5
3E1D
  8
0
  0
BLOCK
  8
0
  2
GENAXEH
 70
     0
 10
0.0
 20
0.0
 30
0.0
  3
GENAXEH
  1

  0
LINE
  5
3E45
  8
0
 10
-1.0
 20
0.0
 30
0.0
 11
1.0
 21
0.0
 31
0.0
  0
ENDBLK
  5
3E46
  8
0
  0
ENDSEC
  0
SECTION
  2
ENTITIES
  0
TEXT
  5
42C0
  8
241
  6
CONTINUOUS
 10
-91.0
 20
56.0
 30
0.0
 40
7.5
  1
MGT36-AP1-2.5
  7
YOKO
  0
LINE
  5
42C1
  8
245
  6
CENTER2
 10
-92.566831448673483
 20
0.0
 30
0.0
 11
66.033353562681768
 21
0.0
 31
0.0
  0
LINE
  5
42C2
  8
245
  6
CENTER2
 10
-66.000000000001819
 20
19.999999999979991
 30
0.0
 11
-66.000000000005471
 21
-20.000000000012729
 31
0.0
1001
GENIUS_GENOREF_13
1005
433E
  0
LINE
  5
42C3
  8
241
  6
CONTINUOUS
 10
-9.0000000000018172
 20
-20.000000000018829
 30
0.0
 11
-9.0000000000018172
 21
19.999999999986091
 31
0.0
  0
LINE
  5
42C4
  8
240
  6
CONTINUOUS
 10
-9.0000000000018172
 20
26.499999999980169
 30
0.0
 11
-7.6262612902781131
 21
26.999999999978169
 31
0.0
  0
LINE
  5
42C5
  8
240
  6
CONTINUOUS
 10
0.0000000000237082
 20
26.999999999978169
 30
0.0
 11
-7.6262612902781131
 21
26.999999999978169
 31
0.0
  0
LINE
  5
42C6
  8
240
  6
CONTINUOUS
 10
-51.500000000020009
 20
19.999999999983629
 30
0.0
 11
-9.0000000000018172
 21
19.999999999986091
 31
0.0
  0
LINE
  5
42C7
  8
240
  6
CONTINUOUS
 10
-55.000000000020009
 20
16.499999999983629
 30
0.0
 11
-51.500000000020009
 21
19.999999999983629
 31
0.0
  0
LINE
  5
42C8
  8
240
  6
CONTINUOUS
 10
-55.000000000020009
 20
16.499999999983629
 30
0.0
 11
-66.000000000005471
 21
16.499999999983629
 31
0.0
  0
LINE
  5
42C9
  8
240
  6
CONTINUOUS
 10
-76.999999999987267
 20
16.49999999998181
 30
0.0
 11
-66.000000000001819
 21
16.499999999956341
 31
0.0
  0
LINE
  5
42CA
  8
240
  6
CONTINUOUS
 10
-76.999999999987267
 20
16.49999999998181
 30
0.0
 11
-80.499999999990905
 21
19.99999999998181
 31
0.0
  0
LINE
  5
42CB
  8
241
  6
CONTINUOUS
 10
-7.6262612902773981
 20
26.999999999977721
 30
0.0
 11
-7.6262612902773981
 21
-27.000000000010921
 31
0.0
  0
LINE
  5
42CC
  8
240
  6
CONTINUOUS
 10
-9.0000000000018172
 20
-26.500000000012921
 30
0.0
 11
-7.6262612902780802
 21
-27.000000000010921
 31
0.0
  0
LINE
  5
42CD
  8
240
  6
CONTINUOUS
 10
-0.0000000000090971
 20
-27.000000000010921
 30
0.0
 11
-7.6262612902780802
 21
-27.000000000010921
 31
0.0
  0
LINE
  5
42CE
  8
240
  6
CONTINUOUS
 10
-51.500000000020009
 20
-20.000000000016371
 30
0.0
 11
-9.0000000000018172
 21
-20.000000000018829
 31
0.0
  0
LINE
  5
42CF
  8
240
  6
CONTINUOUS
 10
-55.000000000020009
 20
-16.500000000016371
 30
0.0
 11
-51.500000000020009
 21
-20.000000000016371
 31
0.0
  0
LINE
  5
42D0
  8
240
  6
CONTINUOUS
 10
-55.000000000020009
 20
-16.500000000016371
 30
0.0
 11
-66.000000000005471
 21
-16.500000000016371
 31
0.0
  0
LINE
  5
42D1
  8
240
  6
CONTINUOUS
 10
-76.999999999987267
 20
-16.500000000014541
 30
0.0
 11
-66.000000000001819
 21
-16.499999999989079
 31
0.0
  0
LINE
  5
42D2
  8
240
  6
CONTINUOUS
 10
-76.999999999987267
 20
-16.500000000014541
 30
0.0
 11
-80.499999999990905
 21
-20.000000000014541
 31
0.0
  0
LINE
  5
42D3
  8
241
  6
CONTINUOUS
 10
-0.0000000000018435
 20
-27.000000000010921
 30
0.0
 11
0.0000000000018435
 21
26.999999999978169
 31
0.0
  0
LINE
  5
42D4
  8
240
  6
CONTINUOUS
 10
-90.000000000002771
 20
19.999999999995449
 30
0.0
 11
-80.499999999995453
 21
19.999999999995449
 31
0.0
  0
LINE
  5
42D5
  8
240
  6
CONTINUOUS
 10
-90.000000000000824
 20
-20.00000000000864
 30
0.0
 11
-90.000000000002771
 21
19.999999999995449
 31
0.0
  0
LINE
  5
42D6
  8
240
  6
CONTINUOUS
 10
-90.000000000000824
 20
-20.00000000000864
 30
0.0
 11
-80.499999999995453
 21
-20.00000000000864
 31
0.0
  0
LINE
  5
42D7
  8
241
  6
CONTINUOUS
 10
-45.000000000005457
 20
-20.00000000001674
 30
0.0
 11
-45.000000000001791
 21
19.999999999983999
 31
0.0
  0
LINE
  5
42D8
  8
241
  6
CONTINUOUS
 10
-31.500000000001808
 20
-20.000000000017529
 30
0.0
 11
-31.500000000001808
 21
19.99999999998478
 31
0.0
  0
LINE
  5
42D9
  8
241
  6
CONTINUOUS
 10
-42.500000000005457
 20
19.999999999984151
 30
0.0
 11
-42.500000000005457
 21
-20.00000000001689
 31
0.0
  0
LINE
  5
42DA
  8
241
  6
CONTINUOUS
 10
-29.000000000005471
 20
19.999999999984919
 30
0.0
 11
-29.000000000005461
 21
-20.000000000017671
 31
0.0
  0
LINE
  5
42DB
  8
240
  6
CONTINUOUS
 10
-9.0000000000018172
 20
19.999999999986091
 30
0.0
 11
-9.0000000000018172
 21
26.499999999980169
 31
0.0
  0
LINE
  5
42DC
  8
240
  6
CONTINUOUS
 10
-9.0000000000018172
 20
-20.000000000018829
 30
0.0
 11
-9.0000000000018172
 21
-26.500000000012921
 31
0.0
  0
LINE
  5
42DD
  8
247
  6
CONTINUOUS
 10
7.7062868435531859
 20
-17.750000000003791
 30
0.0
 11
7.7062868435532428
 21
-13.115384615673809
 31
0.0
  0
LINE
  5
42DE
  8
247
  6
CONTINUOUS
 10
5.206286843553241
 20
-16.954893499991719
 30
0.0
 11
7.3062868434692509
 21
-17.55705881006114
 31
0.0
  0
LINE
  5
42DF
  8
247
  6
CONTINUOUS
 10
6.202440689667239
 20
-16.32515140352281
 30
0.0
 11
6.202440689667239
 21
-17.24053601887082
 31
0.0
  0
ARC
  5
42E0
  8
247
  6
CONTINUOUS
 10
5.5910059108473433
 20
-16.08726340195059
 30
0.0
 40
0.3876715809326743
 50
72.997889675291987
 51
172.92416621851271
  0
ARC
  5
42E1
  8
247
  6
CONTINUOUS
 10
5.5115099745812559
 20
-16.382477556807888
 30
0.0
 40
0.6933047965358772
 50
4.7429368522013959
 51
73.849226273266481
1001
GENIUS_GENOBJ-N-FIL_13
1002
{
1000
OWNER
1000
GEN
1002
}
1001
GENIUS_GENODEF_13
1002
{
1000
HIER
1070
     0
1002
}
1002
{
1000
MANEDIT
1070
     0
1002
}
1002
{
1000
NOSEL
1070
     0
1002
}
1002
{
1000
BEHIND
1070
     0
1002
}
1002
{
1000
OTHER
1070
     0
1002
}
1002
{
1000
REACTOR
1002
}
  0
LINE
  5
42E2
  8
247
  6
CONTINUOUS
 10
7.3062868434692509
 20
-16.64167419471314
 30
0.0
 11
7.3062868434692509
 21
-17.55705881006114
 31
0.0
  0
LINE
  5
42E3
  8
247
  6
CONTINUOUS
 10
5.206286843553241
 20
-16.95489349999173
 30
0.0
 11
5.206286843553241
 21
-16.03950888464373
 31
0.0
  0
ARC
  5
42E4
  8
247
  6
CONTINUOUS
 10
6.5937038063211171
 20
-16.378306476270609
 30
0.0
 40
0.394857301075386
 50
65.990941652528775
 51
172.2634434590698
  0
ARC
  5
42E5
  8
247
  6
CONTINUOUS
 10
6.5974871708858132
 20
-16.712446610430689
 30
0.0
 40
0.7123241612361686
 50
5.7019851642581392
 51
77.27733843682222
1001
GENIUS_GENOBJ-N-FIL_13
1002
{
1000
OWNER
1000
GEN
1002
}
1001
GENIUS_GENODEF_13
1002
{
1000
HIER
1070
     0
1002
}
1002
{
1000
MANEDIT
1070
     0
1002
}
1002
{
1000
NOSEL
1070
     0
1002
}
1002
{
1000
BEHIND
1070
     0
1002
}
1002
{
1000
OTHER
1070
     0
1002
}
1002
{
1000
REACTOR
1002
}
  0
LINE
  5
42E6
  8
247
  6
CONTINUOUS
 10
7.3062868434692509
 20
-15.68398188706715
 30
0.0
 11
5.206286843553241
 21
-15.08181657699774
 31
0.0
  0
LINE
  5
42E7
  8
247
  6
CONTINUOUS
 10
5.206286843553241
 20
-13.585662730911739
 30
0.0
 11
5.206286843553241
 21
-13.98167836430736
 31
0.0
  0
LINE
  5
42E8
  8
247
  6
CONTINUOUS
 10
7.3062868434692509
 20
-14.60873965394774
 30
0.0
 11
7.3062868434692509
 21
-14.177970423195751
 31
0.0
  0
ARC
  5
42E9
  8
247
  6
CONTINUOUS
 10
6.6645864386366052
 20
-13.381816577073741
 30
0.0
 40
1.576855057639547
 50
202.35948814152729
 51
254.99324854284589
  0
ARC
  5
42EA
  8
247
  6
CONTINUOUS
 10
5.7721057020913804
 20
-13.847511366137001
 30
0.0
 40
0.6234706797009447
 50
94.994589319075374
 51
155.16632895730319
1001
GENIUS_GENOBJ-N-FIL_13
1002
{
1000
OWNER
1000
GEN
1002
}
1001
GENIUS_GENODEF_13
1002
{
1000
HIER
1070
     0
1002
}
1002
{
1000
MANEDIT
1070
     0
1002
}
1002
{
1000
NOSEL
1070
     0
1002
}
1002
{
1000
BEHIND
1070
     0
1002
}
1002
{
1000
OTHER
1070
     0
1002
}
1002
{
1000
REACTOR
1002
}
  0
ARC
  5
42EB
  8
247
  6
CONTINUOUS
 10
6.3683889655226809
 20
-14.44418395103656
 30
0.0
 40
0.9749472149106983
 50
15.846096555779839
 51
82.325137004169122
  0
ARC
  5
42EC
  8
247
  6
CONTINUOUS
 10
6.5777572455243103
 20
-14.035211638775991
 30
0.0
 40
0.9271945638692009
 50
249.71360167049701
 51
321.7887456564099
1001
GENIUS_GENOBJ-N-FIL_13
1002
{
1000
OWNER
1000
GEN
1002
}
1001
GENIUS_GENODEF_13
1002
{
1000
HIER
1070
     0
1002
}
1002
{
1000
MANEDIT
1070
     0
1002
}
1002
{
1000
NOSEL
1070
     0
1002
}
1002
{
1000
BEHIND
1070
     0
1002
}
1002
{
1000
OTHER
1070
     0
1002
}
1002
{
1000
REACTOR
1002
}
  0
LINE
  5
42ED
  8
247
  6
CONTINUOUS
 10
6.4985945358092172
 20
-13.962585807819741
 30
0.0
 11
6.4985945358092172
 21
-13.47797042322374
 31
0.0
  0
ARC
  5
42EE
  8
247
  6
CONTINUOUS
 10
6.456286843553241
 20
-17.750000000003791
 30
0.0
 40
1.25
 50
180.0
 51
0.0
  0
LINE
  5
42EF
  8
247
  6
CONTINUOUS
 10
5.206286843553241
 20
-17.750000000003791
 30
0.0
 11
5.206286843553241
 21
-17.303846153917782
 31
0.0
  0
ARC
  5
42F0
  8
247
  6
CONTINUOUS
 10
6.456286843553241
 20
-13.11538461567379
 30
0.0
 40
1.25
 50
0.0
 51
180.0
  0
POINT
  5
433E
  8
0
 10
-15041.480041667361
 20
9982.2519074072497
 30
0.0
1001
GENIUS_GENOLIS_13
1002
{
1000
ENT
1005
0
1005
0
1005
42C2
1005
0
1002
}
1001
GENIUS_GENOENT_13
1002
{
1000
MYREF
1005
433E
1002
}
1002
{
1000
GRP
1005
0
1002
}
1001
GENIUS_GENOBJ-N-CRS_13
1002
{
1000
OWNER
1000
GEN
1002
}
1001
GENIUS_GENODEF_13
1002
{
1000
HIER
1070
    10
1002
}
1002
{
1000
MANEDIT
1070
     1
1002
}
1002
{
1000
NOSEL
1070
     0
1002
}
1002
{
1000
BEHIND
1070
     0
1002
}
1002
{
1000
OTHER
1070
     0
1002
}
1002
{
1000
REACTOR
1002
}
  0
LINE
  5
437C
  8
240
  6
CONTINUOUS
 10
63.499999999996589
 20
-23.500000000006459
 30
0.0
 11
63.499999999996589
 21
23.50000000000648
 31
0.0
  0
LINE
  5
437E
  8
240
  6
CONTINUOUS
 10
60.500000000007603
 20
26.49999999999546
 30
0.0
 11
0.5000000000037872
 21
26.49999999999805
 31
0.0
  0
LINE
  5
437F
  8
240
  6
CONTINUOUS
 10
0.5000000000015225
 20
-26.500000000000259
 30
0.0
 11
60.50000000000302
 21
-26.499999999999972
 31
0.0
  0
LINE
  5
4386
  8
243
  6
HIDDEN2
 10
36.499999999999318
 20
-14.287500000003501
 30
0.0
 11
36.499999999999318
 21
14.28750000000036
 31
0.0
  0
LINE
  5
4387
  8
243
  6
HIDDEN2
 10
36.499999999999318
 20
14.28750000000036
 30
0.0
 11
63.499999999996589
 21
14.28750000000036
 31
0.0
  0
LINE
  5
4389
  8
243
  6
HIDDEN2
 10
36.499999999999318
 20
-14.287500000003501
 30
0.0
 11
63.499999999996589
 21
-14.287499999999181
 31
0.0
  0
LINE
  5
438A
  8
243
  6
HIDDEN2
 10
13.899999999999521
 20
-10.75499999999977
 30
0.0
 11
13.900000000002519
 21
10.75499999999977
 31
0.0
1001
GRPNAME
1000
0000002L
  0
CIRCLE
  5
438B
  8
241
  6
CONTINUOUS
 10
26.500000000002959
 20
0.0
 30
0.0
 40
4.250000000002955
  0
CIRCLE
  5
438C
  8
242
  6
CONTINUOUS
 10
26.500000000002959
 20
0.0
 30
0.0
 40
5.0000000000035243
  0
LINE
  5
438D
  8
243
  6
HIDDEN2
 10
13.900000000002519
 20
10.75499999999977
 30
0.0
 11
36.499999999999318
 21
10.75499999999977
 31
0.0
  0
LINE
  5
438E
  8
243
  6
HIDDEN2
 10
13.899999999999521
 20
-10.75499999999977
 30
0.0
 11
36.499999999999318
 21
-10.75499999999977
 31
0.0
  0
LINE
  5
438F
  8
244
  6
HIDDEN2
 10
13.900000000002519
 20
10.75499999999977
 30
0.0
 11
36.499999999999318
 21
-10.75499999999977
 31
0.0
  0
LINE
  5
4390
  8
244
  6
HIDDEN2
 10
13.899999999999521
 20
-10.75499999999977
 30
0.0
 11
36.499999999999318
 21
10.75499999999977
 31
0.0
  0
LINE
  5
4392
  8
245
  6
CENTER2
 10
26.50000000000307
 20
6.5185350742426769
 30
0.0
 11
26.50000000000307
 21
-6.3493347410039567
 31
0.0
  0
LINE
  5
4393
  8
240
  6
CONTINUOUS
 10
63.499999999996589
 20
-23.500000000006459
 30
0.0
 11
60.50000000000302
 21
-26.499999999999972
 31
0.0
  0
LINE
  5
4394
  8
240
  6
CONTINUOUS
 10
63.499999999996589
 20
23.50000000000648
 30
0.0
 11
60.500000000007603
 21
26.49999999999546
 31
0.0
  0
LINE
  5
4395
  8
240
  6
CONTINUOUS
 10
0.5000000000037882
 20
26.49999999999805
 30
0.0
 11
0.0000000000237082
 21
26.999999999978169
 31
0.0
  0
LINE
  5
4396
  8
240
  6
CONTINUOUS
 10
0.5000000000015225
 20
-26.500000000000259
 30
0.0
 11
-0.0000000000090972
 21
-27.000000000010921
 31
0.0
  0
LINE
  5
447A
  8
241
  6
CONTINUOUS
 10
43.499999999961403
 20
26.499999999996898
 30
0.0
 11
43.499999999960153
 21
-26.50000000000005
 31
0.0
  0
LINE
  5
447B
  8
241
  6
CONTINUOUS
 10
41.899999999955519
 20
26.499999999997019
 30
0.0
 11
41.899999999955519
 21
-26.50000000000006
 31
0.0
  0
LINE
  5
447C
  8
241
  6
CONTINUOUS
 10
40.499999999961339
 20
26.499999999996898
 30
0.0
 11
40.499999999961339
 21
-26.500000000000071
 31
0.0
  0
LINE
  5
447D
  8
241
  6
CONTINUOUS
 10
38.899999999955583
 20
26.500000000000199
 30
0.0
 11
38.899999999955348
 21
-26.500000000000071
 31
0.0
  0
LINE
  5
447E
  8
245
  6
CENTER2
 10
48.500000000000618
 20
23.737635204388909
 30
0.0
 11
48.500000000000682
 21
13.489884295117429
 31
0.0
  0
LINE
  5
447F
  8
245
  6
CENTER2
 10
42.227589786986748
 20
18.738329701425808
 30
0.0
 11
54.903291102533103
 21
18.738329701425808
 31
0.0
  0
POLYLINE
  5
4480
  8
241
  6
CONTINUOUS
 10
44.250000000000618
 20
18.47568331147172
 30
0.0
 66
     1
 70
     8
  0
VERTEX
  8
241
  5
45FA
 10
44.2500
 20
18.4757
 30
0.000000
  70
    32
  0
VERTEX
  8
241
  5
45FB
 10
44.2551
 20
18.3282
 30
0.000000
  70
    32
  0
VERTEX
  8
241
  5
45FC
 10
44.2705
 20
18.1811
 30
0.000000
  70
    32
  0
VERTEX
  8
241
  5
45FD
 10
44.2960
 20
18.0347
 30
0.000000
  70
    32
  0
VERTEX
  8
241
  5
45FE
 10
44.3317
 20
17.8894
 30
0.000000
  70
    32
  0
VERTEX
  8
241
  5
45FF
 10
44.3774
 20
17.7455
 30
0.000000
  70
    32
  0
VERTEX
  8
241
  5
4600
 10
44.4330
 20
17.6033
 30
0.000000
  70
    32
  0
VERTEX
  8
241
  5
4601
 10
44.4984
 20
17.4633
 30
0.000000
  70
    32
  0
VERTEX
  8
241
  5
4602
 10
44.5735
 20
17.3256
 30
0.000000
  70
    32
  0
VERTEX
  8
241
  5
4603
 10
44.6580
 20
17.1908
 30
0.000000
  70
    32
  0
VERTEX
  8
241
  5
4604
 10
44.7518
 20
17.0590
 30
0.000000
  70
    32
  0
VERTEX
  8
241
  5
4605
 10
44.8547
 20
16.9307
 30
0.000000
  70
    32
  0
VERTEX
  8
241
  5
4606
 10
44.9663
 20
16.8061
 30
0.000000
  70
    32
  0
VERTEX
  8
241
  5
4607
 10
45.0864
 20
16.6855
 30
0.000000
  70
    32
  0
VERTEX
  8
241
  5
4608
 10
45.2147
 20
16.5692
 30
0.000000
  70
    32
  0
VERTEX
  8
241
  5
4609
 10
45.3510
 20
16.4575
 30
0.000000
  70
    32
  0
VERTEX
  8
241
  5
460A
 10
45.4948
 20
16.3507
 30
0.000000
  70
    32
  0
VERTEX
  8
241
  5
460B
 10
45.6459
 20
16.2490
 30
0.000000
  70
    32
  0
VERTEX
  8
241
  5
460C
 10
45.8038
 20
16.1526
 30
0.000000
  70
    32
  0
VERTEX
  8
241
  5
460D
 10
45.9683
 20
16.0619
 30
0.000000
  70
    32
  0
VERTEX
  8
241
  5
460E
 10
46.1388
 20
15.9769
 30
0.000000
  70
    32
  0
VERTEX
  8
241
  5
460F
 10
46.3151
 20
15.8980
 30
0.000000
  70
    32
  0
VERTEX
  8
241
  5
4610
 10
46.4966
 20
15.8253
 30
0.000000
  70
    32
  0
VERTEX
  8
241
  5
4611
 10
46.6829
 20
15.7590
 30
0.000000
  70
    32
  0
VERTEX
  8
241
  5
4612
 10
46.8736
 20
15.6992
 30
0.000000
  70
    32
  0
VERTEX
  8
241
  5
4613
 10
47.0682
 20
15.6462
 30
0.000000
  70
    32
  0
VERTEX
  8
241
  5
4614
 10
47.2663
 20
15.5999
 30
0.000000
  70
    32
  0
VERTEX
  8
241
  5
4615
 10
47.4673
 20
15.5605
 30
0.000000
  70
    32
  0
VERTEX
  8
241
  5
4616
 10
47.6709
 20
15.5282
 30
0.000000
  70
    32
  0
VERTEX
  8
241
  5
4617
 10
47.8764
 20
15.5030
 30
0.000000
  70
    32
  0
VERTEX
  8
241
  5
4618
 10
48.0834
 20
15.4850
 30
0.000000
  70
    32
  0
VERTEX
  8
241
  5
4619
 10
48.2915
 20
15.4741
 30
0.000000
  70
    32
  0
VERTEX
  8
241
  5
461A
 10
48.5000
 20
15.4705
 30
0.000000
  70
    32
  0
VERTEX
  8
241
  5
461B
 10
48.7085
 20
15.4741
 30
0.000000
  70
    32
  0
VERTEX
  8
241
  5
461C
 10
48.9166
 20
15.4850
 30
0.000000
  70
    32
  0
VERTEX
  8
241
  5
461D
 10
49.1236
 20
15.5030
 30
0.000000
  70
    32
  0
VERTEX
  8
241
  5
461E
 10
49.3291
 20
15.5282
 30
0.000000
  70
    32
  0
VERTEX
  8
241
  5
461F
 10
49.5327
 20
15.5605
 30
0.000000
  70
    32
  0
VERTEX
  8
241
  5
4620
 10
49.7337
 20
15.5999
 30
0.000000
  70
    32
  0
VERTEX
  8
241
  5
4621
 10
49.9318
 20
15.6462
 30
0.000000
  70
    32
  0
VERTEX
  8
241
  5
4622
 10
50.1264
 20
15.6992
 30
0.000000
  70
    32
  0
VERTEX
  8
241
  5
4623
 10
50.3171
 20
15.7590
 30
0.000000
  70
    32
  0
VERTEX
  8
241
  5
4624
 10
50.5034
 20
15.8253
 30
0.000000
  70
    32
  0
VERTEX
  8
241
  5
4625
 10
50.6849
 20
15.8980
 30
0.000000
  70
    32
  0
VERTEX
  8
241
  5
4626
 10
50.8612
 20
15.9769
 30
0.000000
  70
    32
  0
VERTEX
  8
241
  5
4627
 10
51.0317
 20
16.0619
 30
0.000000
  70
    32
  0
VERTEX
  8
241
  5
4628
 10
51.1962
 20
16.1526
 30
0.000000
  70
    32
  0
VERTEX
  8
241
  5
4629
 10
51.3541
 20
16.2490
 30
0.000000
  70
    32
  0
VERTEX
  8
241
  5
462A
 10
51.5052
 20
16.3507
 30
0.000000
  70
    32
  0
VERTEX
  8
241
  5
462B
 10
51.6490
 20
16.4575
 30
0.000000
  70
    32
  0
VERTEX
  8
241
  5
462C
 10
51.7853
 20
16.5692
 30
0.000000
  70
    32
  0
VERTEX
  8
241
  5
462D
 10
51.9136
 20
16.6855
 30
0.000000
  70
    32
  0
VERTEX
  8
241
  5
462E
 10
52.0337
 20
16.8061
 30
0.000000
  70
    32
  0
VERTEX
  8
241
  5
462F
 10
52.1453
 20
16.9307
 30
0.000000
  70
    32
  0
VERTEX
  8
241
  5
4630
 10
52.2482
 20
17.0590
 30
0.000000
  70
    32
  0
VERTEX
  8
241
  5
4631
 10
52.3420
 20
17.1908
 30
0.000000
  70
    32
  0
VERTEX
  8
241
  5
4632
 10
52.4265
 20
17.3256
 30
0.000000
  70
    32
  0
VERTEX
  8
241
  5
4633
 10
52.5016
 20
17.4633
 30
0.000000
  70
    32
  0
VERTEX
  8
241
  5
4634
 10
52.5670
 20
17.6033
 30
0.000000
  70
    32
  0
VERTEX
  8
241
  5
4635
 10
52.6226
 20
17.7455
 30
0.000000
  70
    32
  0
VERTEX
  8
241
  5
4636
 10
52.6683
 20
17.8894
 30
0.000000
  70
    32
  0
VERTEX
  8
241
  5
4637
 10
52.7040
 20
18.0347
 30
0.000000
  70
    32
  0
VERTEX
  8
241
  5
4638
 10
52.7295
 20
18.1811
 30
0.000000
  70
    32
  0
VERTEX
  8
241
  5
4639
 10
52.7449
 20
18.3282
 30
0.000000
  70
    32
  0
VERTEX
  8
241
  5
463A
 10
52.7500
 20
18.4757
 30
0.000000
  70
    32
  0
VERTEX
  8
241
  5
463B
 10
52.7449
 20
18.6231
 30
0.000000
  70
    32
  0
VERTEX
  8
241
  5
463C
 10
52.7295
 20
18.7702
 30
0.000000
  70
    32
  0
VERTEX
  8
241
  5
463D
 10
52.7040
 20
18.9166
 30
0.000000
  70
    32
  0
VERTEX
  8
241
  5
463E
 10
52.6683
 20
19.0620
 30
0.000000
  70
    32
  0
VERTEX
  8
241
  5
463F
 10
52.6226
 20
19.2059
 30
0.000000
  70
    32
  0
VERTEX
  8
241
  5
4640
 10
52.5670
 20
19.3480
 30
0.000000
  70
    32
  0
VERTEX
  8
241
  5
4641
 10
52.5016
 20
19.4881
 30
0.000000
  70
    32
  0
VERTEX
  8
241
  5
4642
 10
52.4265
 20
19.6257
 30
0.000000
  70
    32
  0
VERTEX
  8
241
  5
4643
 10
52.3420
 20
19.7606
 30
0.000000
  70
    32
  0
VERTEX
  8
241
  5
4644
 10
52.2482
 20
19.8923
 30
0.000000
  70
    32
  0
VERTEX
  8
241
  5
4645
 10
52.1453
 20
20.0207
 30
0.000000
  70
    32
  0
VERTEX
  8
241
  5
4646
 10
52.0337
 20
20.1453
 30
0.000000
  70
    32
  0
VERTEX
  8
241
  5
4647
 10
51.9136
 20
20.2659
 30
0.000000
  70
    32
  0
VERTEX
  8
241
  5
4648
 10
51.7853
 20
20.3822
 30
0.000000
  70
    32
  0
VERTEX
  8
241
  5
4649
 10
51.6490
 20
20.4939
 30
0.000000
  70
    32
  0
VERTEX
  8
241
  5
464A
 10
51.5052
 20
20.6007
 30
0.000000
  70
    32
  0
VERTEX
  8
241
  5
464B
 10
51.3541
 20
20.7024
 30
0.000000
  70
    32
  0
VERTEX
  8
241
  5
464C
 10
51.1962
 20
20.7987
 30
0.000000
  70
    32
  0
VERTEX
  8
241
  5
464D
 10
51.0317
 20
20.8895
 30
0.000000
  70
    32
  0
VERTEX
  8
241
  5
464E
 10
50.8612
 20
20.9744
 30
0.000000
  70
    32
  0
VERTEX
  8
241
  5
464F
 10
50.6849
 20
21.0533
 30
0.000000
  70
    32
  0
VERTEX
  8
241
  5
4650
 10
50.5034
 20
21.1260
 30
0.000000
  70
    32
  0
VERTEX
  8
241
  5
4651
 10
50.3171
 20
21.1924
 30
0.000000
  70
    32
  0
VERTEX
  8
241
  5
4652
 10
50.1264
 20
21.2521
 30
0.000000
  70
    32
  0
VERTEX
  8
241
  5
4653
 10
49.9318
 20
21.3052
 30
0.000000
  70
    32
  0
VERTEX
  8
241
  5
4654
 10
49.7337
 20
21.3515
 30
0.000000
  70
    32
  0
VERTEX
  8
241
  5
4655
 10
49.5327
 20
21.3908
 30
0.000000
  70
    32
  0
VERTEX
  8
241
  5
4656
 10
49.3291
 20
21.4231
 30
0.000000
  70
    32
  0
VERTEX
  8
241
  5
4657
 10
49.1236
 20
21.4484
 30
0.000000
  70
    32
  0
VERTEX
  8
241
  5
4658
 10
48.9166
 20
21.4664
 30
0.000000
  70
    32
  0
VERTEX
  8
241
  5
4659
 10
48.7085
 20
21.4773
 30
0.000000
  70
    32
  0
VERTEX
  8
241
  5
465A
 10
48.5000
 20
21.4809
 30
0.000000
  70
    32
  0
VERTEX
  8
241
  5
465B
 10
48.2915
 20
21.4773
 30
0.000000
  70
    32
  0
VERTEX
  8
241
  5
465C
 10
48.0834
 20
21.4664
 30
0.000000
  70
    32
  0
VERTEX
  8
241
  5
465D
 10
47.8764
 20
21.4484
 30
0.000000
  70
    32
  0
VERTEX
  8
241
  5
465E
 10
47.6709
 20
21.4231
 30
0.000000
  70
    32
  0
VERTEX
  8
241
  5
465F
 10
47.4673
 20
21.3908
 30
0.000000
  70
    32
  0
VERTEX
  8
241
  5
4660
 10
47.2663
 20
21.3515
 30
0.000000
  70
    32
  0
VERTEX
  8
241
  5
4661
 10
47.0682
 20
21.3052
 30
0.000000
  70
    32
  0
VERTEX
  8
241
  5
4662
 10
46.8736
 20
21.2521
 30
0.000000
  70
    32
  0
VERTEX
  8
241
  5
4663
 10
46.6829
 20
21.1924
 30
0.000000
  70
    32
  0
VERTEX
  8
241
  5
4664
 10
46.4966
 20
21.1260
 30
0.000000
  70
    32
  0
VERTEX
  8
241
  5
4665
 10
46.3151
 20
21.0533
 30
0.000000
  70
    32
  0
VERTEX
  8
241
  5
4666
 10
46.1388
 20
20.9744
 30
0.000000
  70
    32
  0
VERTEX
  8
241
  5
4667
 10
45.9683
 20
20.8895
 30
0.000000
  70
    32
  0
VERTEX
  8
241
  5
4668
 10
45.8038
 20
20.7987
 30
0.000000
  70
    32
  0
VERTEX
  8
241
  5
4669
 10
45.6459
 20
20.7024
 30
0.000000
  70
    32
  0
VERTEX
  8
241
  5
466A
 10
45.4948
 20
20.6007
 30
0.000000
  70
    32
  0
VERTEX
  8
241
  5
466B
 10
45.3510
 20
20.4939
 30
0.000000
  70
    32
  0
VERTEX
  8
241
  5
466C
 10
45.2147
 20
20.3822
 30
0.000000
  70
    32
  0
VERTEX
  8
241
  5
466D
 10
45.0864
 20
20.2659
 30
0.000000
  70
    32
  0
VERTEX
  8
241
  5
466E
 10
44.9663
 20
20.1453
 30
0.000000
  70
    32
  0
VERTEX
  8
241
  5
466F
 10
44.8547
 20
20.0207
 30
0.000000
  70
    32
  0
VERTEX
  8
241
  5
4670
 10
44.7518
 20
19.8923
 30
0.000000
  70
    32
  0
VERTEX
  8
241
  5
4671
 10
44.6580
 20
19.7606
 30
0.000000
  70
    32
  0
VERTEX
  8
241
  5
4672
 10
44.5735
 20
19.6257
 30
0.000000
  70
    32
  0
VERTEX
  8
241
  5
4673
 10
44.4984
 20
19.4881
 30
0.000000
  70
    32
  0
VERTEX
  8
241
  5
4674
 10
44.4330
 20
19.3480
 30
0.000000
  70
    32
  0
VERTEX
  8
241
  5
4675
 10
44.3774
 20
19.2059
 30
0.000000
  70
    32
  0
VERTEX
  8
241
  5
4676
 10
44.3317
 20
19.0620
 30
0.000000
  70
    32
  0
VERTEX
  8
241
  5
4677
 10
44.2960
 20
18.9166
 30
0.000000
  70
    32
  0
VERTEX
  8
241
  5
4678
 10
44.2705
 20
18.7702
 30
0.000000
  70
    32
  0
VERTEX
  8
241
  5
4679
 10
44.2551
 20
18.6231
 30
0.000000
  70
    32
  0
VERTEX
  8
241
  5
467A
 10
44.2500
 20
18.4757
 30
0.000000
  70
    32
  0
SEQEND
  8
241
  5
467B
  0
POLYLINE
  5
4481
  8
242
  6
CONTINUOUS
 10
43.500000000000618
 20
18.373724168501749
 30
0.0
 66
     1
 70
     8
  0
VERTEX
  8
242
  5
467C
 10
43.5000
 20
18.3737
 30
0.000000
  70
    32
  0
VERTEX
  8
242
  5
467D
 10
43.5060
 20
18.2002
 30
0.000000
  70
    32
  0
VERTEX
  8
242
  5
467E
 10
43.5241
 20
18.0272
 30
0.000000
  70
    32
  0
VERTEX
  8
242
  5
467F
 10
43.5541
 20
17.8550
 30
0.000000
  70
    32
  0
VERTEX
  8
242
  5
4680
 10
43.5961
 20
17.6840
 30
0.000000
  70
    32
  0
VERTEX
  8
242
  5
4681
 10
43.6498
 20
17.5147
 30
0.000000
  70
    32
  0
VERTEX
  8
242
  5
4682
 10
43.7153
 20
17.3474
 30
0.000000
  70
    32
  0
VERTEX
  8
242
  5
4683
 10
43.7923
 20
17.1826
 30
0.000000
  70
    32
  0
VERTEX
  8
242
  5
4684
 10
43.8806
 20
17.0207
 30
0.000000
  70
    32
  0
VERTEX
  8
242
  5
4685
 10
43.9801
 20
16.8621
 30
0.000000
  70
    32
  0
VERTEX
  8
242
  5
4686
 10
44.0904
 20
16.7071
 30
0.000000
  70
    32
  0
VERTEX
  8
242
  5
4687
 10
44.2114
 20
16.5561
 30
0.000000
  70
    32
  0
VERTEX
  8
242
  5
4688
 10
44.3427
 20
16.4095
 30
0.000000
  70
    32
  0
VERTEX
  8
242
  5
4689
 10
44.4840
 20
16.2676
 30
0.000000
  70
    32
  0
VERTEX
  8
242
  5
468A
 10
44.6349
 20
16.1308
 30
0.000000
  70
    32
  0
VERTEX
  8
242
  5
468B
 10
44.7952
 20
15.9994
 30
0.000000
  70
    32
  0
VERTEX
  8
242
  5
468C
 10
44.9645
 20
15.8737
 30
0.000000
  70
    32
  0
VERTEX
  8
242
  5
468D
 10
45.1422
 20
15.7541
 30
0.000000
  70
    32
  0
VERTEX
  8
242
  5
468E
 10
45.3280
 20
15.6407
 30
0.000000
  70
    32
  0
VERTEX
  8
242
  5
468F
 10
45.5215
 20
15.5340
 30
0.000000
  70
    32
  0
VERTEX
  8
242
  5
4690
 10
45.7221
 20
15.4340
 30
0.000000
  70
    32
  0
VERTEX
  8
242
  5
4691
 10
45.9295
 20
15.3412
 30
0.000000
  70
    32
  0
VERTEX
  8
242
  5
4692
 10
46.1430
 20
15.2557
 30
0.000000
  70
    32
  0
VERTEX
  8
242
  5
4693
 10
46.3622
 20
15.1776
 30
0.000000
  70
    32
  0
VERTEX
  8
242
  5
4694
 10
46.5866
 20
15.1073
 30
0.000000
  70
    32
  0
VERTEX
  8
242
  5
4695
 10
46.8156
 20
15.0449
 30
0.000000
  70
    32
  0
VERTEX
  8
242
  5
4696
 10
47.0486
 20
14.9904
 30
0.000000
  70
    32
  0
VERTEX
  8
242
  5
4697
 10
47.2851
 20
14.9441
 30
0.000000
  70
    32
  0
VERTEX
  8
242
  5
4698
 10
47.5245
 20
14.9061
 30
0.000000
  70
    32
  0
VERTEX
  8
242
  5
4699
 10
47.7663
 20
14.8765
 30
0.000000
  70
    32
  0
VERTEX
  8
242
  5
469A
 10
48.0099
 20
14.8552
 30
0.000000
  70
    32
  0
VERTEX
  8
242
  5
469B
 10
48.2547
 20
14.8424
 30
0.000000
  70
    32
  0
VERTEX
  8
242
  5
469C
 10
48.5000
 20
14.8382
 30
0.000000
  70
    32
  0
VERTEX
  8
242
  5
469D
 10
48.7453
 20
14.8424
 30
0.000000
  70
    32
  0
VERTEX
  8
242
  5
469E
 10
48.9901
 20
14.8552
 30
0.000000
  70
    32
  0
VERTEX
  8
242
  5
469F
 10
49.2337
 20
14.8765
 30
0.000000
  70
    32
  0
VERTEX
  8
242
  5
46A0
 10
49.4755
 20
14.9061
 30
0.000000
  70
    32
  0
VERTEX
  8
242
  5
46A1
 10
49.7149
 20
14.9441
 30
0.000000
  70
    32
  0
VERTEX
  8
242
  5
46A2
 10
49.9514
 20
14.9904
 30
0.000000
  70
    32
  0
VERTEX
  8
242
  5
46A3
 10
50.1844
 20
15.0449
 30
0.000000
  70
    32
  0
VERTEX
  8
242
  5
46A4
 10
50.4134
 20
15.1073
 30
0.000000
  70
    32
  0
VERTEX
  8
242
  5
46A5
 10
50.6378
 20
15.1776
 30
0.000000
  70
    32
  0
VERTEX
  8
242
  5
46A6
 10
50.8570
 20
15.2557
 30
0.000000
  70
    32
  0
VERTEX
  8
242
  5
46A7
 10
51.0705
 20
15.3412
 30
0.000000
  70
    32
  0
VERTEX
  8
242
  5
46A8
 10
51.2779
 20
15.4340
 30
0.000000
  70
    32
  0
VERTEX
  8
242
  5
46A9
 10
51.4785
 20
15.5340
 30
0.000000
  70
    32
  0
VERTEX
  8
242
  5
46AA
 10
51.6720
 20
15.6407
 30
0.000000
  70
    32
  0
VERTEX
  8
242
  5
46AB
 10
51.8578
 20
15.7541
 30
0.000000
  70
    32
  0
VERTEX
  8
242
  5
46AC
 10
52.0355
 20
15.8737
 30
0.000000
  70
    32
  0
VERTEX
  8
242
  5
46AD
 10
52.2048
 20
15.9994
 30
0.000000
  70
    32
  0
VERTEX
  8
242
  5
46AE
 10
52.3651
 20
16.1308
 30
0.000000
  70
    32
  0
VERTEX
  8
242
  5
46AF
 10
52.5160
 20
16.2676
 30
0.000000
  70
    32
  0
VERTEX
  8
242
  5
46B0
 10
52.6573
 20
16.4095
 30
0.000000
  70
    32
  0
VERTEX
  8
242
  5
46B1
 10
52.7886
 20
16.5561
 30
0.000000
  70
    32
  0
VERTEX
  8
242
  5
46B2
 10
52.9096
 20
16.7071
 30
0.000000
  70
    32
  0
VERTEX
  8
242
  5
46B3
 10
53.0199
 20
16.8621
 30
0.000000
  70
    32
  0
VERTEX
  8
242
  5
46B4
 10
53.1194
 20
17.0207
 30
0.000000
  70
    32
  0
VERTEX
  8
242
  5
46B5
 10
53.2077
 20
17.1826
 30
0.000000
  70
    32
  0
VERTEX
  8
242
  5
46B6
 10
53.2847
 20
17.3474
 30
0.000000
  70
    32
  0
VERTEX
  8
242
  5
46B7
 10
53.3502
 20
17.5147
 30
0.000000
  70
    32
  0
VERTEX
  8
242
  5
46B8
 10
53.4039
 20
17.6840
 30
0.000000
  70
    32
  0
VERTEX
  8
242
  5
46B9
 10
53.4459
 20
17.8550
 30
0.000000
  70
    32
  0
VERTEX
  8
242
  5
46BA
 10
53.4759
 20
18.0272
 30
0.000000
  70
    32
  0
VERTEX
  8
242
  5
46BB
 10
53.4940
 20
18.2002
 30
0.000000
  70
    32
  0
VERTEX
  8
242
  5
46BC
 10
53.5000
 20
18.3737
 30
0.000000
  70
    32
  0
VERTEX
  8
242
  5
46BD
 10
53.4940
 20
18.5472
 30
0.000000
  70
    32
  0
VERTEX
  8
242
  5
46BE
 10
53.4759
 20
18.7203
 30
0.000000
  70
    32
  0
VERTEX
  8
242
  5
46BF
 10
53.4459
 20
18.8925
 30
0.000000
  70
    32
  0
VERTEX
  8
242
  5
46C0
 10
53.4039
 20
19.0635
 30
0.000000
  70
    32
  0
VERTEX
  8
242
  5
46C1
 10
53.3502
 20
19.2328
 30
0.000000
  70
    32
  0
VERTEX
  8
242
  5
46C2
 10
53.2847
 20
19.4000
 30
0.000000
  70
    32
  0
VERTEX
  8
242
  5
46C3
 10
53.2077
 20
19.5648
 30
0.000000
  70
    32
  0
VERTEX
  8
242
  5
46C4
 10
53.1194
 20
19.7267
 30
0.000000
  70
    32
  0
VERTEX
  8
242
  5
46C5
 10
53.0199
 20
19.8854
 30
0.000000
  70
    32
  0
VERTEX
  8
242
  5
46C6
 10
52.9096
 20
20.0404
 30
0.000000
  70
    32
  0
VERTEX
  8
242
  5
46C7
 10
52.7886
 20
20.1914
 30
0.000000
  70
    32
  0
VERTEX
  8
242
  5
46C8
 10
52.6573
 20
20.3380
 30
0.000000
  70
    32
  0
VERTEX
  8
242
  5
46C9
 10
52.5160
 20
20.4798
 30
0.000000
  70
    32
  0
VERTEX
  8
242
  5
46CA
 10
52.3651
 20
20.6166
 30
0.000000
  70
    32
  0
VERTEX
  8
242
  5
46CB
 10
52.2048
 20
20.7480
 30
0.000000
  70
    32
  0
VERTEX
  8
242
  5
46CC
 10
52.0355
 20
20.8737
 30
0.000000
  70
    32
  0
VERTEX
  8
242
  5
46CD
 10
51.8578
 20
20.9934
 30
0.000000
  70
    32
  0
VERTEX
  8
242
  5
46CE
 10
51.6720
 20
21.1067
 30
0.000000
  70
    32
  0
VERTEX
  8
242
  5
46CF
 10
51.4785
 20
21.2135
 30
0.000000
  70
    32
  0
VERTEX
  8
242
  5
46D0
 10
51.2779
 20
21.3134
 30
0.000000
  70
    32
  0
VERTEX
  8
242
  5
46D1
 10
51.0705
 20
21.4063
 30
0.000000
  70
    32
  0
VERTEX
  8
242
  5
46D2
 10
50.8570
 20
21.4918
 30
0.000000
  70
    32
  0
VERTEX
  8
242
  5
46D3
 10
50.6378
 20
21.5698
 30
0.000000
  70
    32
  0
VERTEX
  8
242
  5
46D4
 10
50.4134
 20
21.6401
 30
0.000000
  70
    32
  0
VERTEX
  8
242
  5
46D5
 10
50.1844
 20
21.7026
 30
0.000000
  70
    32
  0
VERTEX
  8
242
  5
46D6
 10
49.9514
 20
21.7570
 30
0.000000
  70
    32
  0
VERTEX
  8
242
  5
46D7
 10
49.7149
 20
21.8033
 30
0.000000
  70
    32
  0
VERTEX
  8
242
  5
46D8
 10
49.4755
 20
21.8413
 30
0.000000
  70
    32
  0
VERTEX
  8
242
  5
46D9
 10
49.2337
 20
21.8710
 30
0.000000
  70
    32
  0
VERTEX
  8
242
  5
46DA
 10
48.9901
 20
21.8922
 30
0.000000
  70
    32
  0
VERTEX
  8
242
  5
46DB
 10
48.7453
 20
21.9050
 30
0.000000
  70
    32
  0
VERTEX
  8
242
  5
46DC
 10
48.5000
 20
21.9093
 30
0.000000
  70
    32
  0
VERTEX
  8
242
  5
46DD
 10
48.2547
 20
21.9050
 30
0.000000
  70
    32
  0
VERTEX
  8
242
  5
46DE
 10
48.0099
 20
21.8922
 30
0.000000
  70
    32
  0
VERTEX
  8
242
  5
46DF
 10
47.7663
 20
21.8710
 30
0.000000
  70
    32
  0
VERTEX
  8
242
  5
46E0
 10
47.5245
 20
21.8413
 30
0.000000
  70
    32
  0
VERTEX
  8
242
  5
46E1
 10
47.2851
 20
21.8033
 30
0.000000
  70
    32
  0
VERTEX
  8
242
  5
46E2
 10
47.0486
 20
21.7570
 30
0.000000
  70
    32
  0
VERTEX
  8
242
  5
46E3
 10
46.8156
 20
21.7026
 30
0.000000
  70
    32
  0
VERTEX
  8
242
  5
46E4
 10
46.5866
 20
21.6401
 30
0.000000
  70
    32
  0
VERTEX
  8
242
  5
46E5
 10
46.3622
 20
21.5698
 30
0.000000
  70
    32
  0
VERTEX
  8
242
  5
46E6
 10
46.1430
 20
21.4918
 30
0.000000
  70
    32
  0
VERTEX
  8
242
  5
46E7
 10
45.9295
 20
21.4063
 30
0.000000
  70
    32
  0
VERTEX
  8
242
  5
46E8
 10
45.7221
 20
21.3134
 30
0.000000
  70
    32
  0
VERTEX
  8
242
  5
46E9
 10
45.5215
 20
21.2135
 30
0.000000
  70
    32
  0
VERTEX
  8
242
  5
46EA
 10
45.3280
 20
21.1067
 30
0.000000
  70
    32
  0
VERTEX
  8
242
  5
46EB
 10
45.1422
 20
20.9934
 30
0.000000
  70
    32
  0
VERTEX
  8
242
  5
46EC
 10
44.9645
 20
20.8737
 30
0.000000
  70
    32
  0
VERTEX
  8
242
  5
46ED
 10
44.7952
 20
20.7480
 30
0.000000
  70
    32
  0
VERTEX
  8
242
  5
46EE
 10
44.6349
 20
20.6166
 30
0.000000
  70
    32
  0
VERTEX
  8
242
  5
46EF
 10
44.4840
 20
20.4798
 30
0.000000
  70
    32
  0
VERTEX
  8
242
  5
46F0
 10
44.3427
 20
20.3380
 30
0.000000
  70
    32
  0
VERTEX
  8
242
  5
46F1
 10
44.2114
 20
20.1914
 30
0.000000
  70
    32
  0
VERTEX
  8
242
  5
46F2
 10
44.0904
 20
20.0404
 30
0.000000
  70
    32
  0
VERTEX
  8
242
  5
46F3
 10
43.9801
 20
19.8854
 30
0.000000
  70
    32
  0
VERTEX
  8
242
  5
46F4
 10
43.8806
 20
19.7267
 30
0.000000
  70
    32
  0
VERTEX
  8
242
  5
46F5
 10
43.7923
 20
19.5648
 30
0.000000
  70
    32
  0
VERTEX
  8
242
  5
46F6
 10
43.7153
 20
19.4000
 30
0.000000
  70
    32
  0
VERTEX
  8
242
  5
46F7
 10
43.6498
 20
19.2328
 30
0.000000
  70
    32
  0
VERTEX
  8
242
  5
46F8
 10
43.5961
 20
19.0635
 30
0.000000
  70
    32
  0
VERTEX
  8
242
  5
46F9
 10
43.5541
 20
18.8925
 30
0.000000
  70
    32
  0
VERTEX
  8
242
  5
46FA
 10
43.5241
 20
18.7203
 30
0.000000
  70
    32
  0
VERTEX
  8
242
  5
46FB
 10
43.5060
 20
18.5472
 30
0.000000
  70
    32
  0
VERTEX
  8
242
  5
46FC
 10
43.5000
 20
18.3737
 30
0.000000
  70
    32
  0
SEQEND
  8
242
  5
46FD
  0
LINE
  5
4482
  8
245
  6
CENTER2
 10
48.500000000000618
 20
-23.737635204388909
 30
0.0
 11
48.500000000000682
 21
-13.489884295117429
 31
0.0
  0
POLYLINE
  5
4483
  8
241
  6
CONTINUOUS
 10
44.250000000000618
 20
-18.47568331147172
 30
0.0
 66
     1
 70
     8
  0
VERTEX
  8
241
  5
46FE
 10
44.2500
 20
-18.4757
 30
0.000000
  70
    32
  0
VERTEX
  8
241
  5
46FF
 10
44.2551
 20
-18.3282
 30
0.000000
  70
    32
  0
VERTEX
  8
241
  5
4700
 10
44.2705
 20
-18.1811
 30
0.000000
  70
    32
  0
VERTEX
  8
241
  5
4701
 10
44.2960
 20
-18.0347
 30
0.000000
  70
    32
  0
VERTEX
  8
241
  5
4702
 10
44.3317
 20
-17.8894
 30
0.000000
  70
    32
  0
VERTEX
  8
241
  5
4703
 10
44.3774
 20
-17.7455
 30
0.000000
  70
    32
  0
VERTEX
  8
241
  5
4704
 10
44.4330
 20
-17.6033
 30
0.000000
  70
    32
  0
VERTEX
  8
241
  5
4705
 10
44.4984
 20
-17.4633
 30
0.000000
  70
    32
  0
VERTEX
  8
241
  5
4706
 10
44.5735
 20
-17.3256
 30
0.000000
  70
    32
  0
VERTEX
  8
241
  5
4707
 10
44.6580
 20
-17.1908
 30
0.000000
  70
    32
  0
VERTEX
  8
241
  5
4708
 10
44.7518
 20
-17.0590
 30
0.000000
  70
    32
  0
VERTEX
  8
241
  5
4709
 10
44.8547
 20
-16.9307
 30
0.000000
  70
    32
  0
VERTEX
  8
241
  5
470A
 10
44.9663
 20
-16.8061
 30
0.000000
  70
    32
  0
VERTEX
  8
241
  5
470B
 10
45.0864
 20
-16.6855
 30
0.000000
  70
    32
  0
VERTEX
  8
241
  5
470C
 10
45.2147
 20
-16.5692
 30
0.000000
  70
    32
  0
VERTEX
  8
241
  5
470D
 10
45.3510
 20
-16.4575
 30
0.000000
  70
    32
  0
VERTEX
  8
241
  5
470E
 10
45.4948
 20
-16.3507
 30
0.000000
  70
    32
  0
VERTEX
  8
241
  5
470F
 10
45.6459
 20
-16.2490
 30
0.000000
  70
    32
  0
VERTEX
  8
241
  5
4710
 10
45.8038
 20
-16.1526
 30
0.000000
  70
    32
  0
VERTEX
  8
241
  5
4711
 10
45.9683
 20
-16.0619
 30
0.000000
  70
    32
  0
VERTEX
  8
241
  5
4712
 10
46.1388
 20
-15.9769
 30
0.000000
  70
    32
  0
VERTEX
  8
241
  5
4713
 10
46.3151
 20
-15.8980
 30
0.000000
  70
    32
  0
VERTEX
  8
241
  5
4714
 10
46.4966
 20
-15.8253
 30
0.000000
  70
    32
  0
VERTEX
  8
241
  5
4715
 10
46.6829
 20
-15.7590
 30
0.000000
  70
    32
  0
VERTEX
  8
241
  5
4716
 10
46.8736
 20
-15.6992
 30
0.000000
  70
    32
  0
VERTEX
  8
241
  5
4717
 10
47.0682
 20
-15.6462
 30
0.000000
  70
    32
  0
VERTEX
  8
241
  5
4718
 10
47.2663
 20
-15.5999
 30
0.000000
  70
    32
  0
VERTEX
  8
241
  5
4719
 10
47.4673
 20
-15.5605
 30
0.000000
  70
    32
  0
VERTEX
  8
241
  5
471A
 10
47.6709
 20
-15.5282
 30
0.000000
  70
    32
  0
VERTEX
  8
241
  5
471B
 10
47.8764
 20
-15.5030
 30
0.000000
  70
    32
  0
VERTEX
  8
241
  5
471C
 10
48.0834
 20
-15.4850
 30
0.000000
  70
    32
  0
VERTEX
  8
241
  5
471D
 10
48.2915
 20
-15.4741
 30
0.000000
  70
    32
  0
VERTEX
  8
241
  5
471E
 10
48.5000
 20
-15.4705
 30
0.000000
  70
    32
  0
VERTEX
  8
241
  5
471F
 10
48.7085
 20
-15.4741
 30
0.000000
  70
    32
  0
VERTEX
  8
241
  5
4720
 10
48.9166
 20
-15.4850
 30
0.000000
  70
    32
  0
VERTEX
  8
241
  5
4721
 10
49.1236
 20
-15.5030
 30
0.000000
  70
    32
  0
VERTEX
  8
241
  5
4722
 10
49.3291
 20
-15.5282
 30
0.000000
  70
    32
  0
VERTEX
  8
241
  5
4723
 10
49.5327
 20
-15.5605
 30
0.000000
  70
    32
  0
VERTEX
  8
241
  5
4724
 10
49.7337
 20
-15.5999
 30
0.000000
  70
    32
  0
VERTEX
  8
241
  5
4725
 10
49.9318
 20
-15.6462
 30
0.000000
  70
    32
  0
VERTEX
  8
241
  5
4726
 10
50.1264
 20
-15.6992
 30
0.000000
  70
    32
  0
VERTEX
  8
241
  5
4727
 10
50.3171
 20
-15.7590
 30
0.000000
  70
    32
  0
VERTEX
  8
241
  5
4728
 10
50.5034
 20
-15.8253
 30
0.000000
  70
    32
  0
VERTEX
  8
241
  5
4729
 10
50.6849
 20
-15.8980
 30
0.000000
  70
    32
  0
VERTEX
  8
241
  5
472A
 10
50.8612
 20
-15.9769
 30
0.000000
  70
    32
  0
VERTEX
  8
241
  5
472B
 10
51.0317
 20
-16.0619
 30
0.000000
  70
    32
  0
VERTEX
  8
241
  5
472C
 10
51.1962
 20
-16.1526
 30
0.000000
  70
    32
  0
VERTEX
  8
241
  5
472D
 10
51.3541
 20
-16.2490
 30
0.000000
  70
    32
  0
VERTEX
  8
241
  5
472E
 10
51.5052
 20
-16.3507
 30
0.000000
  70
    32
  0
VERTEX
  8
241
  5
472F
 10
51.6490
 20
-16.4575
 30
0.000000
  70
    32
  0
VERTEX
  8
241
  5
4730
 10
51.7853
 20
-16.5692
 30
0.000000
  70
    32
  0
VERTEX
  8
241
  5
4731
 10
51.9136
 20
-16.6855
 30
0.000000
  70
    32
  0
VERTEX
  8
241
  5
4732
 10
52.0337
 20
-16.8061
 30
0.000000
  70
    32
  0
VERTEX
  8
241
  5
4733
 10
52.1453
 20
-16.9307
 30
0.000000
  70
    32
  0
VERTEX
  8
241
  5
4734
 10
52.2482
 20
-17.0590
 30
0.000000
  70
    32
  0
VERTEX
  8
241
  5
4735
 10
52.3420
 20
-17.1908
 30
0.000000
  70
    32
  0
VERTEX
  8
241
  5
4736
 10
52.4265
 20
-17.3256
 30
0.000000
  70
    32
  0
VERTEX
  8
241
  5
4737
 10
52.5016
 20
-17.4633
 30
0.000000
  70
    32
  0
VERTEX
  8
241
  5
4738
 10
52.5670
 20
-17.6033
 30
0.000000
  70
    32
  0
VERTEX
  8
241
  5
4739
 10
52.6226
 20
-17.7455
 30
0.000000
  70
    32
  0
VERTEX
  8
241
  5
473A
 10
52.6683
 20
-17.8894
 30
0.000000
  70
    32
  0
VERTEX
  8
241
  5
473B
 10
52.7040
 20
-18.0347
 30
0.000000
  70
    32
  0
VERTEX
  8
241
  5
473C
 10
52.7295
 20
-18.1811
 30
0.000000
  70
    32
  0
VERTEX
  8
241
  5
473D
 10
52.7449
 20
-18.3282
 30
0.000000
  70
    32
  0
VERTEX
  8
241
  5
473E
 10
52.7500
 20
-18.4757
 30
0.000000
  70
    32
  0
VERTEX
  8
241
  5
473F
 10
52.7449
 20
-18.6231
 30
0.000000
  70
    32
  0
VERTEX
  8
241
  5
4740
 10
52.7295
 20
-18.7702
 30
0.000000
  70
    32
  0
VERTEX
  8
241
  5
4741
 10
52.7040
 20
-18.9166
 30
0.000000
  70
    32
  0
VERTEX
  8
241
  5
4742
 10
52.6683
 20
-19.0620
 30
0.000000
  70
    32
  0
VERTEX
  8
241
  5
4743
 10
52.6226
 20
-19.2059
 30
0.000000
  70
    32
  0
VERTEX
  8
241
  5
4744
 10
52.5670
 20
-19.3480
 30
0.000000
  70
    32
  0
VERTEX
  8
241
  5
4745
 10
52.5016
 20
-19.4881
 30
0.000000
  70
    32
  0
VERTEX
  8
241
  5
4746
 10
52.4265
 20
-19.6257
 30
0.000000
  70
    32
  0
VERTEX
  8
241
  5
4747
 10
52.3420
 20
-19.7606
 30
0.000000
  70
    32
  0
VERTEX
  8
241
  5
4748
 10
52.2482
 20
-19.8923
 30
0.000000
  70
    32
  0
VERTEX
  8
241
  5
4749
 10
52.1453
 20
-20.0207
 30
0.000000
  70
    32
  0
VERTEX
  8
241
  5
474A
 10
52.0337
 20
-20.1453
 30
0.000000
  70
    32
  0
VERTEX
  8
241
  5
474B
 10
51.9136
 20
-20.2659
 30
0.000000
  70
    32
  0
VERTEX
  8
241
  5
474C
 10
51.7853
 20
-20.3822
 30
0.000000
  70
    32
  0
VERTEX
  8
241
  5
474D
 10
51.6490
 20
-20.4939
 30
0.000000
  70
    32
  0
VERTEX
  8
241
  5
474E
 10
51.5052
 20
-20.6007
 30
0.000000
  70
    32
  0
VERTEX
  8
241
  5
474F
 10
51.3541
 20
-20.7024
 30
0.000000
  70
    32
  0
VERTEX
  8
241
  5
4750
 10
51.1962
 20
-20.7987
 30
0.000000
  70
    32
  0
VERTEX
  8
241
  5
4751
 10
51.0317
 20
-20.8895
 30
0.000000
  70
    32
  0
VERTEX
  8
241
  5
4752
 10
50.8612
 20
-20.9744
 30
0.000000
  70
    32
  0
VERTEX
  8
241
  5
4753
 10
50.6849
 20
-21.0533
 30
0.000000
  70
    32
  0
VERTEX
  8
241
  5
4754
 10
50.5034
 20
-21.1260
 30
0.000000
  70
    32
  0
VERTEX
  8
241
  5
4755
 10
50.3171
 20
-21.1924
 30
0.000000
  70
    32
  0
VERTEX
  8
241
  5
4756
 10
50.1264
 20
-21.2521
 30
0.000000
  70
    32
  0
VERTEX
  8
241
  5
4757
 10
49.9318
 20
-21.3052
 30
0.000000
  70
    32
  0
VERTEX
  8
241
  5
4758
 10
49.7337
 20
-21.3515
 30
0.000000
  70
    32
  0
VERTEX
  8
241
  5
4759
 10
49.5327
 20
-21.3908
 30
0.000000
  70
    32
  0
VERTEX
  8
241
  5
475A
 10
49.3291
 20
-21.4231
 30
0.000000
  70
    32
  0
VERTEX
  8
241
  5
475B
 10
49.1236
 20
-21.4484
 30
0.000000
  70
    32
  0
VERTEX
  8
241
  5
475C
 10
48.9166
 20
-21.4664
 30
0.000000
  70
    32
  0
VERTEX
  8
241
  5
475D
 10
48.7085
 20
-21.4773
 30
0.000000
  70
    32
  0
VERTEX
  8
241
  5
475E
 10
48.5000
 20
-21.4809
 30
0.000000
  70
    32
  0
VERTEX
  8
241
  5
475F
 10
48.2915
 20
-21.4773
 30
0.000000
  70
    32
  0
VERTEX
  8
241
  5
4760
 10
48.0834
 20
-21.4664
 30
0.000000
  70
    32
  0
VERTEX
  8
241
  5
4761
 10
47.8764
 20
-21.4484
 30
0.000000
  70
    32
  0
VERTEX
  8
241
  5
4762
 10
47.6709
 20
-21.4231
 30
0.000000
  70
    32
  0
VERTEX
  8
241
  5
4763
 10
47.4673
 20
-21.3908
 30
0.000000
  70
    32
  0
VERTEX
  8
241
  5
4764
 10
47.2663
 20
-21.3515
 30
0.000000
  70
    32
  0
VERTEX
  8
241
  5
4765
 10
47.0682
 20
-21.3052
 30
0.000000
  70
    32
  0
VERTEX
  8
241
  5
4766
 10
46.8736
 20
-21.2521
 30
0.000000
  70
    32
  0
VERTEX
  8
241
  5
4767
 10
46.6829
 20
-21.1924
 30
0.000000
  70
    32
  0
VERTEX
  8
241
  5
4768
 10
46.4966
 20
-21.1260
 30
0.000000
  70
    32
  0
VERTEX
  8
241
  5
4769
 10
46.3151
 20
-21.0533
 30
0.000000
  70
    32
  0
VERTEX
  8
241
  5
476A
 10
46.1388
 20
-20.9744
 30
0.000000
  70
    32
  0
VERTEX
  8
241
  5
476B
 10
45.9683
 20
-20.8895
 30
0.000000
  70
    32
  0
VERTEX
  8
241
  5
476C
 10
45.8038
 20
-20.7987
 30
0.000000
  70
    32
  0
VERTEX
  8
241
  5
476D
 10
45.6459
 20
-20.7024
 30
0.000000
  70
    32
  0
VERTEX
  8
241
  5
476E
 10
45.4948
 20
-20.6007
 30
0.000000
  70
    32
  0
VERTEX
  8
241
  5
476F
 10
45.3510
 20
-20.4939
 30
0.000000
  70
    32
  0
VERTEX
  8
241
  5
4770
 10
45.2147
 20
-20.3822
 30
0.000000
  70
    32
  0
VERTEX
  8
241
  5
4771
 10
45.0864
 20
-20.2659
 30
0.000000
  70
    32
  0
VERTEX
  8
241
  5
4772
 10
44.9663
 20
-20.1453
 30
0.000000
  70
    32
  0
VERTEX
  8
241
  5
4773
 10
44.8547
 20
-20.0207
 30
0.000000
  70
    32
  0
VERTEX
  8
241
  5
4774
 10
44.7518
 20
-19.8923
 30
0.000000
  70
    32
  0
VERTEX
  8
241
  5
4775
 10
44.6580
 20
-19.7606
 30
0.000000
  70
    32
  0
VERTEX
  8
241
  5
4776
 10
44.5735
 20
-19.6257
 30
0.000000
  70
    32
  0
VERTEX
  8
241
  5
4777
 10
44.4984
 20
-19.4881
 30
0.000000
  70
    32
  0
VERTEX
  8
241
  5
4778
 10
44.4330
 20
-19.3480
 30
0.000000
  70
    32
  0
VERTEX
  8
241
  5
4779
 10
44.3774
 20
-19.2059
 30
0.000000
  70
    32
  0
VERTEX
  8
241
  5
477A
 10
44.3317
 20
-19.0620
 30
0.000000
  70
    32
  0
VERTEX
  8
241
  5
477B
 10
44.2960
 20
-18.9166
 30
0.000000
  70
    32
  0
VERTEX
  8
241
  5
477C
 10
44.2705
 20
-18.7702
 30
0.000000
  70
    32
  0
VERTEX
  8
241
  5
477D
 10
44.2551
 20
-18.6231
 30
0.000000
  70
    32
  0
VERTEX
  8
241
  5
477E
 10
44.2500
 20
-18.4757
 30
0.000000
  70
    32
  0
SEQEND
  8
241
  5
477F
  0
POLYLINE
  5
4484
  8
242
  6
CONTINUOUS
 10
43.500000000000618
 20
-18.373724168501749
 30
0.0
 66
     1
 70
     8
  0
VERTEX
  8
242
  5
4780
 10
43.5000
 20
-18.3737
 30
0.000000
  70
    32
  0
VERTEX
  8
242
  5
4781
 10
43.5060
 20
-18.2002
 30
0.000000
  70
    32
  0
VERTEX
  8
242
  5
4782
 10
43.5241
 20
-18.0272
 30
0.000000
  70
    32
  0
VERTEX
  8
242
  5
4783
 10
43.5541
 20
-17.8550
 30
0.000000
  70
    32
  0
VERTEX
  8
242
  5
4784
 10
43.5961
 20
-17.6840
 30
0.000000
  70
    32
  0
VERTEX
  8
242
  5
4785
 10
43.6498
 20
-17.5147
 30
0.000000
  70
    32
  0
VERTEX
  8
242
  5
4786
 10
43.7153
 20
-17.3474
 30
0.000000
  70
    32
  0
VERTEX
  8
242
  5
4787
 10
43.7923
 20
-17.1826
 30
0.000000
  70
    32
  0
VERTEX
  8
242
  5
4788
 10
43.8806
 20
-17.0207
 30
0.000000
  70
    32
  0
VERTEX
  8
242
  5
4789
 10
43.9801
 20
-16.8621
 30
0.000000
  70
    32
  0
VERTEX
  8
242
  5
478A
 10
44.0904
 20
-16.7071
 30
0.000000
  70
    32
  0
VERTEX
  8
242
  5
478B
 10
44.2114
 20
-16.5561
 30
0.000000
  70
    32
  0
VERTEX
  8
242
  5
478C
 10
44.3427
 20
-16.4095
 30
0.000000
  70
    32
  0
VERTEX
  8
242
  5
478D
 10
44.4840
 20
-16.2676
 30
0.000000
  70
    32
  0
VERTEX
  8
242
  5
478E
 10
44.6349
 20
-16.1308
 30
0.000000
  70
    32
  0
VERTEX
  8
242
  5
478F
 10
44.7952
 20
-15.9994
 30
0.000000
  70
    32
  0
VERTEX
  8
242
  5
4790
 10
44.9645
 20
-15.8737
 30
0.000000
  70
    32
  0
VERTEX
  8
242
  5
4791
 10
45.1422
 20
-15.7541
 30
0.000000
  70
    32
  0
VERTEX
  8
242
  5
4792
 10
45.3280
 20
-15.6407
 30
0.000000
  70
    32
  0
VERTEX
  8
242
  5
4793
 10
45.5215
 20
-15.5340
 30
0.000000
  70
    32
  0
VERTEX
  8
242
  5
4794
 10
45.7221
 20
-15.4340
 30
0.000000
  70
    32
  0
VERTEX
  8
242
  5
4795
 10
45.9295
 20
-15.3412
 30
0.000000
  70
    32
  0
VERTEX
  8
242
  5
4796
 10
46.1430
 20
-15.2557
 30
0.000000
  70
    32
  0
VERTEX
  8
242
  5
4797
 10
46.3622
 20
-15.1776
 30
0.000000
  70
    32
  0
VERTEX
  8
242
  5
4798
 10
46.5866
 20
-15.1073
 30
0.000000
  70
    32
  0
VERTEX
  8
242
  5
4799
 10
46.8156
 20
-15.0449
 30
0.000000
  70
    32
  0
VERTEX
  8
242
  5
479A
 10
47.0486
 20
-14.9904
 30
0.000000
  70
    32
  0
VERTEX
  8
242
  5
479B
 10
47.2851
 20
-14.9441
 30
0.000000
  70
    32
  0
VERTEX
  8
242
  5
479C
 10
47.5245
 20
-14.9061
 30
0.000000
  70
    32
  0
VERTEX
  8
242
  5
479D
 10
47.7663
 20
-14.8765
 30
0.000000
  70
    32
  0
VERTEX
  8
242
  5
479E
 10
48.0099
 20
-14.8552
 30
0.000000
  70
    32
  0
VERTEX
  8
242
  5
479F
 10
48.2547
 20
-14.8424
 30
0.000000
  70
    32
  0
VERTEX
  8
242
  5
47A0
 10
48.5000
 20
-14.8382
 30
0.000000
  70
    32
  0
VERTEX
  8
242
  5
47A1
 10
48.7453
 20
-14.8424
 30
0.000000
  70
    32
  0
VERTEX
  8
242
  5
47A2
 10
48.9901
 20
-14.8552
 30
0.000000
  70
    32
  0
VERTEX
  8
242
  5
47A3
 10
49.2337
 20
-14.8765
 30
0.000000
  70
    32
  0
VERTEX
  8
242
  5
47A4
 10
49.4755
 20
-14.9061
 30
0.000000
  70
    32
  0
VERTEX
  8
242
  5
47A5
 10
49.7149
 20
-14.9441
 30
0.000000
  70
    32
  0
VERTEX
  8
242
  5
47A6
 10
49.9514
 20
-14.9904
 30
0.000000
  70
    32
  0
VERTEX
  8
242
  5
47A7
 10
50.1844
 20
-15.0449
 30
0.000000
  70
    32
  0
VERTEX
  8
242
  5
47A8
 10
50.4134
 20
-15.1073
 30
0.000000
  70
    32
  0
VERTEX
  8
242
  5
47A9
 10
50.6378
 20
-15.1776
 30
0.000000
  70
    32
  0
VERTEX
  8
242
  5
47AA
 10
50.8570
 20
-15.2557
 30
0.000000
  70
    32
  0
VERTEX
  8
242
  5
47AB
 10
51.0705
 20
-15.3412
 30
0.000000
  70
    32
  0
VERTEX
  8
242
  5
47AC
 10
51.2779
 20
-15.4340
 30
0.000000
  70
    32
  0
VERTEX
  8
242
  5
47AD
 10
51.4785
 20
-15.5340
 30
0.000000
  70
    32
  0
VERTEX
  8
242
  5
47AE
 10
51.6720
 20
-15.6407
 30
0.000000
  70
    32
  0
VERTEX
  8
242
  5
47AF
 10
51.8578
 20
-15.7541
 30
0.000000
  70
    32
  0
VERTEX
  8
242
  5
47B0
 10
52.0355
 20
-15.8737
 30
0.000000
  70
    32
  0
VERTEX
  8
242
  5
47B1
 10
52.2048
 20
-15.9994
 30
0.000000
  70
    32
  0
VERTEX
  8
242
  5
47B2
 10
52.3651
 20
-16.1308
 30
0.000000
  70
    32
  0
VERTEX
  8
242
  5
47B3
 10
52.5160
 20
-16.2676
 30
0.000000
  70
    32
  0
VERTEX
  8
242
  5
47B4
 10
52.6573
 20
-16.4095
 30
0.000000
  70
    32
  0
VERTEX
  8
242
  5
47B5
 10
52.7886
 20
-16.5561
 30
0.000000
  70
    32
  0
VERTEX
  8
242
  5
47B6
 10
52.9096
 20
-16.7071
 30
0.000000
  70
    32
  0
VERTEX
  8
242
  5
47B7
 10
53.0199
 20
-16.8621
 30
0.000000
  70
    32
  0
VERTEX
  8
242
  5
47B8
 10
53.1194
 20
-17.0207
 30
0.000000
  70
    32
  0
VERTEX
  8
242
  5
47B9
 10
53.2077
 20
-17.1826
 30
0.000000
  70
    32
  0
VERTEX
  8
242
  5
47BA
 10
53.2847
 20
-17.3474
 30
0.000000
  70
    32
  0
VERTEX
  8
242
  5
47BB
 10
53.3502
 20
-17.5147
 30
0.000000
  70
    32
  0
VERTEX
  8
242
  5
47BC
 10
53.4039
 20
-17.6840
 30
0.000000
  70
    32
  0
VERTEX
  8
242
  5
47BD
 10
53.4459
 20
-17.8550
 30
0.000000
  70
    32
  0
VERTEX
  8
242
  5
47BE
 10
53.4759
 20
-18.0272
 30
0.000000
  70
    32
  0
VERTEX
  8
242
  5
47BF
 10
53.4940
 20
-18.2002
 30
0.000000
  70
    32
  0
VERTEX
  8
242
  5
47C0
 10
53.5000
 20
-18.3737
 30
0.000000
  70
    32
  0
VERTEX
  8
242
  5
47C1
 10
53.4940
 20
-18.5472
 30
0.000000
  70
    32
  0
VERTEX
  8
242
  5
47C2
 10
53.4759
 20
-18.7203
 30
0.000000
  70
    32
  0
VERTEX
  8
242
  5
47C3
 10
53.4459
 20
-18.8925
 30
0.000000
  70
    32
  0
VERTEX
  8
242
  5
47C4
 10
53.4039
 20
-19.0635
 30
0.000000
  70
    32
  0
VERTEX
  8
242
  5
47C5
 10
53.3502
 20
-19.2328
 30
0.000000
  70
    32
  0
VERTEX
  8
242
  5
47C6
 10
53.2847
 20
-19.4000
 30
0.000000
  70
    32
  0
VERTEX
  8
242
  5
47C7
 10
53.2077
 20
-19.5648
 30
0.000000
  70
    32
  0
VERTEX
  8
242
  5
47C8
 10
53.1194
 20
-19.7267
 30
0.000000
  70
    32
  0
VERTEX
  8
242
  5
47C9
 10
53.0199
 20
-19.8854
 30
0.000000
  70
    32
  0
VERTEX
  8
242
  5
47CA
 10
52.9096
 20
-20.0404
 30
0.000000
  70
    32
  0
VERTEX
  8
242
  5
47CB
 10
52.7886
 20
-20.1914
 30
0.000000
  70
    32
  0
VERTEX
  8
242
  5
47CC
 10
52.6573
 20
-20.3380
 30
0.000000
  70
    32
  0
VERTEX
  8
242
  5
47CD
 10
52.5160
 20
-20.4798
 30
0.000000
  70
    32
  0
VERTEX
  8
242
  5
47CE
 10
52.3651
 20
-20.6166
 30
0.000000
  70
    32
  0
VERTEX
  8
242
  5
47CF
 10
52.2048
 20
-20.7480
 30
0.000000
  70
    32
  0
VERTEX
  8
242
  5
47D0
 10
52.0355
 20
-20.8737
 30
0.000000
  70
    32
  0
VERTEX
  8
242
  5
47D1
 10
51.8578
 20
-20.9934
 30
0.000000
  70
    32
  0
VERTEX
  8
242
  5
47D2
 10
51.6720
 20
-21.1067
 30
0.000000
  70
    32
  0
VERTEX
  8
242
  5
47D3
 10
51.4785
 20
-21.2135
 30
0.000000
  70
    32
  0
VERTEX
  8
242
  5
47D4
 10
51.2779
 20
-21.3134
 30
0.000000
  70
    32
  0
VERTEX
  8
242
  5
47D5
 10
51.0705
 20
-21.4063
 30
0.000000
  70
    32
  0
VERTEX
  8
242
  5
47D6
 10
50.8570
 20
-21.4918
 30
0.000000
  70
    32
  0
VERTEX
  8
242
  5
47D7
 10
50.6378
 20
-21.5698
 30
0.000000
  70
    32
  0
VERTEX
  8
242
  5
47D8
 10
50.4134
 20
-21.6401
 30
0.000000
  70
    32
  0
VERTEX
  8
242
  5
47D9
 10
50.1844
 20
-21.7026
 30
0.000000
  70
    32
  0
VERTEX
  8
242
  5
47DA
 10
49.9514
 20
-21.7570
 30
0.000000
  70
    32
  0
VERTEX
  8
242
  5
47DB
 10
49.7149
 20
-21.8033
 30
0.000000
  70
    32
  0
VERTEX
  8
242
  5
47DC
 10
49.4755
 20
-21.8413
 30
0.000000
  70
    32
  0
VERTEX
  8
242
  5
47DD
 10
49.2337
 20
-21.8710
 30
0.000000
  70
    32
  0
VERTEX
  8
242
  5
47DE
 10
48.9901
 20
-21.8922
 30
0.000000
  70
    32
  0
VERTEX
  8
242
  5
47DF
 10
48.7453
 20
-21.9050
 30
0.000000
  70
    32
  0
VERTEX
  8
242
  5
47E0
 10
48.5000
 20
-21.9093
 30
0.000000
  70
    32
  0
VERTEX
  8
242
  5
47E1
 10
48.2547
 20
-21.9050
 30
0.000000
  70
    32
  0
VERTEX
  8
242
  5
47E2
 10
48.0099
 20
-21.8922
 30
0.000000
  70
    32
  0
VERTEX
  8
242
  5
47E3
 10
47.7663
 20
-21.8710
 30
0.000000
  70
    32
  0
VERTEX
  8
242
  5
47E4
 10
47.5245
 20
-21.8413
 30
0.000000
  70
    32
  0
VERTEX
  8
242
  5
47E5
 10
47.2851
 20
-21.8033
 30
0.000000
  70
    32
  0
VERTEX
  8
242
  5
47E6
 10
47.0486
 20
-21.7570
 30
0.000000
  70
    32
  0
VERTEX
  8
242
  5
47E7
 10
46.8156
 20
-21.7026
 30
0.000000
  70
    32
  0
VERTEX
  8
242
  5
47E8
 10
46.5866
 20
-21.6401
 30
0.000000
  70
    32
  0
VERTEX
  8
242
  5
47E9
 10
46.3622
 20
-21.5698
 30
0.000000
  70
    32
  0
VERTEX
  8
242
  5
47EA
 10
46.1430
 20
-21.4918
 30
0.000000
  70
    32
  0
VERTEX
  8
242
  5
47EB
 10
45.9295
 20
-21.4063
 30
0.000000
  70
    32
  0
VERTEX
  8
242
  5
47EC
 10
45.7221
 20
-21.3134
 30
0.000000
  70
    32
  0
VERTEX
  8
242
  5
47ED
 10
45.5215
 20
-21.2135
 30
0.000000
  70
    32
  0
VERTEX
  8
242
  5
47EE
 10
45.3280
 20
-21.1067
 30
0.000000
  70
    32
  0
VERTEX
  8
242
  5
47EF
 10
45.1422
 20
-20.9934
 30
0.000000
  70
    32
  0
VERTEX
  8
242
  5
47F0
 10
44.9645
 20
-20.8737
 30
0.000000
  70
    32
  0
VERTEX
  8
242
  5
47F1
 10
44.7952
 20
-20.7480
 30
0.000000
  70
    32
  0
VERTEX
  8
242
  5
47F2
 10
44.6349
 20
-20.6166
 30
0.000000
  70
    32
  0
VERTEX
  8
242
  5
47F3
 10
44.4840
 20
-20.4798
 30
0.000000
  70
    32
  0
VERTEX
  8
242
  5
47F4
 10
44.3427
 20
-20.3380
 30
0.000000
  70
    32
  0
VERTEX
  8
242
  5
47F5
 10
44.2114
 20
-20.1914
 30
0.000000
  70
    32
  0
VERTEX
  8
242
  5
47F6
 10
44.0904
 20
-20.0404
 30
0.000000
  70
    32
  0
VERTEX
  8
242
  5
47F7
 10
43.9801
 20
-19.8854
 30
0.000000
  70
    32
  0
VERTEX
  8
242
  5
47F8
 10
43.8806
 20
-19.7267
 30
0.000000
  70
    32
  0
VERTEX
  8
242
  5
47F9
 10
43.7923
 20
-19.5648
 30
0.000000
  70
    32
  0
VERTEX
  8
242
  5
47FA
 10
43.7153
 20
-19.4000
 30
0.000000
  70
    32
  0
VERTEX
  8
242
  5
47FB
 10
43.6498
 20
-19.2328
 30
0.000000
  70
    32
  0
VERTEX
  8
242
  5
47FC
 10
43.5961
 20
-19.0635
 30
0.000000
  70
    32
  0
VERTEX
  8
242
  5
47FD
 10
43.5541
 20
-18.8925
 30
0.000000
  70
    32
  0
VERTEX
  8
242
  5
47FE
 10
43.5241
 20
-18.7203
 30
0.000000
  70
    32
  0
VERTEX
  8
242
  5
47FF
 10
43.5060
 20
-18.5472
 30
0.000000
  70
    32
  0
VERTEX
  8
242
  5
4800
 10
43.5000
 20
-18.3737
 30
0.000000
  70
    32
  0
SEQEND
  8
242
  5
4801
  0
LINE
  5
4485
  8
245
  6
CENTER2
 10
42.227589786986748
 20
-18.738329701425808
 30
0.0
 11
54.903291102533103
 21
-18.738329701425808
 31
0.0
  0
LINE
  5
4486
  8
241
  6
CONTINUOUS
 10
57.970849737795902
 20
26.499999999995261
 30
0.0
 11
57.970849737796129
 21
-26.499999999995261
 31
0.0
  0
LINE
  5
4487
  8
241
  6
CONTINUOUS
 10
59.029150262216199
 20
26.49999999999423
 30
0.0
 11
59.029150262213932
 21
-26.499999999995278
 31
0.0
  0
LINE
  5
4488
  8
241
  6
CONTINUOUS
 10
60.50000000000302
 20
-26.499999999999972
 30
0.0
 11
60.50000000000302
 21
26.49999999999546
 31
0.0
  0
LINE
  5
44AD
  8
250
  6
CONTINUOUS
 10
0.0000000000018436
 20
27.500000000000028
 30
0.0
 11
0.0000000000018445
 21
43.0
 31
0.0
  0
LINE
  5
44AE
  8
250
  6
CONTINUOUS
 10
63.499999999996589
 20
24.000000000006491
 30
0.0
 11
63.499999999996589
 21
43.0
 31
0.0
  0
LINE
  5
44AF
  8
250
  6
CONTINUOUS
 10
2.2300000000018438
 20
42.0
 30
0.0
 11
61.269999999996593
 21
42.0
 31
0.0
  0
LINE
  5
44B4
  8
250
  6
CONTINUOUS
 10
63.999999999996589
 20
14.28750000000036
 30
0.0
 11
78.0
 21
14.28750000000036
 31
0.0
  0
LINE
  5
44B5
  8
250
  6
CONTINUOUS
 10
63.999999999996589
 20
-14.287499999999181
 30
0.0
 11
78.0
 21
-14.28749999999919
 31
0.0
  0
LINE
  5
44B6
  8
250
  6
CONTINUOUS
 10
77.0
 20
12.05750000000036
 30
0.0
 11
77.0
 21
-12.057499999999189
 31
0.0
  0
LINE
  5
44BA
  8
250
  6
CONTINUOUS
 10
61.00000000000761
 20
26.49999999999546
 30
0.0
 11
85.0
 21
26.49999999999546
 31
0.0
  0
LINE
  5
44BB
  8
250
  6
CONTINUOUS
 10
61.000000000003027
 20
-26.499999999999972
 30
0.0
 11
85.0
 21
-26.499999999999972
 31
0.0
  0
LINE
  5
44BC
  8
250
  6
CONTINUOUS
 10
84.0
 20
24.269999999995449
 30
0.0
 11
84.0
 21
-24.269999999999971
 31
0.0
  0
LINE
  5
44C0
  8
250
  6
CONTINUOUS
 10
13.399999999999521
 20
-10.75499999999977
 30
0.0
 11
8.9071104744387934
 21
-10.754999999999759
 31
0.0
  0
LINE
  5
44C1
  8
250
  6
CONTINUOUS
 10
13.399999999999521
 20
10.75499999999977
 30
0.0
 11
8.9071104744387952
 21
10.75499999999977
 31
0.0
  0
LINE
  5
44C2
  8
250
  6
CONTINUOUS
 10
9.9071104744387934
 20
-8.5249999999997659
 30
0.0
 11
9.9071104744387952
 21
8.5249999999997694
 31
0.0
  0
TEXT
  5
44C6
  8
250
  6
CONTINUOUS
 10
8.9071104744387934
 20
-7.5999999999999952
 30
0.0
 40
2.7999999999999989
  1
üá
 50
90.0
  0
TEXT
  5
44C7
  8
250
  6
CONTINUOUS
 10
8.9071104744387934
 20
-4.2666666666666622
 30
0.0
 40
2.7999999999999989
  1
.843
 50
90.0
  0
LINE
  5
44C8
  8
250
  6
CONTINUOUS
 10
9.5354438077721309
 20
8.5249999999997694
 30
0.0
 11
9.9071104744387952
 21
10.75499999999977
 31
0.0
  0
LINE
  5
44C9
  8
250
  6
CONTINUOUS
 10
10.27877714110546
 20
8.5249999999997694
 30
0.0
 11
9.9071104744387952
 21
10.75499999999977
 31
0.0
  0
LINE
  5
44CA
  8
250
  6
CONTINUOUS
 10
9.9071104744387952
 20
10.75499999999977
 30
0.0
 11
9.9071104744387952
 21
8.5249999999997694
 31
0.0
  0
LINE
  5
44CB
  8
250
  6
CONTINUOUS
 10
10.27877714110546
 20
-8.5249999999997659
 30
0.0
 11
9.9071104744387934
 21
-10.754999999999759
 31
0.0
  0
LINE
  5
44CC
  8
250
  6
CONTINUOUS
 10
9.5354438077721273
 20
-8.5249999999997659
 30
0.0
 11
9.9071104744387934
 21
-10.754999999999759
 31
0.0
  0
LINE
  5
44CD
  8
250
  6
CONTINUOUS
 10
9.9071104744387934
 20
-10.754999999999759
 30
0.0
 11
9.9071104744387934
 21
-8.5249999999997659
 31
0.0
  0
TEXT
  5
44CE
  8
250
  6
CONTINUOUS
 10
75.999999999999986
 20
-7.2666666666660653
 30
0.0
 40
2.7999999999999989
  1
\U+22051.125
 50
90.0
  0
LINE
  5
44CF
  8
250
  6
CONTINUOUS
 10
77.371666666666655
 20
-12.057499999999189
 30
0.0
 11
77.0
 21
-14.28749999999919
 31
0.0
  0
LINE
  5
44D0
  8
250
  6
CONTINUOUS
 10
76.62833333333333
 20
-12.057499999999189
 30
0.0
 11
77.0
 21
-14.28749999999919
 31
0.0
  0
LINE
  5
44D1
  8
250
  6
CONTINUOUS
 10
77.0
 20
-14.28749999999919
 30
0.0
 11
77.0
 21
-12.057499999999189
 31
0.0
  0
LINE
  5
44D2
  8
250
  6
CONTINUOUS
 10
76.62833333333333
 20
12.05750000000036
 30
0.0
 11
77.0
 21
14.28750000000036
 31
0.0
  0
LINE
  5
44D3
  8
250
  6
CONTINUOUS
 10
77.371666666666655
 20
12.05750000000036
 30
0.0
 11
77.0
 21
14.28750000000036
 31
0.0
  0
LINE
  5
44D4
  8
250
  6
CONTINUOUS
 10
77.0
 20
14.28750000000036
 30
0.0
 11
77.0
 21
12.05750000000036
 31
0.0
  0
TEXT
  5
44D5
  8
250
  6
CONTINUOUS
 10
82.999999999999986
 20
-7.266666666668911
 30
0.0
 40
2.7999999999999989
  1
\U+22052.087
 50
90.0
  0
LINE
  5
44D6
  8
250
  6
CONTINUOUS
 10
84.371666666666684
 20
-24.269999999999971
 30
0.0
 11
84.0
 21
-26.499999999999972
 31
0.0
  0
LINE
  5
44D7
  8
250
  6
CONTINUOUS
 10
83.628333333333316
 20
-24.269999999999971
 30
0.0
 11
84.0
 21
-26.499999999999972
 31
0.0
  0
LINE
  5
44D8
  8
250
  6
CONTINUOUS
 10
84.0
 20
-26.499999999999972
 30
0.0
 11
84.0
 21
-24.269999999999971
 31
0.0
  0
LINE
  5
44D9
  8
250
  6
CONTINUOUS
 10
83.628333333333316
 20
24.269999999995449
 30
0.0
 11
84.0
 21
26.49999999999546
 31
0.0
  0
LINE
  5
44DA
  8
250
  6
CONTINUOUS
 10
84.371666666666684
 20
24.269999999995449
 30
0.0
 11
84.0
 21
26.49999999999546
 31
0.0
  0
LINE
  5
44DB
  8
250
  6
CONTINUOUS
 10
84.0
 20
26.49999999999546
 30
0.0
 11
84.0
 21
24.269999999995449
 31
0.0
  0
TEXT
  5
44DC
  8
250
  6
CONTINUOUS
 10
28.416666666665879
 20
43.0
 30
0.0
 40
2.7999999999999989
  1
2.50
  0
LINE
  5
44DD
  8
250
  6
CONTINUOUS
 10
61.269999999996593
 20
42.371666666666663
 30
0.0
 11
63.499999999996589
 21
42.0
 31
0.0
  0
LINE
  5
44DE
  8
250
  6
CONTINUOUS
 10
61.269999999996593
 20
41.62833333333333
 30
0.0
 11
63.499999999996589
 21
42.0
 31
0.0
  0
LINE
  5
44DF
  8
250
  6
CONTINUOUS
 10
63.499999999996589
 20
42.0
 30
0.0
 11
61.269999999996593
 21
42.0
 31
0.0
  0
LINE
  5
44E0
  8
250
  6
CONTINUOUS
 10
2.2300000000018438
 20
41.62833333333333
 30
0.0
 11
0.0000000000018444
 21
42.0
 31
0.0
  0
LINE
  5
44E1
  8
250
  6
CONTINUOUS
 10
2.2300000000018438
 20
42.371666666666663
 30
0.0
 11
0.0000000000018444
 21
42.0
 31
0.0
  0
LINE
  5
44E2
  8
250
  6
CONTINUOUS
 10
0.0000000000018444
 20
42.0
 30
0.0
 11
2.2300000000018438
 21
42.0
 31
0.0
  0
VIEWPORT
  5
22
 67
     1
  8
0
 10
261.51769911504419
 20
148.5
 30
0.0
 40
523.0353982300885
 41
297.0
 68
     1
 69
     1
1001
ACAD
1000
MVIEW
1002
{
1070
    16
1010
0.0
1020
0.0
1030
0.0
1010
0.0
1020
0.0
1030
1.0
1040
0.0
1040
297.0
1040
261.51769911504419
1040
148.5
1040
50.0
1040
0.0
1040
0.0
1070
     0
1070
   100
1070
     1
1070
     1
1070
     0
1070
     0
1070
     0
1070
     0
1040
0.0
1040
0.0
1040
0.0
1040
1.0
1040
1.0
1040
10.0
1040
10.0
1070
     0
1002
{
1002
}
1002
}
1001
GENIUS_GENODEF_13
1002
{
1000
HIER
1070
     0
1002
}
1002
{
1000
MANEDIT
1070
     0
1002
}
1002
{
1000
NOSEL
1070
     0
1002
}
1002
{
1000
BEHIND
1070
     0
1002
}
1002
{
1000
OTHER
1070
     0
1002
}
1002
{
1000
REACTOR
1002
}
1001
GENIUS_GENOBJ-N-SDF_13
1002
{
1000
OWNER
1000
GEN
1002
}
1001
GENIUS_GENSCREG_15
1000
PF
1040
1.0
1000
DF
1040
1.0
1000
MIN
1011
0.0
1021
0.0
1031
0.0
1021
0.0
1031
0.0
1000
MAX
1011
523.0353982300885
1021
0.0
1031
0.0
1021
297.0
1031
0.0
1000
FLAGS
1070
     4
  0
ENDSEC
  0
EOF
