  0
SECTION
  2
HEADER
  9
$ACADVER
  1
AC1009
  9
$INSBASE
 10
0.0
 20
0.0
 30
0.0
  9
$EXTMIN
 10
-92.566831448673483
 20
-27.000000000010921
 30
0.0
  9
$EXTMAX
 10
85.0
 20
64.928571428571445
 30
0.0
  9
$LIMMIN
 10
0.0
 20
0.0
  9
$LIMMAX
 10
297.0
 20
210.0
  9
$ORTHOMODE
 70
     0
  9
$REGENMODE
 70
     1
  9
$FILLMODE
 70
     1
  9
$QTEXTMODE
 70
     0
  9
$MIRRTEXT
 70
     1
  9
$DRAGMODE
 70
     2
  9
$LTSCALE
 40
10.0
  9
$OSMODE
 70
    37
  9
$ATTMODE
 70
     1
  9
$TEXTSIZE
 40
3.0
  9
$TRACEWID
 40
1.0
  9
$TEXTSTYLE
  7
YOKO
  9
$CLAYER
  8
240
  9
$CELTYPE
  6
BYLAYER
  9
$CECOLOR
 62
   256
  9
$DIMSCALE
 40
1.0
  9
$DIMASZ
 40
2.2299999999999991
  9
$DIMEXO
 40
0.5
  9
$DIMDLI
 40
7.0
  9
$DIMRND
 40
0.0
  9
$DIMDLE
 40
0.0
  9
$DIMEXE
 40
1.0
  9
$DIMTP
 40
0.0
  9
$DIMTM
 40
0.01
  9
$DIMTXT
 40
2.7999999999999989
  9
$DIMCEN
 40
0.0
  9
$DIMTSZ
 40
0.0
  9
$DIMTOL
 70
     0
  9
$DIMLIM
 70
     0
  9
$DIMTIH
 70
     0
  9
$DIMTOH
 70
     0
  9
$DIMSE1
 70
     0
  9
$DIMSE2
 70
     0
  9
$DIMTAD
 70
     3
  9
$DIMZIN
 70
     9
  9
$DIMBLK
  1
OPEN
  9
$DIMASO
 70
     1
  9
$DIMSHO
 70
     1
  9
$DIMPOST
  1

  9
$DIMAPOST
  1

  9
$DIMALT
 70
     0
  9
$DIMALTD
 70
     2
  9
$DIMALTF
 40
25.399999999999999
  9
$DIMLFAC
 40
1.0
  9
$DIMTOFL
 70
     1
  9
$DIMTVP
 40
0.0
  9
$DIMTIX
 70
     1
  9
$DIMSOXD
 70
     0
  9
$DIMSAH
 70
     0
  9
$DIMBLK1
  1

  9
$DIMBLK2
  1

  9
$DIMSTYLE
  2
BIGT
  9
$DIMCLRD
 70
   256
  9
$DIMCLRE
 70
   256
  9
$DIMCLRT
 70
    40
  9
$DIMTFAC
 40
1.0
  9
$DIMGAP
 40
1.0
  9
$LUNITS
 70
     2
  9
$LUPREC
 70
     6
  9
$SKETCHINC
 40
1.0
  9
$FILLETRAD
 40
1.0
  9
$AUNITS
 70
     0
  9
$AUPREC
 70
     6
  9
$MENU
  1
.
  9
$ELEVATION
 40
0.0
  9
$PELEVATION
 40
0.0
  9
$THICKNESS
 40
0.0
  9
$LIMCHECK
 70
     0
  9
$BLIPMODE
 70
     0
  9
$CHAMFERA
 40
0.2
  9
$CHAMFERB
 40
0.2
  9
$SKPOLY
 70
     0
  9
$TDCREATE
 40
2458148.5495714238
  9
$TDUPDATE
 40
2458148.59065007
  9
$TDINDWG
 40
0.0167368403
  9
$TDUSRTIMER
 40
0.0167368171
  9
$USRTIMER
 70
     1
  9
$ANGBASE
 50
0.0
  9
$ANGDIR
 70
     0
  9
$PDMODE
 70
     1
  9
$PDSIZE
 40
0.0
  9
$PLINEWID
 40
0.0
  9
$COORDS
 70
     1
  9
$SPLFRAME
 70
     0
  9
$SPLINETYPE
 70
     6
  9
$SPLINESEGS
 70
     4
  9
$ATTDIA
 70
     1
  9
$ATTREQ
 70
     1
  9
$HANDLING
 70
     1
  9
$HANDSEED
  5
4872
  9
$SURFTAB1
 70
     6
  9
$SURFTAB2
 70
     6
  9
$SURFTYPE
 70
     6
  9
$SURFU
 70
     6
  9
$SURFV
 70
     6
  9
$UCSNAME
  2

  9
$UCSORG
 10
0.0
 20
0.0
 30
0.0
  9
$UCSXDIR
 10
1.0
 20
0.0
 30
0.0
  9
$UCSYDIR
 10
0.0
 20
1.0
 30
0.0
  9
$PUCSNAME
  2

  9
$PUCSORG
 10
0.0
 20
0.0
 30
0.0
  9
$PUCSXDIR
 10
1.0
 20
0.0
 30
0.0
  9
$PUCSYDIR
 10
0.0
 20
1.0
 30
0.0
  9
$USERI1
 70
     1
  9
$USERI2
 70
     0
  9
$USERI3
 70
     0
  9
$USERI4
 70
     0
  9
$USERI5
 70
     0
  9
$USERR1
 40
0.0
  9
$USERR2
 40
0.0
  9
$USERR3
 40
0.0
  9
$USERR4
 40
0.0
  9
$USERR5
 40
0.0
  9
$WORLDVIEW
 70
     1
  9
$SHADEDGE
 70
     3
  9
$SHADEDIF
 70
    70
  9
$TILEMODE
 70
     1
  9
$MAXACTVP
 70
    16
  9
$PLIMCHECK
 70
     0
  9
$PEXTMIN
 10
1.0000000000000000E+020
 20
1.0000000000000000E+020
 30
1.0000000000000000E+020
  9
$PEXTMAX
 10
-1.0000000000000000E+020
 20
-1.0000000000000000E+020
 30
-1.0000000000000000E+020
  9
$PLIMMIN
 10
0.0
 20
0.0
  9
$PLIMMAX
 10
420.0
 20
297.0
  9
$UNITMODE
 70
     0
  9
$VISRETAIN
 70
     1
  9
$PLINEGEN
 70
     0
  9
$PSLTSCALE
 70
     1
  0
ENDSEC
  0
SECTION
  2
TABLES
  0
TABLE
  2
VPORT
 70
     1
  0
VPORT
  2
*ACTIVE
 70
     0
 10
0.0
 20
0.0
 11
1.0
 21
1.0
 12
3.413265058770548
 22
26.054294519473441
 13
0.0
 23
0.0
 14
7.0
 24
7.0
 15
7.0
 25
7.0
 16
0.0
 26
0.0
 36
1.0
 17
0.0
 27
0.0
 37
0.0
 40
181.5858376932153
 41
1.5644444444444441
 42
50.0
 43
0.0
 44
0.0
 50
0.0
 51
0.0
 71
     0
 72
  2000
 73
     1
 74
     0
 75
     0
 76
     1
 77
     0
 78
     0
  0
ENDTAB
  0
TABLE
  2
LTYPE
 70
    18
  0
LTYPE
  2
CONTINUOUS
 70
     0
  3
Solid line
 72
    65
 73
     0
 40
0.0
  0
LTYPE
  2
CENTER2
 70
     0
  3
___ _ ___ _ ___ _ ___ _ ___ _ ___ _ ___ _ ___ _
 72
    65
 73
     4
 40
1.125
 49
0.75
 49
-0.125
 49
0.125
 49
-0.125
  0
LTYPE
  2
HIDDEN2
 70
     0
  3
_ _ _ _ _ _ _ _ _ _ _ _ _ _ _ _ _ _ _ _ _ _ _ _
 72
    65
 73
     2
 40
0.1875
 49
0.125
 49
-0.0625
  0
LTYPE
  2
AM_ISO02W050
 70
     0
  3
__ __ __ __ __ __ __ __ __ __ __ __ __ __ __
 72
    65
 73
     2
 40
7.5
 49
6.0
 49
-1.5
  0
LTYPE
  2
AMCONSTR
 70
     0
  3
_______________________
 72
    65
 73
     2
 40
9999.0
 49
9999.0
 49
0.0
  0
LTYPE
  2
ACISOWELD
 70
     0
  3
_ _ _ _ _
 72
    65
 73
     2
 40
2.0
 49
2.0
 49
-1.0
  0
LTYPE
  2
ACISOTGB
 70
     0
  3
__ . . __ . .
 72
    65
 73
     6
 40
9.0
 49
4.0
 49
-1.0
 49
1.0
 49
-1.0
 49
1.0
 49
-1.0
  0
LTYPE
  2
ACISOTGL
 70
     0
  3
_ _ _ _ _
 72
    65
 73
     2
 40
3.0
 49
2.0
 49
-1.0
  0
LTYPE
  2
AM_ISO08W050
 70
     0
  3
____ . ____ . ____ . ____ . ____ . ____ . ____
 72
    65
 73
     4
 40
18.0
 49
12.0
 49
-1.5
 49
3.0
 49
-1.5
  0
LTYPE
  2
AM_ISO09W050
 70
     0
  3
_____ . . _____ . . _____ . . ____ .. ____
 72
    65
 73
     6
 40
22.5
 49
12.0
 49
-1.5
 49
3.0
 49
-1.5
 49
3.0
 49
-1.5
  0
LTYPE
  2
AM_ISO08W050X2
 70
     0
  3
__ . __ . __ . __ . __ . __
 72
    65
 73
     4
 40
9.0
 49
6.0
 49
-0.75
 49
1.5
 49
-0.75
  0
LTYPE
  2
AM_ISO02W050X2
 70
     0
  3
 _ _ _ _ _ _ _ _ _ _ _ _
 72
    65
 73
     2
 40
3.75
 49
3.0
 49
-0.75
  0
LTYPE
  2
AMZIGZAG
 70
     0
  3
/\/-/\/-/\/-/\/-/\/-/\/
 72
    65
 73
     2
 40
11.0001
 49
0.0001
 49
-11.0
  0
ENDTAB
  0
TABLE
  2
LAYER
 70
    10
  0
LAYER
  2
0
 70
     0
 62
     7
  6
CONTINUOUS
  0
LAYER
  2
DEFPOINTS
 70
     0
 62
     7
  6
CONTINUOUS
  0
LAYER
  2
245
 70
     0
 62
     2
  6
CENTER2
  0
LAYER
  2
240
 70
     0
 62
     4
  6
CONTINUOUS
  0
LAYER
  2
241
 70
     0
 62
   211
  6
CONTINUOUS
  0
LAYER
  2
242
 70
     0
 62
     3
  6
CONTINUOUS
  0
LAYER
  2
243
 70
     0
 62
   211
  6
HIDDEN2
  0
LAYER
  2
244
 70
     0
 62
     3
  6
HIDDEN2
  0
LAYER
  2
247
 70
     0
 62
    60
  6
CONTINUOUS
  0
LAYER
  2
250
 70
     0
 62
     3
  6
CONTINUOUS
  0
ENDTAB
  0
TABLE
  2
STYLE
 70
     7
  0
STYLE
  2
STANDARD
 70
     0
 40
0.0
 41
1.0
 50
0.0
 71
     0
 42
3.0
  3
romans.shx
  4
extfont.shx
  0
STYLE
  2
ACISOGDT
 70
     0
 40
0.0
 41
1.0
 50
0.0
 71
     0
 42
3.0
  3
amgdt.shx
  4
extfont.shx
  0
STYLE
  2
YOKO
 70
     0
 40
0.0
 41
1.0
 50
0.0
 71
     0
 42
3.0
  3
romans.shx
  4
extfont.shx
  0
STYLE
  2

 70
     1
 40
0.0
 41
1.0
 50
0.0
 71
     0
 42
3.0
  3
genltshp.shx
  4

  0
ENDTAB
  0
TABLE
  2
VIEW
 70
     0
  0
ENDTAB
  0
TABLE
  2
UCS
 70
     0
  0
ENDTAB
  0
TABLE
  2
APPID
 70
    40
  0
APPID
  2
ACAD
 70
     0
  0
APPID
  2
GLOBAL
 70
     0
  0
APPID
  2
DETAIL
 70
     0
  0
APPID
  2
GRPNAME
 70
     0
  0
APPID
  2
GPARA
 70
     0
  0
APPID
  2
MCAD_NO_VIS
 70
     0
  0
APPID
  2
ACAD_TEMP_GRAPHIC
 70
     0
  0
APPID
  2
ACATTRIBSERVICES
 70
     0
  0
APPID
  2
GENIUS_GENSCREG_15
 70
     0
  0
APPID
  2
GENIUS_GENODEF_13
 70
     0
  0
APPID
  2
GENIUS_GENOBJ-N-SDF_13
 70
     0
  0
APPID
  2
GENIUS_GENREC_14
 70
     0
  0
APPID
  2
GENIUS_GENOBJ-N-REC_13
 70
     0
  0
APPID
  2
GENIUS_GENDIMSH_14
 70
     0
  0
APPID
  2
GENIUS_GENOBJ-N-DIM_13
 70
     0
  0
APPID
  2
GENIUS_GENDIM_13
 70
     0
  0
APPID
  2
GENIUS_GENDTOL_13
 70
     0
  0
APPID
  2
GENIUS_GENOLIS_13
 70
     0
  0
APPID
  2
GENIUS_GENOENT_13
 70
     0
  0
APPID
  2
GENIUS_GENOBJ-F-FEM_13
 70
     0
  0
APPID
  2
GENIUS_GENOREF_13
 70
     0
  0
APPID
  2
GENIUS_GEFFEM_13
 70
     0
  0
APPID
  2
GENIUS_GEFFEMP_13
 70
     0
  0
APPID
  2
AD_DRAW
 70
     0
  0
APPID
  2
DESIGNERASSEMBLIES
 70
     0
  0
APPID
  2
ACADM_DIM_EDIT
 70
     0
  0
APPID
  2
AMDT_DM_ADJ
 70
     0
  0
APPID
  2
ITEMNAME
 70
     0
  0
APPID
  2
GENIUS_GENOBJ-N-FIL_13
 70
     0
  0
APPID
  2
GENIUS_GENFIL_13
 70
     0
  0
APPID
  2
GENIUS_GENOBJ-N-CHA_13
 70
     0
  0
APPID
  2
ACAECLAYERSTANDARD
 70
     0
  0
APPID
  2
ACAD_NAV_VCDISPLAY
 70
     0
  0
APPID
  2
GENIUS_GENOBJ-N-CRS_13
 70
     0
  0
APPID
  2
ACAD_PSEXT
 70
     0
  0
APPID
  2
ACAD_EXEMPT_FROM_CAD_STANDARDS
 70
     0
  0
APPID
  2
ACAD_DSTYLE_DIMINSPECT
 70
     0
  0
APPID
  2
ACAD_MLEADERVER
 70
     0
  0
APPID
  2
ACAD_DSTYLE_DIMBREAK
 70
     0
  0
APPID
  2
ACAD_DSTYLE_DIMJAG
 70
     0
  0
ENDTAB
  0
TABLE
  2
DIMSTYLE
 70
    23
  0
DIMSTYLE
  2
BIGT
 70
     0
  3

  4

  5
OPEN
  6

  7

 40
1.0
 41
2.2299999999999991
 42
0.5
 43
7.0
 44
1.0
 45
0.0
 46
0.0
 47
0.0
 48
0.01
140
2.7999999999999989
141
0.0
142
0.0
143
25.399999999999999
144
1.0
145
0.0
146
1.0
147
1.0
 71
     0
 72
     0
 73
     0
 74
     0
 75
     0
 76
     0
 77
     3
 78
     9
170
     0
171
     2
172
     1
173
     0
174
     1
175
     0
176
   256
177
   256
178
    40
  0
DIMSTYLE
  2
AM_ISO
 70
     0
  3

  4
"
  5

  6

  7

 40
1.0
 41
2.5
 42
1.0
 43
10.0
 44
1.0
 45
0.0
 46
0.0
 47
0.1
 48
0.1
140
3.5
141
0.0
142
0.0
143
0.0393701
144
1.0
145
0.0
146
0.71
147
1.5
 71
     0
 72
     0
 73
     0
 74
     0
 75
     0
 76
     0
 77
     1
 78
     8
170
     0
171
     2
172
     1
173
     0
174
     0
175
     0
176
   256
177
   256
178
     2
  0
DIMSTYLE
  2
AM_ISO$3
 70
     0
  3

  4
"
  5

  6

  7

 40
1.0
 41
2.5
 42
1.0
 43
10.0
 44
1.0
 45
0.0
 46
0.0
 47
0.1
 48
0.1
140
3.5
141
0.0
142
0.0
143
0.0393701
144
1.0
145
0.0
146
0.71
147
1.5
 71
     0
 72
     0
 73
     0
 74
     1
 75
     0
 76
     0
 77
     1
 78
     8
170
     0
171
     2
172
     0
173
     0
174
     0
175
     0
176
   256
177
   256
178
     2
  0
DIMSTYLE
  2
AM_ISO$4
 70
     0
  3

  4
"
  5

  6

  7

 40
1.0
 41
2.5
 42
1.0
 43
10.0
 44
1.0
 45
0.0
 46
0.0
 47
0.1
 48
0.1
140
3.5
141
0.0
142
0.0
143
0.0393701
144
1.0
145
0.0
146
0.71
147
1.5
 71
     0
 72
     0
 73
     0
 74
     1
 75
     0
 76
     0
 77
     1
 78
     8
170
     0
171
     2
172
     0
173
     0
174
     0
175
     0
176
   256
177
   256
178
     2
  0
DIMSTYLE
  2
AM_ISO$6
 70
     0
  3

  4
"
  5

  6

  7

 40
1.0
 41
2.5
 42
1.0
 43
10.0
 44
1.0
 45
0.0
 46
0.0
 47
0.1
 48
0.1
140
3.5
141
0.0
142
0.0
143
0.0393701
144
1.0
145
0.0
146
0.71
147
1.5
 71
     0
 72
     0
 73
     0
 74
     0
 75
     0
 76
     0
 77
     0
 78
     8
170
     0
171
     2
172
     1
173
     0
174
     0
175
     0
176
   256
177
   256
178
     2
  0
DIMSTYLE
  2
AM_ISO$7
 70
     0
  3

  4
"
  5

  6

  7

 40
1.0
 41
2.5
 42
1.0
 43
10.0
 44
1.0
 45
0.0
 46
0.0
 47
0.1
 48
0.1
140
5.0
141
0.0
142
0.0
143
0.0393701
144
1.0
145
0.0
146
0.71
147
1.5
 71
     0
 72
     0
 73
     0
 74
     0
 75
     0
 76
     0
 77
     1
 78
     8
170
     0
171
     2
172
     1
173
     0
174
     0
175
     0
176
   256
177
   256
178
     2
  0
DIMSTYLE
  2
AM_ISO$SF
 70
     0
  3

  4
"
  5

  6

  7

 40
1.0
 41
2.5
 42
1.0
 43
10.0
 44
1.0
 45
0.0
 46
0.0
 47
0.1
 48
0.1
140
3.5
141
0.0
142
0.0
143
0.0393701
144
1.0
145
0.0
146
0.71
147
1.5
 71
     0
 72
     0
 73
     0
 74
     0
 75
     1
 76
     1
 77
     1
 78
     8
170
     0
171
     2
172
     1
173
     0
174
     0
175
     0
176
   256
177
   256
178
     2
  0
DIMSTYLE
  2
AM_ISO$SH
 70
     0
  3

  4
"
  5

  6
GENAXEH
  7

 40
1.0
 41
2.5
 42
1.0
 43
10.0
 44
1.0
 45
0.0
 46
0.0
 47
0.1
 48
0.1
140
3.5
141
0.0
142
0.0
143
0.0393701
144
2.0
145
0.0
146
0.71
147
1.5
 71
     0
 72
     0
 73
     0
 74
     0
 75
     1
 76
     1
 77
     1
 78
     8
170
     0
171
     2
172
     1
173
     1
174
     0
175
     0
176
   256
177
   256
178
     2
  0
ENDTAB
  0
ENDSEC
  0
SECTION
  2
BLOCKS
  0
BLOCK
  8
0
  2
$MODEL_SPACE
 70
     0
 10
0.0
 20
0.0
 30
0.0
  3
$MODEL_SPACE
  1

  0
ENDBLK
  5
1C
  8
0
  0
BLOCK
 67
     1
  8
0
  2
$PAPER_SPACE
 70
     0
 10
0.0
 20
0.0
 30
0.0
  3
$PAPER_SPACE
  1

  0
ENDBLK
  5
19
 67
     1
  8
0
  0
BLOCK
  8
0
  2
_OPEN
 70
     0
 10
0.0
 20
0.0
 30
0.0
  3
_OPEN
  1

  0
LINE
  5
3E1A
  8
0
  6
BYBLOCK
 62
     0
 10
-1.0
 20
0.1666666666666666
 30
0.0
 11
0.0
 21
0.0
 31
0.0
  0
LINE
  5
3E1B
  8
0
  6
BYBLOCK
 62
     0
 10
-1.0
 20
-0.1666666666666666
 30
0.0
 11
0.0
 21
0.0
 31
0.0
  0
LINE
  5
3E1C
  8
0
  6
BYBLOCK
 62
     0
 10
0.0
 20
0.0
 30
0.0
 11
-1.0
 21
0.0
 31
0.0
  0
ENDBLK
  5
3E1D
  8
0
  0
BLOCK
  8
0
  2
GENAXEH
 70
     0
 10
0.0
 20
0.0
 30
0.0
  3
GENAXEH
  1

  0
LINE
  5
3E45
  8
0
 10
-1.0
 20
0.0
 30
0.0
 11
1.0
 21
0.0
 31
0.0
  0
ENDBLK
  5
3E46
  8
0
  0
ENDSEC
  0
SECTION
  2
ENTITIES
  0
TEXT
  5
42BF
  8
241
  6
CONTINUOUS
 10
-91.0
 20
56.0
 30
0.0
 40
7.5
  1
MGT36-AP1/2-2.5
  7
YOKO
  0
LINE
  5
42C1
  8
245
  6
CENTER2
 10
-92.566831448673483
 20
0.0
 30
0.0
 11
66.033353562681768
 21
0.0
 31
0.0
  0
LINE
  5
42C4
  8
245
  6
CENTER2
 10
-66.000000000001819
 20
19.999999999979991
 30
0.0
 11
-66.000000000005471
 21
-20.000000000012729
 31
0.0
1001
GENIUS_GENOREF_13
1005
433C
  0
LINE
  5
42C5
  8
241
  6
CONTINUOUS
 10
-9.0000000000018172
 20
-20.000000000018829
 30
0.0
 11
-9.0000000000018172
 21
19.999999999986091
 31
0.0
  0
LINE
  5
42C6
  8
240
  6
CONTINUOUS
 10
-9.0000000000018172
 20
26.499999999980169
 30
0.0
 11
-7.6262612902781131
 21
26.999999999978169
 31
0.0
  0
LINE
  5
42C7
  8
240
  6
CONTINUOUS
 10
0.0000000000066155
 20
26.999999999978169
 30
0.0
 11
-7.6262612902781131
 21
26.999999999978169
 31
0.0
  0
LINE
  5
42C9
  8
240
  6
CONTINUOUS
 10
-51.500000000020009
 20
19.999999999983629
 30
0.0
 11
-9.0000000000018172
 21
19.999999999986091
 31
0.0
  0
LINE
  5
42CA
  8
240
  6
CONTINUOUS
 10
-55.000000000020009
 20
16.499999999983629
 30
0.0
 11
-51.500000000020009
 21
19.999999999983629
 31
0.0
  0
LINE
  5
42CB
  8
240
  6
CONTINUOUS
 10
-55.000000000020009
 20
16.499999999983629
 30
0.0
 11
-66.000000000005471
 21
16.499999999983629
 31
0.0
  0
LINE
  5
42CC
  8
240
  6
CONTINUOUS
 10
-76.999999999987267
 20
16.49999999998181
 30
0.0
 11
-66.000000000001819
 21
16.499999999956341
 31
0.0
  0
LINE
  5
42CD
  8
240
  6
CONTINUOUS
 10
-76.999999999987267
 20
16.49999999998181
 30
0.0
 11
-80.499999999990905
 21
19.99999999998181
 31
0.0
  0
LINE
  5
42CE
  8
241
  6
CONTINUOUS
 10
-7.6262612902773981
 20
26.999999999977721
 30
0.0
 11
-7.6262612902773981
 21
-27.000000000010921
 31
0.0
  0
LINE
  5
42CF
  8
240
  6
CONTINUOUS
 10
-9.0000000000018172
 20
-26.500000000012921
 30
0.0
 11
-7.6262612902780802
 21
-27.000000000010921
 31
0.0
  0
LINE
  5
42D0
  8
240
  6
CONTINUOUS
 10
-0.0000000000022528
 20
-27.000000000010921
 30
0.0
 11
-7.6262612902780802
 21
-27.000000000010921
 31
0.0
  0
LINE
  5
42D2
  8
240
  6
CONTINUOUS
 10
-51.500000000020009
 20
-20.000000000016371
 30
0.0
 11
-9.0000000000018172
 21
-20.000000000018829
 31
0.0
  0
LINE
  5
42D3
  8
240
  6
CONTINUOUS
 10
-55.000000000020009
 20
-16.500000000016371
 30
0.0
 11
-51.500000000020009
 21
-20.000000000016371
 31
0.0
  0
LINE
  5
42D4
  8
240
  6
CONTINUOUS
 10
-55.000000000020009
 20
-16.500000000016371
 30
0.0
 11
-66.000000000005471
 21
-16.500000000016371
 31
0.0
  0
LINE
  5
42D5
  8
240
  6
CONTINUOUS
 10
-76.999999999987267
 20
-16.500000000014541
 30
0.0
 11
-66.000000000001819
 21
-16.499999999989079
 31
0.0
  0
LINE
  5
42D6
  8
240
  6
CONTINUOUS
 10
-76.999999999987267
 20
-16.500000000014541
 30
0.0
 11
-80.499999999990905
 21
-20.000000000014541
 31
0.0
  0
LINE
  5
42D7
  8
241
  6
CONTINUOUS
 10
-0.0000000000018435
 20
-27.000000000010921
 30
0.0
 11
0.0000000000018435
 21
26.999999999978169
 31
0.0
  0
LINE
  5
42D9
  8
240
  6
CONTINUOUS
 10
-90.000000000002771
 20
19.999999999995449
 30
0.0
 11
-80.499999999995453
 21
19.999999999995449
 31
0.0
  0
LINE
  5
42DA
  8
240
  6
CONTINUOUS
 10
-90.000000000000824
 20
-20.00000000000864
 30
0.0
 11
-90.000000000002771
 21
19.999999999995449
 31
0.0
  0
LINE
  5
42DB
  8
240
  6
CONTINUOUS
 10
-90.000000000000824
 20
-20.00000000000864
 30
0.0
 11
-80.499999999995453
 21
-20.00000000000864
 31
0.0
  0
LINE
  5
42DC
  8
241
  6
CONTINUOUS
 10
-45.000000000005457
 20
-20.00000000001674
 30
0.0
 11
-45.000000000001791
 21
19.999999999983999
 31
0.0
  0
LINE
  5
42DD
  8
241
  6
CONTINUOUS
 10
-31.500000000001808
 20
-20.000000000017529
 30
0.0
 11
-31.500000000001808
 21
19.99999999998478
 31
0.0
  0
LINE
  5
42DE
  8
241
  6
CONTINUOUS
 10
-42.500000000005457
 20
19.999999999984151
 30
0.0
 11
-42.500000000005457
 21
-20.00000000001689
 31
0.0
  0
LINE
  5
42DF
  8
241
  6
CONTINUOUS
 10
-29.000000000005471
 20
19.999999999984919
 30
0.0
 11
-29.000000000005461
 21
-20.000000000017671
 31
0.0
  0
LINE
  5
42E2
  8
240
  6
CONTINUOUS
 10
-9.0000000000018172
 20
19.999999999986091
 30
0.0
 11
-9.0000000000018172
 21
26.499999999980169
 31
0.0
  0
LINE
  5
42E3
  8
240
  6
CONTINUOUS
 10
-9.0000000000018172
 20
-20.000000000018829
 30
0.0
 11
-9.0000000000018172
 21
-26.500000000012921
 31
0.0
  0
LINE
  5
42E4
  8
247
  6
CONTINUOUS
 10
7.7062868435531859
 20
-11.750000000003791
 30
0.0
 11
7.7062868435532428
 21
-7.1153846156738112
 31
0.0
  0
LINE
  5
42E5
  8
247
  6
CONTINUOUS
 10
5.206286843553241
 20
-10.954893499991719
 30
0.0
 11
7.3062868434692509
 21
-11.55705881006114
 31
0.0
  0
LINE
  5
42E6
  8
247
  6
CONTINUOUS
 10
6.202440689667239
 20
-10.32515140352281
 30
0.0
 11
6.202440689667239
 21
-11.24053601887082
 31
0.0
  0
ARC
  5
42E7
  8
247
  6
CONTINUOUS
 10
5.5910059108473433
 20
-10.08726340195059
 30
0.0
 40
0.3876715809326743
 50
72.997889675291987
 51
172.92416621851271
  0
ARC
  5
42E8
  8
247
  6
CONTINUOUS
 10
5.5115099745812559
 20
-10.38247755680789
 30
0.0
 40
0.6933047965358772
 50
4.7429368522014004
 51
73.849226273266481
1001
GENIUS_GENOBJ-N-FIL_13
1002
{
1000
OWNER
1000
GEN
1002
}
1001
GENIUS_GENODEF_13
1002
{
1000
HIER
1070
     0
1002
}
1002
{
1000
MANEDIT
1070
     0
1002
}
1002
{
1000
NOSEL
1070
     0
1002
}
1002
{
1000
BEHIND
1070
     0
1002
}
1002
{
1000
OTHER
1070
     0
1002
}
1002
{
1000
REACTOR
1002
}
  0
LINE
  5
42E9
  8
247
  6
CONTINUOUS
 10
7.3062868434692509
 20
-10.64167419471314
 30
0.0
 11
7.3062868434692509
 21
-11.55705881006114
 31
0.0
  0
LINE
  5
42EA
  8
247
  6
CONTINUOUS
 10
5.206286843553241
 20
-10.95489349999173
 30
0.0
 11
5.206286843553241
 21
-10.03950888464373
 31
0.0
  0
ARC
  5
42EB
  8
247
  6
CONTINUOUS
 10
6.5937038063211171
 20
-10.378306476270611
 30
0.0
 40
0.394857301075386
 50
65.990941652528775
 51
172.2634434590698
  0
ARC
  5
42EC
  8
247
  6
CONTINUOUS
 10
6.5974871708858132
 20
-10.712446610430691
 30
0.0
 40
0.7123241612361686
 50
5.7019851642581454
 51
77.27733843682222
1001
GENIUS_GENOBJ-N-FIL_13
1002
{
1000
OWNER
1000
GEN
1002
}
1001
GENIUS_GENODEF_13
1002
{
1000
HIER
1070
     0
1002
}
1002
{
1000
MANEDIT
1070
     0
1002
}
1002
{
1000
NOSEL
1070
     0
1002
}
1002
{
1000
BEHIND
1070
     0
1002
}
1002
{
1000
OTHER
1070
     0
1002
}
1002
{
1000
REACTOR
1002
}
  0
LINE
  5
42ED
  8
247
  6
CONTINUOUS
 10
7.3062868434692509
 20
-9.683981887067155
 30
0.0
 11
5.206286843553241
 21
-9.0818165769977437
 31
0.0
  0
LINE
  5
42EE
  8
247
  6
CONTINUOUS
 10
5.206286843553241
 20
-7.5856627309117419
 30
0.0
 11
5.206286843553241
 21
-7.9816783643073634
 31
0.0
  0
LINE
  5
42EF
  8
247
  6
CONTINUOUS
 10
7.3062868434692509
 20
-8.6087396539477439
 30
0.0
 11
7.3062868434692509
 21
-8.1779704231957524
 31
0.0
  0
ARC
  5
42F0
  8
247
  6
CONTINUOUS
 10
6.6645864386366052
 20
-7.3818165770737423
 30
0.0
 40
1.576855057639547
 50
202.35948814152749
 51
254.99324854284589
  0
ARC
  5
42F1
  8
247
  6
CONTINUOUS
 10
5.7721057020913804
 20
-7.8475113661370051
 30
0.0
 40
0.6234706797009447
 50
94.994589319075374
 51
155.16632895730319
1001
GENIUS_GENOBJ-N-FIL_13
1002
{
1000
OWNER
1000
GEN
1002
}
1001
GENIUS_GENODEF_13
1002
{
1000
HIER
1070
     0
1002
}
1002
{
1000
MANEDIT
1070
     0
1002
}
1002
{
1000
NOSEL
1070
     0
1002
}
1002
{
1000
BEHIND
1070
     0
1002
}
1002
{
1000
OTHER
1070
     0
1002
}
1002
{
1000
REACTOR
1002
}
  0
ARC
  5
42F2
  8
247
  6
CONTINUOUS
 10
6.3683889655226809
 20
-8.4441839510365568
 30
0.0
 40
0.9749472149106983
 50
15.846096555779839
 51
82.325137004169122
  0
ARC
  5
42F3
  8
247
  6
CONTINUOUS
 10
6.5777572455243103
 20
-8.0352116387759942
 30
0.0
 40
0.9271945638692009
 50
249.71360167049701
 51
321.7887456564099
1001
GENIUS_GENOBJ-N-FIL_13
1002
{
1000
OWNER
1000
GEN
1002
}
1001
GENIUS_GENODEF_13
1002
{
1000
HIER
1070
     0
1002
}
1002
{
1000
MANEDIT
1070
     0
1002
}
1002
{
1000
NOSEL
1070
     0
1002
}
1002
{
1000
BEHIND
1070
     0
1002
}
1002
{
1000
OTHER
1070
     0
1002
}
1002
{
1000
REACTOR
1002
}
  0
LINE
  5
42F4
  8
247
  6
CONTINUOUS
 10
6.4985945358092172
 20
-7.9625858078197398
 30
0.0
 11
6.4985945358092172
 21
-7.4779704232237441
 31
0.0
  0
ARC
  5
42F5
  8
247
  6
CONTINUOUS
 10
6.456286843553241
 20
-11.750000000003791
 30
0.0
 40
1.25
 50
180.0
 51
0.0
  0
LINE
  5
42F6
  8
247
  6
CONTINUOUS
 10
5.206286843553241
 20
-11.750000000003791
 30
0.0
 11
5.206286843553241
 21
-11.30384615391778
 31
0.0
  0
ARC
  5
42F7
  8
247
  6
CONTINUOUS
 10
6.456286843553241
 20
-7.1153846156737961
 30
0.0
 40
1.25
 50
0.0
 51
180.0
  0
POINT
  5
433C
  8
0
 10
-15041.480041667361
 20
9982.2519074072497
 30
0.0
1001
GENIUS_GENOLIS_13
1002
{
1000
ENT
1005
0
1005
0
1005
42C4
1005
0
1002
}
1001
GENIUS_GENOENT_13
1002
{
1000
MYREF
1005
433C
1002
}
1002
{
1000
GRP
1005
0
1002
}
1001
GENIUS_GENOBJ-N-CRS_13
1002
{
1000
OWNER
1000
GEN
1002
}
1001
GENIUS_GENODEF_13
1002
{
1000
HIER
1070
    10
1002
}
1002
{
1000
MANEDIT
1070
     1
1002
}
1002
{
1000
NOSEL
1070
     0
1002
}
1002
{
1000
BEHIND
1070
     0
1002
}
1002
{
1000
OTHER
1070
     0
1002
}
1002
{
1000
REACTOR
1002
}
  0
LINE
  5
4397
  8
240
  6
CONTINUOUS
 10
3.4468189122887982
 20
17.00000000000384
 30
0.0
 11
60.500000000006992
 21
16.999999999995701
 31
0.0
  0
LINE
  5
4398
  8
240
  6
CONTINUOUS
 10
63.499999999998089
 20
-14.0000000000045
 30
0.0
 11
63.499999999998089
 21
14.000000000004491
 31
0.0
  0
POLYLINE
  5
4399
  8
242
  6
CONTINUOUS
 10
50.500000000001393
 20
-11.83215956624454
 30
0.0
 66
     1
 70
     8
  0
VERTEX
  8
242
  5
466A
 10
50.5000
 20
-11.8322
 30
0.000000
  70
    32
  0
VERTEX
  8
242
  5
466B
 10
50.5036
 20
-11.7281
 30
0.000000
  70
    32
  0
VERTEX
  8
242
  5
466C
 10
50.5144
 20
-11.6242
 30
0.000000
  70
    32
  0
VERTEX
  8
242
  5
466D
 10
50.5325
 20
-11.5209
 30
0.000000
  70
    32
  0
VERTEX
  8
242
  5
466E
 10
50.5576
 20
-11.4183
 30
0.000000
  70
    32
  0
VERTEX
  8
242
  5
466F
 10
50.5899
 20
-11.3167
 30
0.000000
  70
    32
  0
VERTEX
  8
242
  5
4670
 10
50.6292
 20
-11.2164
 30
0.000000
  70
    32
  0
VERTEX
  8
242
  5
4671
 10
50.6754
 20
-11.1175
 30
0.000000
  70
    32
  0
VERTEX
  8
242
  5
4672
 10
50.7284
 20
-11.0204
 30
0.000000
  70
    32
  0
VERTEX
  8
242
  5
4673
 10
50.7880
 20
-10.9252
 30
0.000000
  70
    32
  0
VERTEX
  8
242
  5
4674
 10
50.8542
 20
-10.8322
 30
0.000000
  70
    32
  0
VERTEX
  8
242
  5
4675
 10
50.9268
 20
-10.7416
 30
0.000000
  70
    32
  0
VERTEX
  8
242
  5
4676
 10
51.0056
 20
-10.6536
 30
0.000000
  70
    32
  0
VERTEX
  8
242
  5
4677
 10
51.0904
 20
-10.5685
 30
0.000000
  70
    32
  0
VERTEX
  8
242
  5
4678
 10
51.1810
 20
-10.4864
 30
0.000000
  70
    32
  0
VERTEX
  8
242
  5
4679
 10
51.2771
 20
-10.4076
 30
0.000000
  70
    32
  0
VERTEX
  8
242
  5
467A
 10
51.3787
 20
-10.3322
 30
0.000000
  70
    32
  0
VERTEX
  8
242
  5
467B
 10
51.4853
 20
-10.2604
 30
0.000000
  70
    32
  0
VERTEX
  8
242
  5
467C
 10
51.5968
 20
-10.1924
 30
0.000000
  70
    32
  0
VERTEX
  8
242
  5
467D
 10
51.7129
 20
-10.1283
 30
0.000000
  70
    32
  0
VERTEX
  8
242
  5
467E
 10
51.8333
 20
-10.0683
 30
0.000000
  70
    32
  0
VERTEX
  8
242
  5
467F
 10
51.9577
 20
-10.0126
 30
0.000000
  70
    32
  0
VERTEX
  8
242
  5
4680
 10
52.0858
 20
-9.96132
 30
0.000000
  70
    32
  0
VERTEX
  8
242
  5
4681
 10
52.2173
 20
-9.91451
 30
0.000000
  70
    32
  0
VERTEX
  8
242
  5
4682
 10
52.3519
 20
-9.87232
 30
0.000000
  70
    32
  0
VERTEX
  8
242
  5
4683
 10
52.4893
 20
-9.83484
 30
0.000000
  70
    32
  0
VERTEX
  8
242
  5
4684
 10
52.6291
 20
-9.80218
 30
0.000000
  70
    32
  0
VERTEX
  8
242
  5
4685
 10
52.7711
 20
-9.77441
 30
0.000000
  70
    32
  0
VERTEX
  8
242
  5
4686
 10
52.9147
 20
-9.75160
 30
0.000000
  70
    32
  0
VERTEX
  8
242
  5
4687
 10
53.0598
 20
-9.73380
 30
0.000000
  70
    32
  0
VERTEX
  8
242
  5
4688
 10
53.2059
 20
-9.72105
 30
0.000000
  70
    32
  0
VERTEX
  8
242
  5
4689
 10
53.3528
 20
-9.71339
 30
0.000000
  70
    32
  0
VERTEX
  8
242
  5
468A
 10
53.5000
 20
-9.71084
 30
0.000000
  70
    32
  0
VERTEX
  8
242
  5
468B
 10
53.6472
 20
-9.71339
 30
0.000000
  70
    32
  0
VERTEX
  8
242
  5
468C
 10
53.7941
 20
-9.72105
 30
0.000000
  70
    32
  0
VERTEX
  8
242
  5
468D
 10
53.9402
 20
-9.73380
 30
0.000000
  70
    32
  0
VERTEX
  8
242
  5
468E
 10
54.0853
 20
-9.75160
 30
0.000000
  70
    32
  0
VERTEX
  8
242
  5
468F
 10
54.2289
 20
-9.77441
 30
0.000000
  70
    32
  0
VERTEX
  8
242
  5
4690
 10
54.3709
 20
-9.80218
 30
0.000000
  70
    32
  0
VERTEX
  8
242
  5
4691
 10
54.5107
 20
-9.83484
 30
0.000000
  70
    32
  0
VERTEX
  8
242
  5
4692
 10
54.6481
 20
-9.87232
 30
0.000000
  70
    32
  0
VERTEX
  8
242
  5
4693
 10
54.7827
 20
-9.91451
 30
0.000000
  70
    32
  0
VERTEX
  8
242
  5
4694
 10
54.9142
 20
-9.96132
 30
0.000000
  70
    32
  0
VERTEX
  8
242
  5
4695
 10
55.0423
 20
-10.0126
 30
0.000000
  70
    32
  0
VERTEX
  8
242
  5
4696
 10
55.1667
 20
-10.0683
 30
0.000000
  70
    32
  0
VERTEX
  8
242
  5
4697
 10
55.2871
 20
-10.1283
 30
0.000000
  70
    32
  0
VERTEX
  8
242
  5
4698
 10
55.4032
 20
-10.1924
 30
0.000000
  70
    32
  0
VERTEX
  8
242
  5
4699
 10
55.5147
 20
-10.2604
 30
0.000000
  70
    32
  0
VERTEX
  8
242
  5
469A
 10
55.6213
 20
-10.3322
 30
0.000000
  70
    32
  0
VERTEX
  8
242
  5
469B
 10
55.7229
 20
-10.4076
 30
0.000000
  70
    32
  0
VERTEX
  8
242
  5
469C
 10
55.8190
 20
-10.4864
 30
0.000000
  70
    32
  0
VERTEX
  8
242
  5
469D
 10
55.9096
 20
-10.5685
 30
0.000000
  70
    32
  0
VERTEX
  8
242
  5
469E
 10
55.9944
 20
-10.6536
 30
0.000000
  70
    32
  0
VERTEX
  8
242
  5
469F
 10
56.0732
 20
-10.7416
 30
0.000000
  70
    32
  0
VERTEX
  8
242
  5
46A0
 10
56.1458
 20
-10.8322
 30
0.000000
  70
    32
  0
VERTEX
  8
242
  5
46A1
 10
56.2120
 20
-10.9252
 30
0.000000
  70
    32
  0
VERTEX
  8
242
  5
46A2
 10
56.2716
 20
-11.0204
 30
0.000000
  70
    32
  0
VERTEX
  8
242
  5
46A3
 10
56.3246
 20
-11.1175
 30
0.000000
  70
    32
  0
VERTEX
  8
242
  5
46A4
 10
56.3708
 20
-11.2164
 30
0.000000
  70
    32
  0
VERTEX
  8
242
  5
46A5
 10
56.4101
 20
-11.3167
 30
0.000000
  70
    32
  0
VERTEX
  8
242
  5
46A6
 10
56.4424
 20
-11.4183
 30
0.000000
  70
    32
  0
VERTEX
  8
242
  5
46A7
 10
56.4675
 20
-11.5209
 30
0.000000
  70
    32
  0
VERTEX
  8
242
  5
46A8
 10
56.4856
 20
-11.6242
 30
0.000000
  70
    32
  0
VERTEX
  8
242
  5
46A9
 10
56.4964
 20
-11.7281
 30
0.000000
  70
    32
  0
VERTEX
  8
242
  5
46AA
 10
56.5000
 20
-11.8322
 30
0.000000
  70
    32
  0
VERTEX
  8
242
  5
46AB
 10
56.4964
 20
-11.9362
 30
0.000000
  70
    32
  0
VERTEX
  8
242
  5
46AC
 10
56.4856
 20
-12.0401
 30
0.000000
  70
    32
  0
VERTEX
  8
242
  5
46AD
 10
56.4675
 20
-12.1434
 30
0.000000
  70
    32
  0
VERTEX
  8
242
  5
46AE
 10
56.4424
 20
-12.2460
 30
0.000000
  70
    32
  0
VERTEX
  8
242
  5
46AF
 10
56.4101
 20
-12.3476
 30
0.000000
  70
    32
  0
VERTEX
  8
242
  5
46B0
 10
56.3708
 20
-12.4479
 30
0.000000
  70
    32
  0
VERTEX
  8
242
  5
46B1
 10
56.3246
 20
-12.5468
 30
0.000000
  70
    32
  0
VERTEX
  8
242
  5
46B2
 10
56.2716
 20
-12.6440
 30
0.000000
  70
    32
  0
VERTEX
  8
242
  5
46B3
 10
56.2120
 20
-12.7391
 30
0.000000
  70
    32
  0
VERTEX
  8
242
  5
46B4
 10
56.1458
 20
-12.8321
 30
0.000000
  70
    32
  0
VERTEX
  8
242
  5
46B5
 10
56.0732
 20
-12.9227
 30
0.000000
  70
    32
  0
VERTEX
  8
242
  5
46B6
 10
55.9944
 20
-13.0107
 30
0.000000
  70
    32
  0
VERTEX
  8
242
  5
46B7
 10
55.9096
 20
-13.0958
 30
0.000000
  70
    32
  0
VERTEX
  8
242
  5
46B8
 10
55.8190
 20
-13.1779
 30
0.000000
  70
    32
  0
VERTEX
  8
242
  5
46B9
 10
55.7229
 20
-13.2568
 30
0.000000
  70
    32
  0
VERTEX
  8
242
  5
46BA
 10
55.6213
 20
-13.3322
 30
0.000000
  70
    32
  0
VERTEX
  8
242
  5
46BB
 10
55.5147
 20
-13.4040
 30
0.000000
  70
    32
  0
VERTEX
  8
242
  5
46BC
 10
55.4032
 20
-13.4720
 30
0.000000
  70
    32
  0
VERTEX
  8
242
  5
46BD
 10
55.2871
 20
-13.5360
 30
0.000000
  70
    32
  0
VERTEX
  8
242
  5
46BE
 10
55.1667
 20
-13.5960
 30
0.000000
  70
    32
  0
VERTEX
  8
242
  5
46BF
 10
55.0423
 20
-13.6517
 30
0.000000
  70
    32
  0
VERTEX
  8
242
  5
46C0
 10
54.9142
 20
-13.7030
 30
0.000000
  70
    32
  0
VERTEX
  8
242
  5
46C1
 10
54.7827
 20
-13.7498
 30
0.000000
  70
    32
  0
VERTEX
  8
242
  5
46C2
 10
54.6481
 20
-13.7920
 30
0.000000
  70
    32
  0
VERTEX
  8
242
  5
46C3
 10
54.5107
 20
-13.8295
 30
0.000000
  70
    32
  0
VERTEX
  8
242
  5
46C4
 10
54.3709
 20
-13.8621
 30
0.000000
  70
    32
  0
VERTEX
  8
242
  5
46C5
 10
54.2289
 20
-13.8899
 30
0.000000
  70
    32
  0
VERTEX
  8
242
  5
46C6
 10
54.0853
 20
-13.9127
 30
0.000000
  70
    32
  0
VERTEX
  8
242
  5
46C7
 10
53.9402
 20
-13.9305
 30
0.000000
  70
    32
  0
VERTEX
  8
242
  5
46C8
 10
53.7941
 20
-13.9433
 30
0.000000
  70
    32
  0
VERTEX
  8
242
  5
46C9
 10
53.6472
 20
-13.9509
 30
0.000000
  70
    32
  0
VERTEX
  8
242
  5
46CA
 10
53.5000
 20
-13.9535
 30
0.000000
  70
    32
  0
VERTEX
  8
242
  5
46CB
 10
53.3528
 20
-13.9509
 30
0.000000
  70
    32
  0
VERTEX
  8
242
  5
46CC
 10
53.2059
 20
-13.9433
 30
0.000000
  70
    32
  0
VERTEX
  8
242
  5
46CD
 10
53.0598
 20
-13.9305
 30
0.000000
  70
    32
  0
VERTEX
  8
242
  5
46CE
 10
52.9147
 20
-13.9127
 30
0.000000
  70
    32
  0
VERTEX
  8
242
  5
46CF
 10
52.7711
 20
-13.8899
 30
0.000000
  70
    32
  0
VERTEX
  8
242
  5
46D0
 10
52.6291
 20
-13.8621
 30
0.000000
  70
    32
  0
VERTEX
  8
242
  5
46D1
 10
52.4893
 20
-13.8295
 30
0.000000
  70
    32
  0
VERTEX
  8
242
  5
46D2
 10
52.3519
 20
-13.7920
 30
0.000000
  70
    32
  0
VERTEX
  8
242
  5
46D3
 10
52.2173
 20
-13.7498
 30
0.000000
  70
    32
  0
VERTEX
  8
242
  5
46D4
 10
52.0858
 20
-13.7030
 30
0.000000
  70
    32
  0
VERTEX
  8
242
  5
46D5
 10
51.9577
 20
-13.6517
 30
0.000000
  70
    32
  0
VERTEX
  8
242
  5
46D6
 10
51.8333
 20
-13.5960
 30
0.000000
  70
    32
  0
VERTEX
  8
242
  5
46D7
 10
51.7129
 20
-13.5360
 30
0.000000
  70
    32
  0
VERTEX
  8
242
  5
46D8
 10
51.5968
 20
-13.4720
 30
0.000000
  70
    32
  0
VERTEX
  8
242
  5
46D9
 10
51.4853
 20
-13.4040
 30
0.000000
  70
    32
  0
VERTEX
  8
242
  5
46DA
 10
51.3787
 20
-13.3322
 30
0.000000
  70
    32
  0
VERTEX
  8
242
  5
46DB
 10
51.2771
 20
-13.2568
 30
0.000000
  70
    32
  0
VERTEX
  8
242
  5
46DC
 10
51.1810
 20
-13.1779
 30
0.000000
  70
    32
  0
VERTEX
  8
242
  5
46DD
 10
51.0904
 20
-13.0958
 30
0.000000
  70
    32
  0
VERTEX
  8
242
  5
46DE
 10
51.0056
 20
-13.0107
 30
0.000000
  70
    32
  0
VERTEX
  8
242
  5
46DF
 10
50.9268
 20
-12.9227
 30
0.000000
  70
    32
  0
VERTEX
  8
242
  5
46E0
 10
50.8542
 20
-12.8321
 30
0.000000
  70
    32
  0
VERTEX
  8
242
  5
46E1
 10
50.7880
 20
-12.7391
 30
0.000000
  70
    32
  0
VERTEX
  8
242
  5
46E2
 10
50.7284
 20
-12.6440
 30
0.000000
  70
    32
  0
VERTEX
  8
242
  5
46E3
 10
50.6754
 20
-12.5468
 30
0.000000
  70
    32
  0
VERTEX
  8
242
  5
46E4
 10
50.6292
 20
-12.4479
 30
0.000000
  70
    32
  0
VERTEX
  8
242
  5
46E5
 10
50.5899
 20
-12.3476
 30
0.000000
  70
    32
  0
VERTEX
  8
242
  5
46E6
 10
50.5576
 20
-12.2460
 30
0.000000
  70
    32
  0
VERTEX
  8
242
  5
46E7
 10
50.5325
 20
-12.1434
 30
0.000000
  70
    32
  0
VERTEX
  8
242
  5
46E8
 10
50.5144
 20
-12.0401
 30
0.000000
  70
    32
  0
VERTEX
  8
242
  5
46E9
 10
50.5036
 20
-11.9362
 30
0.000000
  70
    32
  0
VERTEX
  8
242
  5
46EA
 10
50.5000
 20
-11.8322
 30
0.000000
  70
    32
  0
SEQEND
  8
242
  5
46EB
  0
POLYLINE
  5
439A
  8
241
  6
CONTINUOUS
 10
51.000000000001393
 20
-11.890121950639202
 30
0.0
 66
     1
 70
     8
  0
VERTEX
  8
241
  5
46EC
 10
51.0000
 20
-11.8901
 30
0.000000
  70
    32
  0
VERTEX
  8
241
  5
46ED
 10
51.0030
 20
-11.8034
 30
0.000000
  70
    32
  0
VERTEX
  8
241
  5
46EE
 10
51.0120
 20
-11.7169
 30
0.000000
  70
    32
  0
VERTEX
  8
241
  5
46EF
 10
51.0271
 20
-11.6307
 30
0.000000
  70
    32
  0
VERTEX
  8
241
  5
46F0
 10
51.0480
 20
-11.5452
 30
0.000000
  70
    32
  0
VERTEX
  8
241
  5
46F1
 10
51.0749
 20
-11.4606
 30
0.000000
  70
    32
  0
VERTEX
  8
241
  5
46F2
 10
51.1076
 20
-11.3770
 30
0.000000
  70
    32
  0
VERTEX
  8
241
  5
46F3
 10
51.1461
 20
-11.2946
 30
0.000000
  70
    32
  0
VERTEX
  8
241
  5
46F4
 10
51.1903
 20
-11.2136
 30
0.000000
  70
    32
  0
VERTEX
  8
241
  5
46F5
 10
51.2400
 20
-11.1343
 30
0.000000
  70
    32
  0
VERTEX
  8
241
  5
46F6
 10
51.2952
 20
-11.0568
 30
0.000000
  70
    32
  0
VERTEX
  8
241
  5
46F7
 10
51.3557
 20
-10.9813
 30
0.000000
  70
    32
  0
VERTEX
  8
241
  5
46F8
 10
51.4213
 20
-10.9080
 30
0.000000
  70
    32
  0
VERTEX
  8
241
  5
46F9
 10
51.4920
 20
-10.8371
 30
0.000000
  70
    32
  0
VERTEX
  8
241
  5
46FA
 10
51.5675
 20
-10.7687
 30
0.000000
  70
    32
  0
VERTEX
  8
241
  5
46FB
 10
51.6476
 20
-10.7030
 30
0.000000
  70
    32
  0
VERTEX
  8
241
  5
46FC
 10
51.7322
 20
-10.6401
 30
0.000000
  70
    32
  0
VERTEX
  8
241
  5
46FD
 10
51.8211
 20
-10.5803
 30
0.000000
  70
    32
  0
VERTEX
  8
241
  5
46FE
 10
51.9140
 20
-10.5236
 30
0.000000
  70
    32
  0
VERTEX
  8
241
  5
46FF
 10
52.0108
 20
-10.4702
 30
0.000000
  70
    32
  0
VERTEX
  8
241
  5
4700
 10
52.1111
 20
-10.4203
 30
0.000000
  70
    32
  0
VERTEX
  8
241
  5
4701
 10
52.2147
 20
-10.3739
 30
0.000000
  70
    32
  0
VERTEX
  8
241
  5
4702
 10
52.3215
 20
-10.3311
 30
0.000000
  70
    32
  0
VERTEX
  8
241
  5
4703
 10
52.4311
 20
-10.2921
 30
0.000000
  70
    32
  0
VERTEX
  8
241
  5
4704
 10
52.5433
 20
-10.2569
 30
0.000000
  70
    32
  0
VERTEX
  8
241
  5
4705
 10
52.6578
 20
-10.2257
 30
0.000000
  70
    32
  0
VERTEX
  8
241
  5
4706
 10
52.7743
 20
-10.1985
 30
0.000000
  70
    32
  0
VERTEX
  8
241
  5
4707
 10
52.8925
 20
-10.1753
 30
0.000000
  70
    32
  0
VERTEX
  8
241
  5
4708
 10
53.0123
 20
-10.1563
 30
0.000000
  70
    32
  0
VERTEX
  8
241
  5
4709
 10
53.1332
 20
-10.1415
 30
0.000000
  70
    32
  0
VERTEX
  8
241
  5
470A
 10
53.2550
 20
-10.1309
 30
0.000000
  70
    32
  0
VERTEX
  8
241
  5
470B
 10
53.3773
 20
-10.1245
 30
0.000000
  70
    32
  0
VERTEX
  8
241
  5
470C
 10
53.5000
 20
-10.1224
 30
0.000000
  70
    32
  0
VERTEX
  8
241
  5
470D
 10
53.6227
 20
-10.1245
 30
0.000000
  70
    32
  0
VERTEX
  8
241
  5
470E
 10
53.7450
 20
-10.1309
 30
0.000000
  70
    32
  0
VERTEX
  8
241
  5
470F
 10
53.8668
 20
-10.1415
 30
0.000000
  70
    32
  0
VERTEX
  8
241
  5
4710
 10
53.9877
 20
-10.1563
 30
0.000000
  70
    32
  0
VERTEX
  8
241
  5
4711
 10
54.1075
 20
-10.1753
 30
0.000000
  70
    32
  0
VERTEX
  8
241
  5
4712
 10
54.2257
 20
-10.1985
 30
0.000000
  70
    32
  0
VERTEX
  8
241
  5
4713
 10
54.3422
 20
-10.2257
 30
0.000000
  70
    32
  0
VERTEX
  8
241
  5
4714
 10
54.4567
 20
-10.2569
 30
0.000000
  70
    32
  0
VERTEX
  8
241
  5
4715
 10
54.5689
 20
-10.2921
 30
0.000000
  70
    32
  0
VERTEX
  8
241
  5
4716
 10
54.6785
 20
-10.3311
 30
0.000000
  70
    32
  0
VERTEX
  8
241
  5
4717
 10
54.7853
 20
-10.3739
 30
0.000000
  70
    32
  0
VERTEX
  8
241
  5
4718
 10
54.8889
 20
-10.4203
 30
0.000000
  70
    32
  0
VERTEX
  8
241
  5
4719
 10
54.9892
 20
-10.4702
 30
0.000000
  70
    32
  0
VERTEX
  8
241
  5
471A
 10
55.0860
 20
-10.5236
 30
0.000000
  70
    32
  0
VERTEX
  8
241
  5
471B
 10
55.1789
 20
-10.5803
 30
0.000000
  70
    32
  0
VERTEX
  8
241
  5
471C
 10
55.2678
 20
-10.6401
 30
0.000000
  70
    32
  0
VERTEX
  8
241
  5
471D
 10
55.3524
 20
-10.7030
 30
0.000000
  70
    32
  0
VERTEX
  8
241
  5
471E
 10
55.4325
 20
-10.7687
 30
0.000000
  70
    32
  0
VERTEX
  8
241
  5
471F
 10
55.5080
 20
-10.8371
 30
0.000000
  70
    32
  0
VERTEX
  8
241
  5
4720
 10
55.5787
 20
-10.9080
 30
0.000000
  70
    32
  0
VERTEX
  8
241
  5
4721
 10
55.6443
 20
-10.9813
 30
0.000000
  70
    32
  0
VERTEX
  8
241
  5
4722
 10
55.7048
 20
-11.0568
 30
0.000000
  70
    32
  0
VERTEX
  8
241
  5
4723
 10
55.7600
 20
-11.1343
 30
0.000000
  70
    32
  0
VERTEX
  8
241
  5
4724
 10
55.8097
 20
-11.2136
 30
0.000000
  70
    32
  0
VERTEX
  8
241
  5
4725
 10
55.8539
 20
-11.2946
 30
0.000000
  70
    32
  0
VERTEX
  8
241
  5
4726
 10
55.8924
 20
-11.3770
 30
0.000000
  70
    32
  0
VERTEX
  8
241
  5
4727
 10
55.9251
 20
-11.4606
 30
0.000000
  70
    32
  0
VERTEX
  8
241
  5
4728
 10
55.9520
 20
-11.5452
 30
0.000000
  70
    32
  0
VERTEX
  8
241
  5
4729
 10
55.9729
 20
-11.6307
 30
0.000000
  70
    32
  0
VERTEX
  8
241
  5
472A
 10
55.9880
 20
-11.7169
 30
0.000000
  70
    32
  0
VERTEX
  8
241
  5
472B
 10
55.9970
 20
-11.8034
 30
0.000000
  70
    32
  0
VERTEX
  8
241
  5
472C
 10
56.0000
 20
-11.8901
 30
0.000000
  70
    32
  0
VERTEX
  8
241
  5
472D
 10
55.9970
 20
-11.9769
 30
0.000000
  70
    32
  0
VERTEX
  8
241
  5
472E
 10
55.9880
 20
-12.0634
 30
0.000000
  70
    32
  0
VERTEX
  8
241
  5
472F
 10
55.9729
 20
-12.1495
 30
0.000000
  70
    32
  0
VERTEX
  8
241
  5
4730
 10
55.9520
 20
-12.2350
 30
0.000000
  70
    32
  0
VERTEX
  8
241
  5
4731
 10
55.9251
 20
-12.3197
 30
0.000000
  70
    32
  0
VERTEX
  8
241
  5
4732
 10
55.8924
 20
-12.4033
 30
0.000000
  70
    32
  0
VERTEX
  8
241
  5
4733
 10
55.8539
 20
-12.4857
 30
0.000000
  70
    32
  0
VERTEX
  8
241
  5
4734
 10
55.8097
 20
-12.5666
 30
0.000000
  70
    32
  0
VERTEX
  8
241
  5
4735
 10
55.7600
 20
-12.6459
 30
0.000000
  70
    32
  0
VERTEX
  8
241
  5
4736
 10
55.7048
 20
-12.7234
 30
0.000000
  70
    32
  0
VERTEX
  8
241
  5
4737
 10
55.6443
 20
-12.7989
 30
0.000000
  70
    32
  0
VERTEX
  8
241
  5
4738
 10
55.5787
 20
-12.8722
 30
0.000000
  70
    32
  0
VERTEX
  8
241
  5
4739
 10
55.5080
 20
-12.9432
 30
0.000000
  70
    32
  0
VERTEX
  8
241
  5
473A
 10
55.4325
 20
-13.0116
 30
0.000000
  70
    32
  0
VERTEX
  8
241
  5
473B
 10
55.3524
 20
-13.0773
 30
0.000000
  70
    32
  0
VERTEX
  8
241
  5
473C
 10
55.2678
 20
-13.1401
 30
0.000000
  70
    32
  0
VERTEX
  8
241
  5
473D
 10
55.1789
 20
-13.2000
 30
0.000000
  70
    32
  0
VERTEX
  8
241
  5
473E
 10
55.0860
 20
-13.2566
 30
0.000000
  70
    32
  0
VERTEX
  8
241
  5
473F
 10
54.9892
 20
-13.3100
 30
0.000000
  70
    32
  0
VERTEX
  8
241
  5
4740
 10
54.8889
 20
-13.3600
 30
0.000000
  70
    32
  0
VERTEX
  8
241
  5
4741
 10
54.7853
 20
-13.4064
 30
0.000000
  70
    32
  0
VERTEX
  8
241
  5
4742
 10
54.6785
 20
-13.4492
 30
0.000000
  70
    32
  0
VERTEX
  8
241
  5
4743
 10
54.5689
 20
-13.4882
 30
0.000000
  70
    32
  0
VERTEX
  8
241
  5
4744
 10
54.4567
 20
-13.5233
 30
0.000000
  70
    32
  0
VERTEX
  8
241
  5
4745
 10
54.3422
 20
-13.5546
 30
0.000000
  70
    32
  0
VERTEX
  8
241
  5
4746
 10
54.2257
 20
-13.5818
 30
0.000000
  70
    32
  0
VERTEX
  8
241
  5
4747
 10
54.1075
 20
-13.6049
 30
0.000000
  70
    32
  0
VERTEX
  8
241
  5
4748
 10
53.9877
 20
-13.6239
 30
0.000000
  70
    32
  0
VERTEX
  8
241
  5
4749
 10
53.8668
 20
-13.6388
 30
0.000000
  70
    32
  0
VERTEX
  8
241
  5
474A
 10
53.7450
 20
-13.6494
 30
0.000000
  70
    32
  0
VERTEX
  8
241
  5
474B
 10
53.6227
 20
-13.6558
 30
0.000000
  70
    32
  0
VERTEX
  8
241
  5
474C
 10
53.5000
 20
-13.6579
 30
0.000000
  70
    32
  0
VERTEX
  8
241
  5
474D
 10
53.3773
 20
-13.6558
 30
0.000000
  70
    32
  0
VERTEX
  8
241
  5
474E
 10
53.2550
 20
-13.6494
 30
0.000000
  70
    32
  0
VERTEX
  8
241
  5
474F
 10
53.1332
 20
-13.6388
 30
0.000000
  70
    32
  0
VERTEX
  8
241
  5
4750
 10
53.0123
 20
-13.6239
 30
0.000000
  70
    32
  0
VERTEX
  8
241
  5
4751
 10
52.8925
 20
-13.6049
 30
0.000000
  70
    32
  0
VERTEX
  8
241
  5
4752
 10
52.7743
 20
-13.5818
 30
0.000000
  70
    32
  0
VERTEX
  8
241
  5
4753
 10
52.6578
 20
-13.5546
 30
0.000000
  70
    32
  0
VERTEX
  8
241
  5
4754
 10
52.5433
 20
-13.5233
 30
0.000000
  70
    32
  0
VERTEX
  8
241
  5
4755
 10
52.4311
 20
-13.4882
 30
0.000000
  70
    32
  0
VERTEX
  8
241
  5
4756
 10
52.3215
 20
-13.4492
 30
0.000000
  70
    32
  0
VERTEX
  8
241
  5
4757
 10
52.2147
 20
-13.4064
 30
0.000000
  70
    32
  0
VERTEX
  8
241
  5
4758
 10
52.1111
 20
-13.3600
 30
0.000000
  70
    32
  0
VERTEX
  8
241
  5
4759
 10
52.0108
 20
-13.3100
 30
0.000000
  70
    32
  0
VERTEX
  8
241
  5
475A
 10
51.9140
 20
-13.2566
 30
0.000000
  70
    32
  0
VERTEX
  8
241
  5
475B
 10
51.8211
 20
-13.2000
 30
0.000000
  70
    32
  0
VERTEX
  8
241
  5
475C
 10
51.7322
 20
-13.1401
 30
0.000000
  70
    32
  0
VERTEX
  8
241
  5
475D
 10
51.6476
 20
-13.0773
 30
0.000000
  70
    32
  0
VERTEX
  8
241
  5
475E
 10
51.5675
 20
-13.0116
 30
0.000000
  70
    32
  0
VERTEX
  8
241
  5
475F
 10
51.4920
 20
-12.9432
 30
0.000000
  70
    32
  0
VERTEX
  8
241
  5
4760
 10
51.4213
 20
-12.8722
 30
0.000000
  70
    32
  0
VERTEX
  8
241
  5
4761
 10
51.3557
 20
-12.7989
 30
0.000000
  70
    32
  0
VERTEX
  8
241
  5
4762
 10
51.2952
 20
-12.7234
 30
0.000000
  70
    32
  0
VERTEX
  8
241
  5
4763
 10
51.2400
 20
-12.6459
 30
0.000000
  70
    32
  0
VERTEX
  8
241
  5
4764
 10
51.1903
 20
-12.5666
 30
0.000000
  70
    32
  0
VERTEX
  8
241
  5
4765
 10
51.1461
 20
-12.4857
 30
0.000000
  70
    32
  0
VERTEX
  8
241
  5
4766
 10
51.1076
 20
-12.4033
 30
0.000000
  70
    32
  0
VERTEX
  8
241
  5
4767
 10
51.0749
 20
-12.3197
 30
0.000000
  70
    32
  0
VERTEX
  8
241
  5
4768
 10
51.0480
 20
-12.2350
 30
0.000000
  70
    32
  0
VERTEX
  8
241
  5
4769
 10
51.0271
 20
-12.1495
 30
0.000000
  70
    32
  0
VERTEX
  8
241
  5
476A
 10
51.0120
 20
-12.0634
 30
0.000000
  70
    32
  0
VERTEX
  8
241
  5
476B
 10
51.0030
 20
-11.9769
 30
0.000000
  70
    32
  0
VERTEX
  8
241
  5
476C
 10
51.0000
 20
-11.8901
 30
0.000000
  70
    32
  0
SEQEND
  8
241
  5
476D
  0
LINE
  5
439B
  8
245
  6
CENTER2
 10
49.575260982175422
 20
-12.020815280205939
 30
0.0
 11
57.357065365209309
 21
-12.020815280206129
 31
0.0
  0
LINE
  5
439C
  8
245
  6
CENTER2
 10
53.500000000001329
 20
-14.532413374682481
 30
0.0
 11
53.50000000000145
 21
-8.7722265919863673
 31
0.0
  0
LINE
  5
439D
  8
245
  6
CENTER2
 10
53.500000000001727
 20
14.532413374681941
 30
0.0
 11
53.500000000001727
 21
8.7722265919858273
 31
0.0
  0
LINE
  5
439E
  8
245
  6
CENTER2
 10
49.575260982175763
 20
12.020815280205509
 30
0.0
 11
57.357065365209642
 21
12.020815280205509
 31
0.0
  0
POLYLINE
  5
439F
  8
241
  6
CONTINUOUS
 10
51.000000000001727
 20
11.890121950638729
 30
0.0
 66
     1
 70
     8
  0
VERTEX
  8
241
  5
476E
 10
51.0000
 20
11.8901
 30
0.000000
  70
    32
  0
VERTEX
  8
241
  5
476F
 10
51.0030
 20
11.8034
 30
0.000000
  70
    32
  0
VERTEX
  8
241
  5
4770
 10
51.0120
 20
11.7169
 30
0.000000
  70
    32
  0
VERTEX
  8
241
  5
4771
 10
51.0271
 20
11.6307
 30
0.000000
  70
    32
  0
VERTEX
  8
241
  5
4772
 10
51.0480
 20
11.5452
 30
0.000000
  70
    32
  0
VERTEX
  8
241
  5
4773
 10
51.0749
 20
11.4606
 30
0.000000
  70
    32
  0
VERTEX
  8
241
  5
4774
 10
51.1076
 20
11.3770
 30
0.000000
  70
    32
  0
VERTEX
  8
241
  5
4775
 10
51.1461
 20
11.2946
 30
0.000000
  70
    32
  0
VERTEX
  8
241
  5
4776
 10
51.1903
 20
11.2136
 30
0.000000
  70
    32
  0
VERTEX
  8
241
  5
4777
 10
51.2400
 20
11.1343
 30
0.000000
  70
    32
  0
VERTEX
  8
241
  5
4778
 10
51.2952
 20
11.0568
 30
0.000000
  70
    32
  0
VERTEX
  8
241
  5
4779
 10
51.3557
 20
10.9813
 30
0.000000
  70
    32
  0
VERTEX
  8
241
  5
477A
 10
51.4213
 20
10.9080
 30
0.000000
  70
    32
  0
VERTEX
  8
241
  5
477B
 10
51.4920
 20
10.8371
 30
0.000000
  70
    32
  0
VERTEX
  8
241
  5
477C
 10
51.5675
 20
10.7687
 30
0.000000
  70
    32
  0
VERTEX
  8
241
  5
477D
 10
51.6476
 20
10.7030
 30
0.000000
  70
    32
  0
VERTEX
  8
241
  5
477E
 10
51.7322
 20
10.6401
 30
0.000000
  70
    32
  0
VERTEX
  8
241
  5
477F
 10
51.8211
 20
10.5803
 30
0.000000
  70
    32
  0
VERTEX
  8
241
  5
4780
 10
51.9140
 20
10.5236
 30
0.000000
  70
    32
  0
VERTEX
  8
241
  5
4781
 10
52.0108
 20
10.4702
 30
0.000000
  70
    32
  0
VERTEX
  8
241
  5
4782
 10
52.1111
 20
10.4203
 30
0.000000
  70
    32
  0
VERTEX
  8
241
  5
4783
 10
52.2147
 20
10.3739
 30
0.000000
  70
    32
  0
VERTEX
  8
241
  5
4784
 10
52.3215
 20
10.3311
 30
0.000000
  70
    32
  0
VERTEX
  8
241
  5
4785
 10
52.4311
 20
10.2921
 30
0.000000
  70
    32
  0
VERTEX
  8
241
  5
4786
 10
52.5433
 20
10.2569
 30
0.000000
  70
    32
  0
VERTEX
  8
241
  5
4787
 10
52.6578
 20
10.2257
 30
0.000000
  70
    32
  0
VERTEX
  8
241
  5
4788
 10
52.7743
 20
10.1985
 30
0.000000
  70
    32
  0
VERTEX
  8
241
  5
4789
 10
52.8925
 20
10.1753
 30
0.000000
  70
    32
  0
VERTEX
  8
241
  5
478A
 10
53.0123
 20
10.1563
 30
0.000000
  70
    32
  0
VERTEX
  8
241
  5
478B
 10
53.1332
 20
10.1415
 30
0.000000
  70
    32
  0
VERTEX
  8
241
  5
478C
 10
53.2550
 20
10.1309
 30
0.000000
  70
    32
  0
VERTEX
  8
241
  5
478D
 10
53.3773
 20
10.1245
 30
0.000000
  70
    32
  0
VERTEX
  8
241
  5
478E
 10
53.5000
 20
10.1224
 30
0.000000
  70
    32
  0
VERTEX
  8
241
  5
478F
 10
53.6227
 20
10.1245
 30
0.000000
  70
    32
  0
VERTEX
  8
241
  5
4790
 10
53.7450
 20
10.1309
 30
0.000000
  70
    32
  0
VERTEX
  8
241
  5
4791
 10
53.8668
 20
10.1415
 30
0.000000
  70
    32
  0
VERTEX
  8
241
  5
4792
 10
53.9877
 20
10.1563
 30
0.000000
  70
    32
  0
VERTEX
  8
241
  5
4793
 10
54.1075
 20
10.1753
 30
0.000000
  70
    32
  0
VERTEX
  8
241
  5
4794
 10
54.2257
 20
10.1985
 30
0.000000
  70
    32
  0
VERTEX
  8
241
  5
4795
 10
54.3422
 20
10.2257
 30
0.000000
  70
    32
  0
VERTEX
  8
241
  5
4796
 10
54.4567
 20
10.2569
 30
0.000000
  70
    32
  0
VERTEX
  8
241
  5
4797
 10
54.5689
 20
10.2921
 30
0.000000
  70
    32
  0
VERTEX
  8
241
  5
4798
 10
54.6785
 20
10.3311
 30
0.000000
  70
    32
  0
VERTEX
  8
241
  5
4799
 10
54.7853
 20
10.3739
 30
0.000000
  70
    32
  0
VERTEX
  8
241
  5
479A
 10
54.8889
 20
10.4203
 30
0.000000
  70
    32
  0
VERTEX
  8
241
  5
479B
 10
54.9892
 20
10.4702
 30
0.000000
  70
    32
  0
VERTEX
  8
241
  5
479C
 10
55.0860
 20
10.5236
 30
0.000000
  70
    32
  0
VERTEX
  8
241
  5
479D
 10
55.1789
 20
10.5803
 30
0.000000
  70
    32
  0
VERTEX
  8
241
  5
479E
 10
55.2678
 20
10.6401
 30
0.000000
  70
    32
  0
VERTEX
  8
241
  5
479F
 10
55.3524
 20
10.7030
 30
0.000000
  70
    32
  0
VERTEX
  8
241
  5
47A0
 10
55.4325
 20
10.7687
 30
0.000000
  70
    32
  0
VERTEX
  8
241
  5
47A1
 10
55.5080
 20
10.8371
 30
0.000000
  70
    32
  0
VERTEX
  8
241
  5
47A2
 10
55.5787
 20
10.9080
 30
0.000000
  70
    32
  0
VERTEX
  8
241
  5
47A3
 10
55.6443
 20
10.9813
 30
0.000000
  70
    32
  0
VERTEX
  8
241
  5
47A4
 10
55.7048
 20
11.0568
 30
0.000000
  70
    32
  0
VERTEX
  8
241
  5
47A5
 10
55.7600
 20
11.1343
 30
0.000000
  70
    32
  0
VERTEX
  8
241
  5
47A6
 10
55.8097
 20
11.2136
 30
0.000000
  70
    32
  0
VERTEX
  8
241
  5
47A7
 10
55.8539
 20
11.2946
 30
0.000000
  70
    32
  0
VERTEX
  8
241
  5
47A8
 10
55.8924
 20
11.3770
 30
0.000000
  70
    32
  0
VERTEX
  8
241
  5
47A9
 10
55.9251
 20
11.4606
 30
0.000000
  70
    32
  0
VERTEX
  8
241
  5
47AA
 10
55.9520
 20
11.5452
 30
0.000000
  70
    32
  0
VERTEX
  8
241
  5
47AB
 10
55.9729
 20
11.6307
 30
0.000000
  70
    32
  0
VERTEX
  8
241
  5
47AC
 10
55.9880
 20
11.7169
 30
0.000000
  70
    32
  0
VERTEX
  8
241
  5
47AD
 10
55.9970
 20
11.8034
 30
0.000000
  70
    32
  0
VERTEX
  8
241
  5
47AE
 10
56.0000
 20
11.8901
 30
0.000000
  70
    32
  0
VERTEX
  8
241
  5
47AF
 10
55.9970
 20
11.9769
 30
0.000000
  70
    32
  0
VERTEX
  8
241
  5
47B0
 10
55.9880
 20
12.0634
 30
0.000000
  70
    32
  0
VERTEX
  8
241
  5
47B1
 10
55.9729
 20
12.1495
 30
0.000000
  70
    32
  0
VERTEX
  8
241
  5
47B2
 10
55.9520
 20
12.2350
 30
0.000000
  70
    32
  0
VERTEX
  8
241
  5
47B3
 10
55.9251
 20
12.3197
 30
0.000000
  70
    32
  0
VERTEX
  8
241
  5
47B4
 10
55.8924
 20
12.4033
 30
0.000000
  70
    32
  0
VERTEX
  8
241
  5
47B5
 10
55.8539
 20
12.4857
 30
0.000000
  70
    32
  0
VERTEX
  8
241
  5
47B6
 10
55.8097
 20
12.5666
 30
0.000000
  70
    32
  0
VERTEX
  8
241
  5
47B7
 10
55.7600
 20
12.6459
 30
0.000000
  70
    32
  0
VERTEX
  8
241
  5
47B8
 10
55.7048
 20
12.7234
 30
0.000000
  70
    32
  0
VERTEX
  8
241
  5
47B9
 10
55.6443
 20
12.7989
 30
0.000000
  70
    32
  0
VERTEX
  8
241
  5
47BA
 10
55.5787
 20
12.8722
 30
0.000000
  70
    32
  0
VERTEX
  8
241
  5
47BB
 10
55.5080
 20
12.9432
 30
0.000000
  70
    32
  0
VERTEX
  8
241
  5
47BC
 10
55.4325
 20
13.0116
 30
0.000000
  70
    32
  0
VERTEX
  8
241
  5
47BD
 10
55.3524
 20
13.0773
 30
0.000000
  70
    32
  0
VERTEX
  8
241
  5
47BE
 10
55.2678
 20
13.1401
 30
0.000000
  70
    32
  0
VERTEX
  8
241
  5
47BF
 10
55.1789
 20
13.2000
 30
0.000000
  70
    32
  0
VERTEX
  8
241
  5
47C0
 10
55.0860
 20
13.2566
 30
0.000000
  70
    32
  0
VERTEX
  8
241
  5
47C1
 10
54.9892
 20
13.3100
 30
0.000000
  70
    32
  0
VERTEX
  8
241
  5
47C2
 10
54.8889
 20
13.3600
 30
0.000000
  70
    32
  0
VERTEX
  8
241
  5
47C3
 10
54.7853
 20
13.4064
 30
0.000000
  70
    32
  0
VERTEX
  8
241
  5
47C4
 10
54.6785
 20
13.4492
 30
0.000000
  70
    32
  0
VERTEX
  8
241
  5
47C5
 10
54.5689
 20
13.4882
 30
0.000000
  70
    32
  0
VERTEX
  8
241
  5
47C6
 10
54.4567
 20
13.5233
 30
0.000000
  70
    32
  0
VERTEX
  8
241
  5
47C7
 10
54.3422
 20
13.5546
 30
0.000000
  70
    32
  0
VERTEX
  8
241
  5
47C8
 10
54.2257
 20
13.5818
 30
0.000000
  70
    32
  0
VERTEX
  8
241
  5
47C9
 10
54.1075
 20
13.6049
 30
0.000000
  70
    32
  0
VERTEX
  8
241
  5
47CA
 10
53.9877
 20
13.6239
 30
0.000000
  70
    32
  0
VERTEX
  8
241
  5
47CB
 10
53.8668
 20
13.6388
 30
0.000000
  70
    32
  0
VERTEX
  8
241
  5
47CC
 10
53.7450
 20
13.6494
 30
0.000000
  70
    32
  0
VERTEX
  8
241
  5
47CD
 10
53.6227
 20
13.6558
 30
0.000000
  70
    32
  0
VERTEX
  8
241
  5
47CE
 10
53.5000
 20
13.6579
 30
0.000000
  70
    32
  0
VERTEX
  8
241
  5
47CF
 10
53.3773
 20
13.6558
 30
0.000000
  70
    32
  0
VERTEX
  8
241
  5
47D0
 10
53.2550
 20
13.6494
 30
0.000000
  70
    32
  0
VERTEX
  8
241
  5
47D1
 10
53.1332
 20
13.6388
 30
0.000000
  70
    32
  0
VERTEX
  8
241
  5
47D2
 10
53.0123
 20
13.6239
 30
0.000000
  70
    32
  0
VERTEX
  8
241
  5
47D3
 10
52.8925
 20
13.6049
 30
0.000000
  70
    32
  0
VERTEX
  8
241
  5
47D4
 10
52.7743
 20
13.5818
 30
0.000000
  70
    32
  0
VERTEX
  8
241
  5
47D5
 10
52.6578
 20
13.5546
 30
0.000000
  70
    32
  0
VERTEX
  8
241
  5
47D6
 10
52.5433
 20
13.5233
 30
0.000000
  70
    32
  0
VERTEX
  8
241
  5
47D7
 10
52.4311
 20
13.4882
 30
0.000000
  70
    32
  0
VERTEX
  8
241
  5
47D8
 10
52.3215
 20
13.4492
 30
0.000000
  70
    32
  0
VERTEX
  8
241
  5
47D9
 10
52.2147
 20
13.4064
 30
0.000000
  70
    32
  0
VERTEX
  8
241
  5
47DA
 10
52.1111
 20
13.3600
 30
0.000000
  70
    32
  0
VERTEX
  8
241
  5
47DB
 10
52.0108
 20
13.3100
 30
0.000000
  70
    32
  0
VERTEX
  8
241
  5
47DC
 10
51.9140
 20
13.2566
 30
0.000000
  70
    32
  0
VERTEX
  8
241
  5
47DD
 10
51.8211
 20
13.2000
 30
0.000000
  70
    32
  0
VERTEX
  8
241
  5
47DE
 10
51.7322
 20
13.1401
 30
0.000000
  70
    32
  0
VERTEX
  8
241
  5
47DF
 10
51.6476
 20
13.0773
 30
0.000000
  70
    32
  0
VERTEX
  8
241
  5
47E0
 10
51.5675
 20
13.0116
 30
0.000000
  70
    32
  0
VERTEX
  8
241
  5
47E1
 10
51.4920
 20
12.9432
 30
0.000000
  70
    32
  0
VERTEX
  8
241
  5
47E2
 10
51.4213
 20
12.8722
 30
0.000000
  70
    32
  0
VERTEX
  8
241
  5
47E3
 10
51.3557
 20
12.7989
 30
0.000000
  70
    32
  0
VERTEX
  8
241
  5
47E4
 10
51.2952
 20
12.7234
 30
0.000000
  70
    32
  0
VERTEX
  8
241
  5
47E5
 10
51.2400
 20
12.6459
 30
0.000000
  70
    32
  0
VERTEX
  8
241
  5
47E6
 10
51.1903
 20
12.5666
 30
0.000000
  70
    32
  0
VERTEX
  8
241
  5
47E7
 10
51.1461
 20
12.4857
 30
0.000000
  70
    32
  0
VERTEX
  8
241
  5
47E8
 10
51.1076
 20
12.4033
 30
0.000000
  70
    32
  0
VERTEX
  8
241
  5
47E9
 10
51.0749
 20
12.3197
 30
0.000000
  70
    32
  0
VERTEX
  8
241
  5
47EA
 10
51.0480
 20
12.2350
 30
0.000000
  70
    32
  0
VERTEX
  8
241
  5
47EB
 10
51.0271
 20
12.1495
 30
0.000000
  70
    32
  0
VERTEX
  8
241
  5
47EC
 10
51.0120
 20
12.0634
 30
0.000000
  70
    32
  0
VERTEX
  8
241
  5
47ED
 10
51.0030
 20
11.9769
 30
0.000000
  70
    32
  0
VERTEX
  8
241
  5
47EE
 10
51.0000
 20
11.8901
 30
0.000000
  70
    32
  0
SEQEND
  8
241
  5
47EF
  0
POLYLINE
  5
43A0
  8
242
  6
CONTINUOUS
 10
50.500000000001727
 20
11.83215956624408
 30
0.0
 66
     1
 70
     8
  0
VERTEX
  8
242
  5
47F0
 10
50.5000
 20
11.8322
 30
0.000000
  70
    32
  0
VERTEX
  8
242
  5
47F1
 10
50.5036
 20
11.7281
 30
0.000000
  70
    32
  0
VERTEX
  8
242
  5
47F2
 10
50.5144
 20
11.6242
 30
0.000000
  70
    32
  0
VERTEX
  8
242
  5
47F3
 10
50.5325
 20
11.5209
 30
0.000000
  70
    32
  0
VERTEX
  8
242
  5
47F4
 10
50.5576
 20
11.4183
 30
0.000000
  70
    32
  0
VERTEX
  8
242
  5
47F5
 10
50.5899
 20
11.3167
 30
0.000000
  70
    32
  0
VERTEX
  8
242
  5
47F6
 10
50.6292
 20
11.2164
 30
0.000000
  70
    32
  0
VERTEX
  8
242
  5
47F7
 10
50.6754
 20
11.1175
 30
0.000000
  70
    32
  0
VERTEX
  8
242
  5
47F8
 10
50.7284
 20
11.0204
 30
0.000000
  70
    32
  0
VERTEX
  8
242
  5
47F9
 10
50.7880
 20
10.9252
 30
0.000000
  70
    32
  0
VERTEX
  8
242
  5
47FA
 10
50.8542
 20
10.8322
 30
0.000000
  70
    32
  0
VERTEX
  8
242
  5
47FB
 10
50.9268
 20
10.7416
 30
0.000000
  70
    32
  0
VERTEX
  8
242
  5
47FC
 10
51.0056
 20
10.6536
 30
0.000000
  70
    32
  0
VERTEX
  8
242
  5
47FD
 10
51.0904
 20
10.5685
 30
0.000000
  70
    32
  0
VERTEX
  8
242
  5
47FE
 10
51.1810
 20
10.4864
 30
0.000000
  70
    32
  0
VERTEX
  8
242
  5
47FF
 10
51.2771
 20
10.4076
 30
0.000000
  70
    32
  0
VERTEX
  8
242
  5
4800
 10
51.3787
 20
10.3322
 30
0.000000
  70
    32
  0
VERTEX
  8
242
  5
4801
 10
51.4853
 20
10.2604
 30
0.000000
  70
    32
  0
VERTEX
  8
242
  5
4802
 10
51.5968
 20
10.1924
 30
0.000000
  70
    32
  0
VERTEX
  8
242
  5
4803
 10
51.7129
 20
10.1283
 30
0.000000
  70
    32
  0
VERTEX
  8
242
  5
4804
 10
51.8333
 20
10.0683
 30
0.000000
  70
    32
  0
VERTEX
  8
242
  5
4805
 10
51.9577
 20
10.0126
 30
0.000000
  70
    32
  0
VERTEX
  8
242
  5
4806
 10
52.0858
 20
9.96132
 30
0.000000
  70
    32
  0
VERTEX
  8
242
  5
4807
 10
52.2173
 20
9.91451
 30
0.000000
  70
    32
  0
VERTEX
  8
242
  5
4808
 10
52.3519
 20
9.87232
 30
0.000000
  70
    32
  0
VERTEX
  8
242
  5
4809
 10
52.4893
 20
9.83484
 30
0.000000
  70
    32
  0
VERTEX
  8
242
  5
480A
 10
52.6291
 20
9.80218
 30
0.000000
  70
    32
  0
VERTEX
  8
242
  5
480B
 10
52.7711
 20
9.77441
 30
0.000000
  70
    32
  0
VERTEX
  8
242
  5
480C
 10
52.9147
 20
9.75160
 30
0.000000
  70
    32
  0
VERTEX
  8
242
  5
480D
 10
53.0598
 20
9.73380
 30
0.000000
  70
    32
  0
VERTEX
  8
242
  5
480E
 10
53.2059
 20
9.72105
 30
0.000000
  70
    32
  0
VERTEX
  8
242
  5
480F
 10
53.3528
 20
9.71339
 30
0.000000
  70
    32
  0
VERTEX
  8
242
  5
4810
 10
53.5000
 20
9.71084
 30
0.000000
  70
    32
  0
VERTEX
  8
242
  5
4811
 10
53.6472
 20
9.71339
 30
0.000000
  70
    32
  0
VERTEX
  8
242
  5
4812
 10
53.7941
 20
9.72105
 30
0.000000
  70
    32
  0
VERTEX
  8
242
  5
4813
 10
53.9402
 20
9.73380
 30
0.000000
  70
    32
  0
VERTEX
  8
242
  5
4814
 10
54.0853
 20
9.75160
 30
0.000000
  70
    32
  0
VERTEX
  8
242
  5
4815
 10
54.2289
 20
9.77441
 30
0.000000
  70
    32
  0
VERTEX
  8
242
  5
4816
 10
54.3709
 20
9.80218
 30
0.000000
  70
    32
  0
VERTEX
  8
242
  5
4817
 10
54.5107
 20
9.83484
 30
0.000000
  70
    32
  0
VERTEX
  8
242
  5
4818
 10
54.6481
 20
9.87232
 30
0.000000
  70
    32
  0
VERTEX
  8
242
  5
4819
 10
54.7827
 20
9.91451
 30
0.000000
  70
    32
  0
VERTEX
  8
242
  5
481A
 10
54.9142
 20
9.96132
 30
0.000000
  70
    32
  0
VERTEX
  8
242
  5
481B
 10
55.0423
 20
10.0126
 30
0.000000
  70
    32
  0
VERTEX
  8
242
  5
481C
 10
55.1667
 20
10.0683
 30
0.000000
  70
    32
  0
VERTEX
  8
242
  5
481D
 10
55.2871
 20
10.1283
 30
0.000000
  70
    32
  0
VERTEX
  8
242
  5
481E
 10
55.4032
 20
10.1924
 30
0.000000
  70
    32
  0
VERTEX
  8
242
  5
481F
 10
55.5147
 20
10.2604
 30
0.000000
  70
    32
  0
VERTEX
  8
242
  5
4820
 10
55.6213
 20
10.3322
 30
0.000000
  70
    32
  0
VERTEX
  8
242
  5
4821
 10
55.7229
 20
10.4076
 30
0.000000
  70
    32
  0
VERTEX
  8
242
  5
4822
 10
55.8190
 20
10.4864
 30
0.000000
  70
    32
  0
VERTEX
  8
242
  5
4823
 10
55.9096
 20
10.5685
 30
0.000000
  70
    32
  0
VERTEX
  8
242
  5
4824
 10
55.9944
 20
10.6536
 30
0.000000
  70
    32
  0
VERTEX
  8
242
  5
4825
 10
56.0732
 20
10.7416
 30
0.000000
  70
    32
  0
VERTEX
  8
242
  5
4826
 10
56.1458
 20
10.8322
 30
0.000000
  70
    32
  0
VERTEX
  8
242
  5
4827
 10
56.2120
 20
10.9252
 30
0.000000
  70
    32
  0
VERTEX
  8
242
  5
4828
 10
56.2716
 20
11.0204
 30
0.000000
  70
    32
  0
VERTEX
  8
242
  5
4829
 10
56.3246
 20
11.1175
 30
0.000000
  70
    32
  0
VERTEX
  8
242
  5
482A
 10
56.3708
 20
11.2164
 30
0.000000
  70
    32
  0
VERTEX
  8
242
  5
482B
 10
56.4101
 20
11.3167
 30
0.000000
  70
    32
  0
VERTEX
  8
242
  5
482C
 10
56.4424
 20
11.4183
 30
0.000000
  70
    32
  0
VERTEX
  8
242
  5
482D
 10
56.4675
 20
11.5209
 30
0.000000
  70
    32
  0
VERTEX
  8
242
  5
482E
 10
56.4856
 20
11.6242
 30
0.000000
  70
    32
  0
VERTEX
  8
242
  5
482F
 10
56.4964
 20
11.7281
 30
0.000000
  70
    32
  0
VERTEX
  8
242
  5
4830
 10
56.5000
 20
11.8322
 30
0.000000
  70
    32
  0
VERTEX
  8
242
  5
4831
 10
56.4964
 20
11.9362
 30
0.000000
  70
    32
  0
VERTEX
  8
242
  5
4832
 10
56.4856
 20
12.0401
 30
0.000000
  70
    32
  0
VERTEX
  8
242
  5
4833
 10
56.4675
 20
12.1434
 30
0.000000
  70
    32
  0
VERTEX
  8
242
  5
4834
 10
56.4424
 20
12.2460
 30
0.000000
  70
    32
  0
VERTEX
  8
242
  5
4835
 10
56.4101
 20
12.3476
 30
0.000000
  70
    32
  0
VERTEX
  8
242
  5
4836
 10
56.3708
 20
12.4479
 30
0.000000
  70
    32
  0
VERTEX
  8
242
  5
4837
 10
56.3246
 20
12.5468
 30
0.000000
  70
    32
  0
VERTEX
  8
242
  5
4838
 10
56.2716
 20
12.6440
 30
0.000000
  70
    32
  0
VERTEX
  8
242
  5
4839
 10
56.2120
 20
12.7391
 30
0.000000
  70
    32
  0
VERTEX
  8
242
  5
483A
 10
56.1458
 20
12.8321
 30
0.000000
  70
    32
  0
VERTEX
  8
242
  5
483B
 10
56.0732
 20
12.9227
 30
0.000000
  70
    32
  0
VERTEX
  8
242
  5
483C
 10
55.9944
 20
13.0107
 30
0.000000
  70
    32
  0
VERTEX
  8
242
  5
483D
 10
55.9096
 20
13.0958
 30
0.000000
  70
    32
  0
VERTEX
  8
242
  5
483E
 10
55.8190
 20
13.1779
 30
0.000000
  70
    32
  0
VERTEX
  8
242
  5
483F
 10
55.7229
 20
13.2568
 30
0.000000
  70
    32
  0
VERTEX
  8
242
  5
4840
 10
55.6213
 20
13.3322
 30
0.000000
  70
    32
  0
VERTEX
  8
242
  5
4841
 10
55.5147
 20
13.4040
 30
0.000000
  70
    32
  0
VERTEX
  8
242
  5
4842
 10
55.4032
 20
13.4720
 30
0.000000
  70
    32
  0
VERTEX
  8
242
  5
4843
 10
55.2871
 20
13.5360
 30
0.000000
  70
    32
  0
VERTEX
  8
242
  5
4844
 10
55.1667
 20
13.5960
 30
0.000000
  70
    32
  0
VERTEX
  8
242
  5
4845
 10
55.0423
 20
13.6517
 30
0.000000
  70
    32
  0
VERTEX
  8
242
  5
4846
 10
54.9142
 20
13.7030
 30
0.000000
  70
    32
  0
VERTEX
  8
242
  5
4847
 10
54.7827
 20
13.7498
 30
0.000000
  70
    32
  0
VERTEX
  8
242
  5
4848
 10
54.6481
 20
13.7920
 30
0.000000
  70
    32
  0
VERTEX
  8
242
  5
4849
 10
54.5107
 20
13.8295
 30
0.000000
  70
    32
  0
VERTEX
  8
242
  5
484A
 10
54.3709
 20
13.8621
 30
0.000000
  70
    32
  0
VERTEX
  8
242
  5
484B
 10
54.2289
 20
13.8899
 30
0.000000
  70
    32
  0
VERTEX
  8
242
  5
484C
 10
54.0853
 20
13.9127
 30
0.000000
  70
    32
  0
VERTEX
  8
242
  5
484D
 10
53.9402
 20
13.9305
 30
0.000000
  70
    32
  0
VERTEX
  8
242
  5
484E
 10
53.7941
 20
13.9433
 30
0.000000
  70
    32
  0
VERTEX
  8
242
  5
484F
 10
53.6472
 20
13.9509
 30
0.000000
  70
    32
  0
VERTEX
  8
242
  5
4850
 10
53.5000
 20
13.9535
 30
0.000000
  70
    32
  0
VERTEX
  8
242
  5
4851
 10
53.3528
 20
13.9509
 30
0.000000
  70
    32
  0
VERTEX
  8
242
  5
4852
 10
53.2059
 20
13.9433
 30
0.000000
  70
    32
  0
VERTEX
  8
242
  5
4853
 10
53.0598
 20
13.9305
 30
0.000000
  70
    32
  0
VERTEX
  8
242
  5
4854
 10
52.9147
 20
13.9127
 30
0.000000
  70
    32
  0
VERTEX
  8
242
  5
4855
 10
52.7711
 20
13.8899
 30
0.000000
  70
    32
  0
VERTEX
  8
242
  5
4856
 10
52.6291
 20
13.8621
 30
0.000000
  70
    32
  0
VERTEX
  8
242
  5
4857
 10
52.4893
 20
13.8295
 30
0.000000
  70
    32
  0
VERTEX
  8
242
  5
4858
 10
52.3519
 20
13.7920
 30
0.000000
  70
    32
  0
VERTEX
  8
242
  5
4859
 10
52.2173
 20
13.7498
 30
0.000000
  70
    32
  0
VERTEX
  8
242
  5
485A
 10
52.0858
 20
13.7030
 30
0.000000
  70
    32
  0
VERTEX
  8
242
  5
485B
 10
51.9577
 20
13.6517
 30
0.000000
  70
    32
  0
VERTEX
  8
242
  5
485C
 10
51.8333
 20
13.5960
 30
0.000000
  70
    32
  0
VERTEX
  8
242
  5
485D
 10
51.7129
 20
13.5360
 30
0.000000
  70
    32
  0
VERTEX
  8
242
  5
485E
 10
51.5968
 20
13.4720
 30
0.000000
  70
    32
  0
VERTEX
  8
242
  5
485F
 10
51.4853
 20
13.4040
 30
0.000000
  70
    32
  0
VERTEX
  8
242
  5
4860
 10
51.3787
 20
13.3322
 30
0.000000
  70
    32
  0
VERTEX
  8
242
  5
4861
 10
51.2771
 20
13.2568
 30
0.000000
  70
    32
  0
VERTEX
  8
242
  5
4862
 10
51.1810
 20
13.1779
 30
0.000000
  70
    32
  0
VERTEX
  8
242
  5
4863
 10
51.0904
 20
13.0958
 30
0.000000
  70
    32
  0
VERTEX
  8
242
  5
4864
 10
51.0056
 20
13.0107
 30
0.000000
  70
    32
  0
VERTEX
  8
242
  5
4865
 10
50.9268
 20
12.9227
 30
0.000000
  70
    32
  0
VERTEX
  8
242
  5
4866
 10
50.8542
 20
12.8321
 30
0.000000
  70
    32
  0
VERTEX
  8
242
  5
4867
 10
50.7880
 20
12.7391
 30
0.000000
  70
    32
  0
VERTEX
  8
242
  5
4868
 10
50.7284
 20
12.6440
 30
0.000000
  70
    32
  0
VERTEX
  8
242
  5
4869
 10
50.6754
 20
12.5468
 30
0.000000
  70
    32
  0
VERTEX
  8
242
  5
486A
 10
50.6292
 20
12.4479
 30
0.000000
  70
    32
  0
VERTEX
  8
242
  5
486B
 10
50.5899
 20
12.3476
 30
0.000000
  70
    32
  0
VERTEX
  8
242
  5
486C
 10
50.5576
 20
12.2460
 30
0.000000
  70
    32
  0
VERTEX
  8
242
  5
486D
 10
50.5325
 20
12.1434
 30
0.000000
  70
    32
  0
VERTEX
  8
242
  5
486E
 10
50.5144
 20
12.0401
 30
0.000000
  70
    32
  0
VERTEX
  8
242
  5
486F
 10
50.5036
 20
11.9362
 30
0.000000
  70
    32
  0
VERTEX
  8
242
  5
4870
 10
50.5000
 20
11.8322
 30
0.000000
  70
    32
  0
SEQEND
  8
242
  5
4871
  0
LINE
  5
43A4
  8
241
  6
CONTINUOUS
 10
42.899999999955718
 20
16.99999999999806
 30
0.0
 11
42.899999999955718
 21
-16.999999999998678
 31
0.0
  0
LINE
  5
43A5
  8
241
  6
CONTINUOUS
 10
44.499999999961538
 20
16.999999999998121
 30
0.0
 11
44.499999999961538
 21
-16.999999999998469
 31
0.0
  0
LINE
  5
43A6
  8
241
  6
CONTINUOUS
 10
45.899999999955718
 20
16.999999999998209
 30
0.0
 11
45.899999999955718
 21
-16.999999999998291
 31
0.0
  0
LINE
  5
43A7
  8
241
  6
CONTINUOUS
 10
47.499999999961602
 20
16.999999999998121
 30
0.0
 11
47.499999999961368
 21
-16.999999999998082
 31
0.0
  0
LINE
  5
43A8
  8
241
  6
CONTINUOUS
 10
57.970849737796499
 20
16.999999999997979
 30
0.0
 11
57.970849737796499
 21
-16.999999999997382
 31
0.0
  0
LINE
  5
43A9
  8
241
  6
CONTINUOUS
 10
59.029150262216859
 20
16.999999999998629
 30
0.0
 11
59.029150262215317
 21
-16.999999999998408
 31
0.0
  0
LINE
  5
43AA
  8
240
  6
CONTINUOUS
 10
3.4468189122896851
 20
-17.000000000003809
 30
0.0
 11
60.500000000006288
 21
-16.99999999999639
 31
0.0
  0
LINE
  5
43AB
  8
240
  6
CONTINUOUS
 10
0.0000000000066155
 20
26.999999999978169
 30
0.0
 11
2.4808930859998481
 21
17.741180954901409
 31
0.0
  0
LINE
  5
43AC
  8
240
  6
CONTINUOUS
 10
-0.0000000000022528
 20
-27.000000000010921
 30
0.0
 11
2.4808930860007599
 21
-17.741180954901289
 31
0.0
  0
LINE
  5
43AD
  8
243
  6
HIDDEN2
 10
38.499999999999922
 20
-8.731499999999869
 30
0.0
 11
38.499999999999922
 21
8.731499999999869
 31
0.0
  0
LINE
  5
43AE
  8
243
  6
HIDDEN2
 10
38.499999999999922
 20
8.731499999999869
 30
0.0
 11
63.499999999998089
 21
8.731499999999869
 31
0.0
  0
CIRCLE
  5
43B0
  8
242
  6
CONTINUOUS
 10
32.500000000001741
 20
-0.0000000000009095
 30
0.0
 40
3.0
  0
CIRCLE
  5
43B1
  8
241
  6
CONTINUOUS
 10
32.500000000001741
 20
-0.0000000000009095
 30
0.0
 40
2.5
  0
LINE
  5
43B3
  8
243
  6
HIDDEN2
 10
38.499999999999922
 20
-8.731499999999869
 30
0.0
 11
63.499999999998089
 21
-8.731499999999869
 31
0.0
  0
LINE
  5
43B4
  8
243
  6
HIDDEN2
 10
20.599999999999639
 20
-6.5900000000031014
 30
0.0
 11
20.600000000005458
 21
6.5899999999999181
 31
0.0
1001
GRPNAME
1000
0000002L
  0
LINE
  5
43B5
  8
243
  6
HIDDEN2
 10
20.600000000005458
 20
6.5899999999999181
 30
0.0
 11
38.499999999999922
 21
6.5899999999999181
 31
0.0
  0
LINE
  5
43B6
  8
243
  6
HIDDEN2
 10
20.599999999999639
 20
-6.5900000000031014
 30
0.0
 11
38.499999999999922
 21
-6.5900000000031023
 31
0.0
  0
LINE
  5
43B7
  8
244
  6
HIDDEN2
 10
20.600000000005458
 20
6.5899999999999181
 30
0.0
 11
38.499999999999922
 21
-6.5900000000031023
 31
0.0
  0
LINE
  5
43B8
  8
244
  6
HIDDEN2
 10
20.599999999999639
 20
-6.5900000000031014
 30
0.0
 11
38.499999999999922
 21
6.5899999999999181
 31
0.0
  0
LINE
  5
43B9
  8
245
  6
CENTER2
 10
32.500000000001741
 20
3.8323295463789568
 30
0.0
 11
32.500000000001563
 21
-3.9710238959010549
 31
0.0
  0
LINE
  5
43BB
  8
241
  6
CONTINUOUS
 10
60.500000000005308
 20
-16.999999999997371
 30
0.0
 11
60.500000000004171
 21
16.999999999998519
 31
0.0
  0
LINE
  5
43BD
  8
240
  6
CONTINUOUS
 10
63.499999999998089
 20
14.0000000000045
 30
0.0
 11
60.500000000006992
 21
16.999999999995701
 31
0.0
  0
ARC
  5
43D3
  8
240
  6
CONTINUOUS
 10
3.4468189122889399
 20
18.00000000000384
 30
0.0
 40
1.0
 50
194.99999999999429
 51
269.99999999999193
1001
GENIUS_GENOBJ-N-FIL_13
1002
{
1000
OWNER
1000
GEN
1002
}
1001
GENIUS_GENODEF_13
1002
{
1000
HIER
1070
     0
1002
}
1002
{
1000
MANEDIT
1070
     0
1002
}
1002
{
1000
NOSEL
1070
     0
1002
}
1002
{
1000
BEHIND
1070
     0
1002
}
1002
{
1000
OTHER
1070
     0
1002
}
1002
{
1000
REACTOR
1002
}
  0
ARC
  5
43D5
  8
240
  6
CONTINUOUS
 10
3.446818912289829
 20
-18.000000000003809
 30
0.0
 40
1.0
 50
90.000000000008214
 51
165.0
1001
GENIUS_GENODEF_13
1002
{
1000
HIER
1070
     0
1002
}
1002
{
1000
MANEDIT
1070
     0
1002
}
1002
{
1000
NOSEL
1070
     0
1002
}
1002
{
1000
BEHIND
1070
     0
1002
}
1002
{
1000
OTHER
1070
     0
1002
}
1002
{
1000
REACTOR
1002
}
1001
GENIUS_GENOBJ-N-FIL_13
1002
{
1000
OWNER
1000
GEN
1002
}
  0
LINE
  5
43D6
  8
240
  6
CONTINUOUS
 10
63.499999999998089
 20
-14.0000000000045
 30
0.0
 11
60.500000000006288
 21
-16.99999999999639
 31
0.0
  0
LINE
  5
43DE
  8
241
  6
CONTINUOUS
 10
2.679491924309862
 20
17.358743971947209
 30
0.0
 11
2.6794919243108519
 21
-17.358743971947071
 31
0.0
  0
LINE
  5
44CA
  8
250
  6
CONTINUOUS
 10
0.0000000000018435
 20
27.499999999995978
 30
0.0
 11
0.0000000000018445
 21
43.0
 31
0.0
  0
LINE
  5
44CB
  8
250
  6
CONTINUOUS
 10
63.499999999998089
 20
14.5000000000045
 30
0.0
 11
63.499999999998089
 21
43.0
 31
0.0
  0
LINE
  5
44CC
  8
250
  6
CONTINUOUS
 10
2.2300000000018438
 20
42.0
 30
0.0
 11
61.269999999998099
 21
42.0
 31
0.0
  0
LINE
  5
44D0
  8
250
  6
CONTINUOUS
 10
63.999999999998103
 20
8.731499999999869
 30
0.0
 11
78.0
 21
8.7314999999998655
 31
0.0
  0
LINE
  5
44D1
  8
250
  6
CONTINUOUS
 10
63.999999999998103
 20
-8.731499999999869
 30
0.0
 11
78.0
 21
-8.7314999999998726
 31
0.0
  0
LINE
  5
44D2
  8
250
  6
CONTINUOUS
 10
77.0
 20
6.5014999999998651
 30
0.0
 11
77.0
 21
-6.5014999999998713
 31
0.0
  0
LINE
  5
44D6
  8
250
  6
CONTINUOUS
 10
61.000000000004171
 20
16.999999999998519
 30
0.0
 11
85.0
 21
16.999999999998511
 31
0.0
  0
LINE
  5
44D7
  8
250
  6
CONTINUOUS
 10
61.000000000005308
 20
-16.999999999997371
 30
0.0
 11
85.0
 21
-16.999999999997371
 31
0.0
  0
LINE
  5
44D8
  8
250
  6
CONTINUOUS
 10
84.0
 20
14.769999999998509
 30
0.0
 11
84.0
 21
-14.769999999997371
 31
0.0
  0
LINE
  5
44DC
  8
250
  6
CONTINUOUS
 10
20.100000000005458
 20
6.5899999999999181
 30
0.0
 11
14.658777491688969
 21
6.589999999999919
 31
0.0
  0
LINE
  5
44DD
  8
250
  6
CONTINUOUS
 10
20.099999999999639
 20
-6.5900000000031014
 30
0.0
 11
14.658777491688969
 21
-6.5900000000030996
 31
0.0
  0
LINE
  5
44DE
  8
250
  6
CONTINUOUS
 10
15.658777491688969
 20
8.8199999999999186
 30
0.0
 11
15.658777491688969
 21
11.049999999999921
 31
0.0
  0
LINE
  5
44DF
  8
250
  6
CONTINUOUS
 10
15.658777491688969
 20
-8.8200000000031
 30
0.0
 11
15.658777491688969
 21
-11.0500000000031
 31
0.0
  0
LINE
  5
44E0
  8
250
  6
CONTINUOUS
 10
15.658777491688969
 20
6.589999999999919
 30
0.0
 11
15.658777491688969
 21
-6.5900000000030996
 31
0.0
  0
TEXT
  5
44E4
  8
250
  6
CONTINUOUS
 10
28.416666666666639
 20
43.0
 30
0.0
 40
2.7999999999999989
  1
2.50
  0
LINE
  5
44E5
  8
250
  6
CONTINUOUS
 10
61.269999999998099
 20
42.371666666666663
 30
0.0
 11
63.499999999998089
 21
42.0
 31
0.0
  0
LINE
  5
44E6
  8
250
  6
CONTINUOUS
 10
61.269999999998099
 20
41.62833333333333
 30
0.0
 11
63.499999999998089
 21
42.0
 31
0.0
  0
LINE
  5
44E7
  8
250
  6
CONTINUOUS
 10
63.499999999998089
 20
42.0
 30
0.0
 11
61.269999999998099
 21
42.0
 31
0.0
  0
LINE
  5
44E8
  8
250
  6
CONTINUOUS
 10
2.2300000000018438
 20
41.62833333333333
 30
0.0
 11
0.0000000000018444
 21
42.0
 31
0.0
  0
LINE
  5
44E9
  8
250
  6
CONTINUOUS
 10
2.2300000000018438
 20
42.371666666666663
 30
0.0
 11
0.0000000000018444
 21
42.0
 31
0.0
  0
LINE
  5
44EA
  8
250
  6
CONTINUOUS
 10
0.0000000000018444
 20
42.0
 30
0.0
 11
2.2300000000018438
 21
42.0
 31
0.0
  0
TEXT
  5
44EB
  8
250
  6
CONTINUOUS
 10
75.999999999999986
 20
-7.2666666666666533
 30
0.0
 40
2.7999999999999989
  1
\U+2205.688
 50
90.0
  0
LINE
  5
44EC
  8
250
  6
CONTINUOUS
 10
77.371666666666655
 20
-6.5014999999998722
 30
0.0
 11
77.0
 21
-8.7314999999998726
 31
0.0
  0
LINE
  5
44ED
  8
250
  6
CONTINUOUS
 10
76.62833333333333
 20
-6.5014999999998722
 30
0.0
 11
77.0
 21
-8.7314999999998726
 31
0.0
  0
LINE
  5
44EE
  8
250
  6
CONTINUOUS
 10
77.0
 20
-8.7314999999998726
 30
0.0
 11
77.0
 21
-6.5014999999998722
 31
0.0
  0
LINE
  5
44EF
  8
250
  6
CONTINUOUS
 10
76.62833333333333
 20
6.5014999999998651
 30
0.0
 11
77.0
 21
8.7314999999998655
 31
0.0
  0
LINE
  5
44F0
  8
250
  6
CONTINUOUS
 10
77.371666666666655
 20
6.5014999999998651
 30
0.0
 11
77.0
 21
8.7314999999998655
 31
0.0
  0
LINE
  5
44F1
  8
250
  6
CONTINUOUS
 10
77.0
 20
8.7314999999998655
 30
0.0
 11
77.0
 21
6.5014999999998651
 31
0.0
  0
TEXT
  5
44F2
  8
250
  6
CONTINUOUS
 10
82.999999999999986
 20
-7.1999999999994158
 30
0.0
 40
2.7999999999999989
  1
\U+22051.338
 50
90.0
  0
LINE
  5
44F3
  8
250
  6
CONTINUOUS
 10
84.371666666666684
 20
-14.769999999997371
 30
0.0
 11
84.0
 21
-16.999999999997371
 31
0.0
  0
LINE
  5
44F4
  8
250
  6
CONTINUOUS
 10
83.628333333333316
 20
-14.769999999997371
 30
0.0
 11
84.0
 21
-16.999999999997371
 31
0.0
  0
LINE
  5
44F5
  8
250
  6
CONTINUOUS
 10
84.0
 20
-16.999999999997371
 30
0.0
 11
84.0
 21
-14.769999999997371
 31
0.0
  0
LINE
  5
44F6
  8
250
  6
CONTINUOUS
 10
83.628333333333316
 20
14.769999999998509
 30
0.0
 11
84.0
 21
16.999999999998511
 31
0.0
  0
LINE
  5
44F7
  8
250
  6
CONTINUOUS
 10
84.371666666666684
 20
14.769999999998509
 30
0.0
 11
84.0
 21
16.999999999998511
 31
0.0
  0
LINE
  5
44F8
  8
250
  6
CONTINUOUS
 10
84.0
 20
16.999999999998511
 30
0.0
 11
84.0
 21
14.769999999998509
 31
0.0
  0
TEXT
  5
44F9
  8
250
  6
CONTINUOUS
 10
14.658777491688969
 20
-7.5333333333349204
 30
0.0
 40
2.7999999999999989
  1
üá
 50
90.0
  0
TEXT
  5
44FA
  8
250
  6
CONTINUOUS
 10
14.658777491688969
 20
-4.2000000000015874
 30
0.0
 40
2.7999999999999989
  1
.515
 50
90.0
  0
LINE
  5
44FB
  8
250
  6
CONTINUOUS
 10
16.030444158355639
 20
8.8199999999999186
 30
0.0
 11
15.658777491688969
 21
6.589999999999919
 31
0.0
  0
LINE
  5
44FC
  8
250
  6
CONTINUOUS
 10
15.28711082502231
 20
8.8199999999999186
 30
0.0
 11
15.658777491688969
 21
6.589999999999919
 31
0.0
  0
LINE
  5
44FD
  8
250
  6
CONTINUOUS
 10
15.658777491688969
 20
6.589999999999919
 30
0.0
 11
15.658777491688969
 21
8.8199999999999186
 31
0.0
  0
LINE
  5
44FE
  8
250
  6
CONTINUOUS
 10
15.2871108250223
 20
-8.8200000000031
 30
0.0
 11
15.658777491688969
 21
-6.5900000000030996
 31
0.0
  0
LINE
  5
44FF
  8
250
  6
CONTINUOUS
 10
16.030444158355639
 20
-8.8200000000031
 30
0.0
 11
15.658777491688969
 21
-6.5900000000030996
 31
0.0
  0
LINE
  5
4500
  8
250
  6
CONTINUOUS
 10
15.658777491688969
 20
-6.5900000000030996
 30
0.0
 11
15.658777491688969
 21
-8.8200000000031
 31
0.0
  0
VIEWPORT
  5
22
 67
     1
  8
0
 10
261.51769911504419
 20
148.5
 30
0.0
 40
523.0353982300885
 41
297.0
 68
     1
 69
     1
1001
ACAD
1000
MVIEW
1002
{
1070
    16
1010
0.0
1020
0.0
1030
0.0
1010
0.0
1020
0.0
1030
1.0
1040
0.0
1040
297.0
1040
261.51769911504419
1040
148.5
1040
50.0
1040
0.0
1040
0.0
1070
     0
1070
   100
1070
     1
1070
     1
1070
     0
1070
     0
1070
     0
1070
     0
1040
0.0
1040
0.0
1040
0.0
1040
1.0
1040
1.0
1040
10.0
1040
10.0
1070
     0
1002
{
1002
}
1002
}
1001
GENIUS_GENODEF_13
1002
{
1000
HIER
1070
     0
1002
}
1002
{
1000
MANEDIT
1070
     0
1002
}
1002
{
1000
NOSEL
1070
     0
1002
}
1002
{
1000
BEHIND
1070
     0
1002
}
1002
{
1000
OTHER
1070
     0
1002
}
1002
{
1000
REACTOR
1002
}
1001
GENIUS_GENOBJ-N-SDF_13
1002
{
1000
OWNER
1000
GEN
1002
}
1001
GENIUS_GENSCREG_15
1000
PF
1040
1.0
1000
DF
1040
1.0
1000
MIN
1011
0.0
1021
0.0
1031
0.0
1021
0.0
1031
0.0
1000
MAX
1011
523.0353982300885
1021
0.0
1031
0.0
1021
297.0
1031
0.0
1000
FLAGS
1070
     4
  0
ENDSEC
  0
EOF
