  0
SECTION
  2
HEADER
  9
$ACADVER
  1
AC1009
  9
$INSBASE
 10
0.0
 20
0.0
 30
0.0
  9
$EXTMIN
 10
-71.174769203425456
 20
-43.872756230869797
 30
0.0
  9
$EXTMAX
 10
134.0
 20
54.000000000000021
 30
0.0
  9
$LIMMIN
 10
0.0
 20
0.0
  9
$LIMMAX
 10
420.0
 20
297.0
  9
$ORTHOMODE
 70
     1
  9
$REGENMODE
 70
     1
  9
$FILLMODE
 70
     1
  9
$QTEXTMODE
 70
     0
  9
$MIRRTEXT
 70
     1
  9
$DRAGMODE
 70
     2
  9
$LTSCALE
 40
10.0
  9
$OSMODE
 70
    55
  9
$ATTMODE
 70
     1
  9
$TEXTSIZE
 40
3.0
  9
$TRACEWID
 40
1.0
  9
$TEXTSTYLE
  7
YOKO
  9
$CLAYER
  8
240
  9
$CELTYPE
  6
BYLAYER
  9
$CECOLOR
 62
   256
  9
$DIMSCALE
 40
1.0
  9
$DIMASZ
 40
2.0
  9
$DIMEXO
 40
2.0
  9
$DIMDLI
 40
2.5
  9
$DIMRND
 40
0.0
  9
$DIMDLE
 40
0.0
  9
$DIMEXE
 40
2.0
  9
$DIMTP
 40
0.0
  9
$DIMTM
 40
0.0
  9
$DIMTXT
 40
4.0
  9
$DIMCEN
 40
0.0
  9
$DIMTSZ
 40
0.0
  9
$DIMTOL
 70
     0
  9
$DIMLIM
 70
     0
  9
$DIMTIH
 70
     0
  9
$DIMTOH
 70
     0
  9
$DIMSE1
 70
     0
  9
$DIMSE2
 70
     0
  9
$DIMTAD
 70
     3
  9
$DIMZIN
 70
     8
  9
$DIMBLK
  1

  9
$DIMASO
 70
     1
  9
$DIMSHO
 70
     1
  9
$DIMPOST
  1

  9
$DIMAPOST
  1

  9
$DIMALT
 70
     0
  9
$DIMALTD
 70
     2
  9
$DIMALTF
 40
25.399999999999999
  9
$DIMLFAC
 40
1.0
  9
$DIMTOFL
 70
     1
  9
$DIMTVP
 40
0.0
  9
$DIMTIX
 70
     1
  9
$DIMSOXD
 70
     0
  9
$DIMSAH
 70
     1
  9
$DIMBLK1
  1
OPEN
  9
$DIMBLK2
  1
OPEN
  9
$DIMSTYLE
  2
BIGT
  9
$DIMCLRD
 70
   256
  9
$DIMCLRE
 70
   256
  9
$DIMCLRT
 70
    40
  9
$DIMTFAC
 40
1.0
  9
$DIMGAP
 40
1.0
  9
$LUNITS
 70
     2
  9
$LUPREC
 70
     3
  9
$SKETCHINC
 40
1.0
  9
$FILLETRAD
 40
0.0
  9
$AUNITS
 70
     0
  9
$AUPREC
 70
     3
  9
$MENU
  1
.
  9
$ELEVATION
 40
0.0
  9
$PELEVATION
 40
0.0
  9
$THICKNESS
 40
0.0
  9
$LIMCHECK
 70
     0
  9
$BLIPMODE
 70
     0
  9
$CHAMFERA
 40
10.0
  9
$CHAMFERB
 40
10.0
  9
$SKPOLY
 70
     0
  9
$TDCREATE
 40
2455128.626756181
  9
$TDUPDATE
 40
2457787.7608205322
  9
$TDINDWG
 40
0.0295032407
  9
$TDUSRTIMER
 40
0.0295032176
  9
$USRTIMER
 70
     1
  9
$ANGBASE
 50
0.0
  9
$ANGDIR
 70
     0
  9
$PDMODE
 70
     1
  9
$PDSIZE
 40
-5.0
  9
$PLINEWID
 40
0.0
  9
$COORDS
 70
     1
  9
$SPLFRAME
 70
     0
  9
$SPLINETYPE
 70
     6
  9
$SPLINESEGS
 70
     8
  9
$ATTDIA
 70
     1
  9
$ATTREQ
 70
     1
  9
$HANDLING
 70
     1
  9
$HANDSEED
  5
1C8A
  9
$SURFTAB1
 70
     6
  9
$SURFTAB2
 70
     6
  9
$SURFTYPE
 70
     6
  9
$SURFU
 70
     6
  9
$SURFV
 70
     6
  9
$UCSNAME
  2

  9
$UCSORG
 10
0.0
 20
0.0
 30
0.0
  9
$UCSXDIR
 10
1.0
 20
0.0
 30
0.0
  9
$UCSYDIR
 10
0.0
 20
1.0
 30
0.0
  9
$PUCSNAME
  2

  9
$PUCSORG
 10
0.0
 20
0.0
 30
0.0
  9
$PUCSXDIR
 10
1.0
 20
0.0
 30
0.0
  9
$PUCSYDIR
 10
0.0
 20
1.0
 30
0.0
  9
$USERI1
 70
     1
  9
$USERI2
 70
     0
  9
$USERI3
 70
     0
  9
$USERI4
 70
     0
  9
$USERI5
 70
     0
  9
$USERR1
 40
0.0
  9
$USERR2
 40
0.0
  9
$USERR3
 40
0.0
  9
$USERR4
 40
0.0
  9
$USERR5
 40
0.0
  9
$WORLDVIEW
 70
     1
  9
$SHADEDGE
 70
     3
  9
$SHADEDIF
 70
    70
  9
$TILEMODE
 70
     1
  9
$MAXACTVP
 70
    16
  9
$PLIMCHECK
 70
     0
  9
$PEXTMIN
 10
1.0000000000000000E+020
 20
1.0000000000000000E+020
 30
1.0000000000000000E+020
  9
$PEXTMAX
 10
-1.0000000000000000E+020
 20
-1.0000000000000000E+020
 30
-1.0000000000000000E+020
  9
$PLIMMIN
 10
0.0
 20
0.0
  9
$PLIMMAX
 10
420.0
 20
297.0
  9
$UNITMODE
 70
     0
  9
$VISRETAIN
 70
     0
  9
$PLINEGEN
 70
     0
  9
$PSLTSCALE
 70
     1
  0
ENDSEC
  0
SECTION
  2
TABLES
  0
TABLE
  2
VPORT
 70
     1
  0
VPORT
  2
*ACTIVE
 70
     0
 10
0.0
 20
0.0
 11
1.0
 21
1.0
 12
36.394389147340732
 22
23.486526923892701
 13
0.0
 23
0.0
 14
7.0
 24
7.0
 15
7.0
 25
7.0
 16
0.0
 26
0.0
 36
1.0
 17
0.0
 27
0.0
 37
0.0
 40
149.1183641684685
 41
1.4489795918367341
 42
50.0
 43
0.0
 44
0.0
 50
0.0
 51
0.0
 71
     0
 72
  2000
 73
     1
 74
     0
 75
     0
 76
     1
 77
     0
 78
     0
  0
ENDTAB
  0
TABLE
  2
LTYPE
 70
    21
  0
LTYPE
  2
CONTINUOUS
 70
     0
  3
Solid line
 72
    65
 73
     0
 40
0.0
  0
LTYPE
  2
CENTER2
 70
     0
  3
___ _ ___ _ ___ _ ___ _ ___ _ ___ _ ___ _ ___ _
 72
    65
 73
     4
 40
1.125
 49
0.75
 49
-0.125
 49
0.125
 49
-0.125
  0
LTYPE
  2
HIDDEN2
 70
     0
  3
_ _ _ _ _ _ _ _ _ _ _ _ _ _ _ _ _ _ _ _ _ _ _ _
 72
    65
 73
     2
 40
0.1875
 49
0.125
 49
-0.0625
  0
LTYPE
  2
PHANTOM2
 70
     0
  3
___ _ _ ___ _ _ ___ _ _ ___ _ _ ___ _ _ ___ _ _
 72
    65
 73
     6
 40
1.25
 49
0.625
 49
-0.125
 49
0.125
 49
-0.125
 49
0.125
 49
-0.125
  0
LTYPE
  2
AMCONSTR
 70
     0
  3
_______________________
 72
    65
 73
     2
 40
9999.0
 49
9999.0
 49
0.0
  0
LTYPE
  2
HIDDEN
 70
     0
  3
Hidden __ __ __ __ __ __ __ __ __ __ __ __ __ _
 72
    65
 73
     2
 40
0.375
 49
0.25
 49
-0.125
  0
LTYPE
  2
CENTER
 70
     0
  3
Center ____ _ ____ _ ____ _ ____ _ ____ _ ____
 72
    65
 73
     4
 40
2.0
 49
1.25
 49
-0.25
 49
0.25
 49
-0.25
  0
LTYPE
  2
AMZIGZAG2
 70
     0
  3
/\/-/\/-/\/-/\/-/\/-/\/
 72
    65
 73
     2
 40
0.4401
 49
0.0001
 49
-0.4400000000000001
  0
LTYPE
  2
ACANSTGB
 70
     0
  3
__ . . __ . .
 72
    65
 73
     6
 40
0.35433070866
 49
0.15748031496
 49
-0.03937007874
 49
0.03937007874
 49
-0.03937007874
 49
0.03937007874
 49
-0.03937007874
  0
LTYPE
  2
ACANSTGL
 70
     0
  3
_ _ _ _ _
 72
    65
 73
     2
 40
0.11811023622
 49
0.07874015748
 49
-0.03937007874
  0
ENDTAB
  0
TABLE
  2
LAYER
 70
    10
  0
LAYER
  2
0
 70
     0
 62
     7
  6
CONTINUOUS
  0
LAYER
  2
240
 70
     0
 62
     4
  6
CONTINUOUS
  0
LAYER
  2
241
 70
     0
 62
   211
  6
CONTINUOUS
  0
LAYER
  2
242
 70
     0
 62
     3
  6
CONTINUOUS
  0
LAYER
  2
245
 70
     0
 62
     2
  6
CENTER2
  0
LAYER
  2
250
 70
     0
 62
     3
  6
CONTINUOUS
  0
LAYER
  2
DEFPOINTS
 70
     0
 62
     7
  6
CONTINUOUS
  0
LAYER
  2
247
 70
     0
 62
    60
  6
CONTINUOUS
  0
LAYER
  2
243
 70
     0
 62
   211
  6
HIDDEN2
  0
ENDTAB
  0
TABLE
  2
STYLE
 70
    10
  0
STYLE
  2
STANDARD
 70
     0
 40
0.0
 41
1.0
 50
0.0
 71
     0
 42
3.0
  3
romans.shx
  4
BIGFONT.SHX
  0
STYLE
  2
YOKO
 70
     0
 40
0.0
 41
1.0
 50
0.0
 71
     0
 42
3.0
  3
romans.shx
  4
extfont.shx
  0
STYLE
  2

 70
     1
 40
0.0
 41
1.0
 50
0.0
 71
     0
 42
3.0
  3
genltshp.shx
  4

  0
STYLE
  2
ACANSGDT
 70
     0
 40
0.0
 41
1.0
 50
0.0
 71
     0
 42
3.0
  3
amgdt.shx
  4

  0
ENDTAB
  0
TABLE
  2
VIEW
 70
     0
  0
ENDTAB
  0
TABLE
  2
UCS
 70
     0
  0
ENDTAB
  0
TABLE
  2
APPID
 70
    49
  0
APPID
  2
ACAD
 70
     0
  0
APPID
  2
ACADANNOTATIVE
 70
     0
  0
APPID
  2
GLOBAL
 70
     0
  0
APPID
  2
DETAIL
 70
     0
  0
APPID
  2
GRPNAME
 70
     0
  0
APPID
  2
GPARA
 70
     0
  0
APPID
  2
DCO15
 70
     0
  0
APPID
  2
ITEMNAME
 70
     0
  0
APPID
  2
GRADE_0
 70
     0
  0
APPID
  2
GENIUS_GENODEF_13
 70
     0
  0
APPID
  2
GENIUS_GENOREF_13
 70
     0
  0
APPID
  2
GENIUS_GENOBJ-N-FIL_13
 70
     0
  0
APPID
  2
HATCH_TYPE
 70
     0
  0
APPID
  2
HATCH_DISPLAY
 70
     0
  0
APPID
  2
HATCH_DISTANCE
 70
     0
  0
APPID
  2
CONTENTBLOCKICON
 70
     0
  0
APPID
  2
MCAD_NO_VIS
 70
     0
  0
APPID
  2
ACAD_TEMP_GRAPHIC
 70
     0
  0
APPID
  2
ACATTRIBSERVICES
 70
     0
  0
APPID
  2
GENIUS_GENSCREG_15
 70
     0
  0
APPID
  2
GENIUS_GENOBJ-N-SDF_13
 70
     0
  0
APPID
  2
GENIUS_GENREC_14
 70
     0
  0
APPID
  2
GENIUS_GENOBJ-N-REC_13
 70
     0
  0
APPID
  2
GENIUS_GENDIMSH_14
 70
     0
  0
APPID
  2
GENIUS_GENOBJ-N-DIM_13
 70
     0
  0
APPID
  2
GENIUS_GENDIM_13
 70
     0
  0
APPID
  2
GENIUS_GENDTOL_13
 70
     0
  0
APPID
  2
GENIUS_GENOLIS_13
 70
     0
  0
APPID
  2
GENIUS_GENOENT_13
 70
     0
  0
APPID
  2
GENIUS_GENOBJ-F-FEM_13
 70
     0
  0
APPID
  2
GENIUS_GEFFEM_13
 70
     0
  0
APPID
  2
GENIUS_GEFFEMP_13
 70
     0
  0
APPID
  2
AD_DRAW
 70
     0
  0
APPID
  2
DESIGNERASSEMBLIES
 70
     0
  0
APPID
  2
ACADM_DIM_EDIT
 70
     0
  0
APPID
  2
AMDT_DM_ADJ
 70
     0
  0
APPID
  2
GENIUS_GENFIL_13
 70
     0
  0
APPID
  2
GENIUS_GENOBJ-N-CHA_13
 70
     0
  0
APPID
  2
ACAD_NAV_VCDISPLAY
 70
     0
  0
APPID
  2
ACAD_EXEMPT_FROM_CAD_STANDARDS
 70
     0
  0
APPID
  2
ACAECLAYERSTANDARD
 70
     0
  0
APPID
  2
ACAD_DSTYLE_DIMINSPECT
 70
     0
  0
APPID
  2
ACAD_DSTYLE_DIMJAG
 70
     0
  0
APPID
  2
ACAD_DSTYLE_DIMBREAK
 70
     0
  0
APPID
  2
ACAD_MLEADERVER
 70
     0
  0
APPID
  2
ACAD_DSTYLE_DIMARC_LENGTH_
 70
     0
  0
APPID
  2
ACAD_DSTYLE_DIM_LINETYPE
 70
     0
  0
APPID
  2
ACAD_DSTYLE_DIM_EXT1_LINETYPE
 70
     0
  0
APPID
  2
ACAD_DSTYLE_DIM_EXT2_LINETYPE
 70
     0
  0
ENDTAB
  0
TABLE
  2
DIMSTYLE
 70
    31
  0
DIMSTYLE
  2
STANDARD
 70
     0
  3

  4

  5

  6

  7

 40
1.0
 41
0.18
 42
0.0625
 43
0.38
 44
0.18
 45
0.0
 46
0.0
 47
0.0
 48
0.0
140
0.18
141
0.09
142
0.0
143
25.399999999999999
144
1.0
145
0.0
146
1.0
147
0.09
 71
     0
 72
     0
 73
     1
 74
     1
 75
     0
 76
     0
 77
     0
 78
     0
170
     0
171
     2
172
     0
173
     0
174
     0
175
     0
176
     0
177
     0
178
     0
  0
DIMSTYLE
  2
BIGT
 70
     0
  3

  4

  5

  6

  7

 40
1.0
 41
2.2299999999999991
 42
0.5
 43
7.0
 44
1.0
 45
0.0
 46
0.0
 47
0.0
 48
0.01
140
2.799999999999998
141
0.0
142
0.0
143
25.399999999999999
144
1.0
145
0.0
146
1.0
147
1.0
 71
     0
 72
     0
 73
     0
 74
     0
 75
     0
 76
     0
 77
     3
 78
     9
170
     0
171
     2
172
     1
173
     0
174
     1
175
     0
176
   256
177
   256
178
    40
  0
DIMSTYLE
  2
AM_ANSI
 70
     0
  3

  4
mm
  5

  6

  7

 40
1.0
 41
0.12
 42
0.05
 43
0.5
 44
0.1
 45
0.0
 46
0.0
 47
0.1
 48
0.1
140
0.12
141
0.0
142
0.0
143
25.399999999999999
144
1.0
145
0.0
146
0.71
147
0.06
 71
     0
 72
     0
 73
     1
 74
     1
 75
     0
 76
     0
 77
     0
 78
     7
170
     0
171
     2
172
     0
173
     0
174
     0
175
     0
176
   256
177
   256
178
     2
  0
DIMSTYLE
  2
AM_ANSI$3
 70
     0
  3

  4
mm
  5

  6

  7

 40
1.0
 41
0.12
 42
0.05
 43
0.5
 44
0.1
 45
0.0
 46
0.0
 47
0.1
 48
0.1
140
0.12
141
0.0
142
0.0
143
25.399999999999999
144
1.0
145
0.0
146
0.71
147
0.06
 71
     0
 72
     0
 73
     1
 74
     1
 75
     0
 76
     0
 77
     0
 78
     7
170
     0
171
     2
172
     0
173
     0
174
     0
175
     0
176
   256
177
   256
178
     2
  0
DIMSTYLE
  2
AM_ANSI$4
 70
     0
  3

  4
mm
  5

  6

  7

 40
1.0
 41
0.12
 42
0.05
 43
0.5
 44
0.1
 45
0.0
 46
0.0
 47
0.1
 48
0.1
140
0.12
141
0.0
142
0.0
143
25.399999999999999
144
1.0
145
0.0
146
0.71
147
0.06
 71
     0
 72
     0
 73
     1
 74
     1
 75
     0
 76
     0
 77
     0
 78
     7
170
     0
171
     2
172
     0
173
     0
174
     0
175
     0
176
   256
177
   256
178
     2
  0
DIMSTYLE
  2
AM_ANSI$7
 70
     0
  3

  4
mm
  5

  6

  7

 40
1.0
 41
0.12
 42
0.05
 43
0.5
 44
0.1
 45
0.0
 46
0.0
 47
0.1
 48
0.1
140
0.12
141
0.0
142
0.0
143
25.399999999999999
144
1.0
145
0.0
146
0.71
147
0.06
 71
     0
 72
     0
 73
     1
 74
     1
 75
     0
 76
     0
 77
     0
 78
     7
170
     0
171
     2
172
     0
173
     0
174
     0
175
     0
176
   256
177
   256
178
     2
  0
DIMSTYLE
  2
AM_ANSI$SF
 70
     0
  3

  4
mm
  5

  6

  7

 40
1.0
 41
0.12
 42
0.05
 43
0.5
 44
0.1
 45
0.0
 46
0.0
 47
0.1
 48
0.1
140
0.12
141
0.0
142
0.0
143
25.399999999999999
144
1.0
145
0.0
146
0.71
147
0.06
 71
     0
 72
     0
 73
     1
 74
     1
 75
     1
 76
     1
 77
     0
 78
     7
170
     0
171
     2
172
     0
173
     0
174
     0
175
     0
176
   256
177
   256
178
     2
  0
DIMSTYLE
  2
AM_ANSI$SH
 70
     0
  3

  4
mm
  5

  6
GENAXEH
  7

 40
1.0
 41
0.12
 42
0.05
 43
0.5
 44
0.1
 45
0.0
 46
0.0
 47
0.1
 48
0.1
140
0.12
141
0.0
142
0.0
143
25.399999999999999
144
1.0
145
0.0
146
0.71
147
0.06
 71
     0
 72
     0
 73
     1
 74
     1
 75
     1
 76
     1
 77
     0
 78
     7
170
     0
171
     2
172
     0
173
     1
174
     0
175
     0
176
   256
177
   256
178
     2
  0
ENDTAB
  0
ENDSEC
  0
SECTION
  2
BLOCKS
  0
BLOCK
  8
0
  2
$MODEL_SPACE
 70
     0
 10
0.0
 20
0.0
 30
0.0
  3
$MODEL_SPACE
  1

  0
ENDBLK
  5
1ADF
  8
0
  0
BLOCK
 67
     1
  8
0
  2
$PAPER_SPACE
 70
     0
 10
0.0
 20
0.0
 30
0.0
  3
$PAPER_SPACE
  1

  0
ENDBLK
  5
1ADB
 67
     1
  8
0
  0
BLOCK
  8
0
  2
_OPEN
 70
     0
 10
0.0
 20
0.0
 30
0.0
  3
_OPEN
  1

  0
LINE
  5
1966
  8
0
  6
BYBLOCK
 62
     0
 10
-1.0
 20
0.1666666666666666
 30
0.0
 11
0.0
 21
0.0
 31
0.0
  0
LINE
  5
1967
  8
0
  6
BYBLOCK
 62
     0
 10
-1.0
 20
-0.1666666666666666
 30
0.0
 11
0.0
 21
0.0
 31
0.0
  0
LINE
  5
1968
  8
0
  6
BYBLOCK
 62
     0
 10
0.0
 20
0.0
 30
0.0
 11
-1.0
 21
0.0
 31
0.0
  0
ENDBLK
  5
1969
  8
0
  0
BLOCK
  8
0
  2
矢印なし
 70
     0
 10
0.0
 20
0.0
 30
0.0
  3
矢印なし
  1

  0
ENDBLK
  5
6E5
  8
0
  0
BLOCK
  8
0
  2
GENAXEH
 70
     0
 10
0.0
 20
0.0
 30
0.0
  3
GENAXEH
  1

  0
LINE
  5
19A1
  8
0
 10
-1.0
 20
0.0
 30
0.0
 11
1.0
 21
0.0
 31
0.0
  0
ENDBLK
  5
19A2
  8
0
  0
BLOCK
  8
0
  2
_ACMFILLEDHALF
 70
     0
 10
0.0
 20
0.0
 30
0.0
  3
_ACMFILLEDHALF
  1

  0
TRACE
  5
1BAE
  8
240
 62
     0
 10
-0.8
 20
0.0
 30
0.0
 11
-1.0
 21
0.166666666
 31
0.0
 12
0.0
 22
0.0
 32
0.0
 13
0.0
 23
0.0
 33
0.0
  0
LINE
  5
1BAF
  8
240
 62
     0
 10
-1.0
 20
0.0
 30
0.0
 11
-0.8
 21
0.0
 31
0.0
  0
ENDBLK
  5
1BAD
  8
0
  0
ENDSEC
  0
SECTION
  2
ENTITIES
  0
INSERT
  5
6E6
  8
245
  2
矢印なし
 10
175.62382697000001
 20
90.551235719999994
 30
0.0
  0
INSERT
  5
8EC
  8
245
  2
矢印なし
 10
357.62382696999998
 20
244.55123571999999
 30
0.0
  0
INSERT
  5
8ED
  8
245
  2
矢印なし
 10
546.62382696999975
 20
391.55123572000002
 30
0.0
  0
INSERT
  5
8EE
  8
245
  2
矢印なし
 10
721.62382696999975
 20
538.55123572000002
 30
0.0
  0
INSERT
  5
8EF
  8
245
  2
矢印なし
 10
889.62382696999987
 20
678.55123572000002
 30
0.0
  0
INSERT
  5
8F0
  8
245
  2
矢印なし
 10
1064.62382697
 20
818.55123572000002
 30
0.0
  0
INSERT
  5
8F1
  8
245
  2
矢印なし
 10
1246.62382697
 20
951.55123572000002
 30
0.0
  0
INSERT
  5
8F2
  8
245
  2
矢印なし
 10
1421.62382697
 20
1098.55123572
 30
0.0
  0
INSERT
  5
8F3
  8
245
  2
矢印なし
 10
1610.62382697
 20
1231.55123572
 30
0.0
  0
INSERT
  5
8F4
  8
245
  2
矢印なし
 10
1799.62382697
 20
1371.55123572
 30
0.0
  0
INSERT
  5
8F5
  8
245
  2
矢印なし
 10
1974.62382697
 20
1511.55123572
 30
0.0
  0
INSERT
  5
8F6
  8
245
  2
矢印なし
 10
2149.6238269700002
 20
1651.55123572
 30
0.0
  0
INSERT
  5
8F7
  8
245
  2
矢印なし
 10
2338.6238269700002
 20
1791.55123572
 30
0.0
  0
INSERT
  5
8F8
  8
245
  2
矢印なし
 10
2520.6238269700002
 20
1931.55123572
 30
0.0
  0
INSERT
  5
8F9
  8
245
  2
矢印なし
 10
2702.6238269700002
 20
2078.55123572
 30
0.0
  0
INSERT
  5
8FA
  8
245
  2
矢印なし
 10
2884.6238269700002
 20
2225.55123572
 30
0.0
  0
INSERT
  5
8FB
  8
245
  2
矢印なし
 10
3031.6238269700002
 20
2365.55123572
 30
0.0
  0
INSERT
  5
8FC
  8
245
  2
矢印なし
 10
3206.6238269700002
 20
2519.55123572
 30
0.0
  0
INSERT
  5
8FD
  8
245
  2
矢印なし
 10
3402.6238269700002
 20
2666.55123572
 30
0.0
  0
INSERT
  5
8FE
  8
245
  2
矢印なし
 10
3591.6238269700002
 20
2799.55123572
 30
0.0
  0
INSERT
  5
8FF
  8
245
  2
矢印なし
 10
3752.6238269700002
 20
2953.55123572
 30
0.0
  0
INSERT
  5
900
  8
245
  2
矢印なし
 10
3927.6238269700002
 20
3107.55123572
 30
0.0
  0
INSERT
  5
901
  8
245
  2
矢印なし
 10
4102.6238269699979
 20
3240.55123572
 30
0.0
  0
INSERT
  5
902
  8
245
  2
矢印なし
 10
4256.6238269699998
 20
3387.55123572
 30
0.0
  0
TEXT
  5
903
  8
241
  6
CONTINUOUS
 10
-69.0
 20
49.0
 30
0.0
 40
5.0
  1
MGT20-M16-115
  7
YOKO
 11
-69.0
 21
49.0
 31
0.0
 73
     1
  0
LINE
  5
1127
  8
250
  6
CONTINUOUS
 10
94.760617011673219
 20
28.061851390000001
 30
0.0
 11
108.2806170116732
 21
28.061851390000001
 31
0.0
1001
ITEMNAME
1000
LNSP2
  0
LINE
  5
1443
  8
240
  6
CONTINUOUS
 10
93.259807620000004
 20
15.0
 30
0.0
 11
115.0
 21
15.0
 31
0.0
  0
LINE
  5
1444
  8
243
  6
HIDDEN2
 10
93.0
 20
6.25
 30
0.0
 11
115.0
 21
6.25
 31
0.0
  0
LINE
  5
1445
  8
240
  6
CONTINUOUS
 10
93.259807620000004
 20
-15.0
 30
0.0
 11
115.0
 21
-15.0
 31
0.0
  0
LINE
  5
1446
  8
245
  6
CENTER2
 10
-71.174769203425456
 20
0.0
 30
0.0
 11
116.0
 21
0.0
 31
0.0
  0
LINE
  5
1447
  8
240
  6
CONTINUOUS
 10
-54.0
 20
-12.5
 30
0.0
 11
-56.5
 21
-15.0
 31
0.0
  0
LINE
  5
1448
  8
240
  6
CONTINUOUS
 10
-54.0
 20
12.5
 30
0.0
 11
-56.5
 21
15.0
 31
0.0
  0
LINE
  5
144A
  8
240
  6
CONTINUOUS
 10
-69.0
 20
-15.0
 30
0.0
 11
-56.5
 21
-15.0
 31
0.0
  0
LINE
  5
144D
  8
240
  6
CONTINUOUS
 10
-69.0
 20
15.0
 30
0.0
 11
-69.0
 21
-15.0
 31
0.0
  0
LINE
  5
144E
  8
240
  6
CONTINUOUS
 10
-69.0
 20
15.0
 30
0.0
 11
-56.5
 21
15.0
 31
0.0
  0
LINE
  5
1454
  8
241
  6
CONTINUOUS
 10
90.0
 20
-11.699999999999999
 30
0.0
 11
90.0
 21
11.699999999999999
 31
0.0
  0
LINE
  5
1458
  8
245
  6
CENTER2
 10
-46.0
 20
-15.0
 30
0.0
 11
-46.0
 21
15.0
 31
0.0
1001
GENIUS_GENOREF_13
1005
0
  0
LINE
  5
1462
  8
241
  6
CONTINUOUS
 10
0.0
 20
-19.5
 30
0.0
 11
0.0
 21
19.5
 31
0.0
  0
LINE
  5
1463
  8
241
  6
CONTINUOUS
 10
-7.5
 20
-15.0
 30
0.0
 11
-7.5
 21
15.0
 31
0.0
  0
LINE
  5
1465
  8
241
  6
CONTINUOUS
 10
1.205771369999999
 20
-15.358743970000001
 30
0.0
 11
1.205771369999999
 21
15.358743970000001
 31
0.0
  0
LINE
  5
1466
  8
240
  6
CONTINUOUS
 10
-35.5
 20
-15.0
 30
0.0
 11
-7.5
 21
-15.0
 31
0.0
  0
LINE
  5
1467
  8
240
  6
CONTINUOUS
 10
-38.0
 20
-12.5
 30
0.0
 11
-35.5
 21
-15.0
 31
0.0
  0
LINE
  5
1468
  8
240
  6
CONTINUOUS
 10
-46.0
 20
-12.5
 30
0.0
 11
-38.0
 21
-12.5
 31
0.0
  0
LINE
  5
1469
  8
240
  6
CONTINUOUS
 10
-54.0
 20
-12.5
 30
0.0
 11
-46.0
 21
-12.5
 31
0.0
  0
LINE
  5
1472
  8
240
  6
CONTINUOUS
 10
90.0
 20
-15.0
 30
0.0
 11
1.9730983600000001
 21
-15.0
 31
0.0
  0
LINE
  5
1473
  8
240
  6
CONTINUOUS
 10
-7.5
 20
-19.000000010000001
 30
0.0
 11
-6.1262612799999987
 21
-19.5
 31
0.0
  0
LINE
  5
147B
  8
240
  6
CONTINUOUS
 10
0.0000000028216141
 20
-19.5
 30
0.0
 11
1.0071725300000001
 21
-15.741180959999999
 31
0.0
  0
LINE
  5
147E
  8
240
  6
CONTINUOUS
 10
0.0000000028216141
 20
-19.5
 30
0.0
 11
-6.1262612900000004
 21
-19.5
 31
0.0
  0
ARC
  5
1483
  8
240
  6
CONTINUOUS
 10
1.9730983600000001
 20
-16.0
 30
0.0
 40
1.0
 50
90.0
 51
165.00000001999999
  0
LINE
  5
1484
  8
240
  6
CONTINUOUS
 10
91.0
 20
-15.15
 30
0.0
 11
93.0
 21
-15.15
 31
0.0
  0
LINE
  5
1514
  8
240
  6
CONTINUOUS
 10
91.0
 20
-11.699999999999999
 30
0.0
 11
91.0
 21
-15.15
 31
0.0
  0
LINE
  5
1515
  8
240
  6
CONTINUOUS
 10
90.0
 20
-11.699999999999999
 30
0.0
 11
90.0
 21
-15.0
 31
0.0
  0
LINE
  5
1516
  8
240
  6
CONTINUOUS
 10
91.0
 20
-11.699999999999999
 30
0.0
 11
90.0
 21
-11.699999999999999
 31
0.0
  0
LINE
  5
1517
  8
240
  6
CONTINUOUS
 10
93.259807620000004
 20
-15.0
 30
0.0
 11
93.0
 21
-15.15
 31
0.0
  0
LINE
  5
1519
  8
240
  6
CONTINUOUS
 10
-38.0
 20
12.5
 30
0.0
 11
-35.5
 21
15.0
 31
0.0
  0
LINE
  5
151A
  8
240
  6
CONTINUOUS
 10
-46.0
 20
12.5
 30
0.0
 11
-38.0
 21
12.5
 31
0.0
  0
LINE
  5
151B
  8
240
  6
CONTINUOUS
 10
-54.0
 20
12.5
 30
0.0
 11
-46.0
 21
12.5
 31
0.0
  0
LINE
  5
151C
  8
241
  6
CONTINUOUS
 10
-19.0
 20
15.0
 30
0.0
 11
-19.0
 21
-15.0
 31
0.0
  0
LINE
  5
151D
  8
241
  6
CONTINUOUS
 10
-21.5
 20
15.0
 30
0.0
 11
-21.5
 21
-15.0
 31
0.0
  0
LINE
  5
151E
  8
241
  6
CONTINUOUS
 10
-29.5
 20
15.0
 30
0.0
 11
-29.5
 21
-15.0
 31
0.0
  0
LINE
  5
151F
  8
241
  6
CONTINUOUS
 10
-32.0
 20
15.0
 30
0.0
 11
-32.0
 21
-15.0
 31
0.0
  0
LINE
  5
1526
  8
240
  6
CONTINUOUS
 10
-35.5
 20
15.0
 30
0.0
 11
-7.5
 21
15.0
 31
0.0
  0
LINE
  5
152B
  8
240
  6
CONTINUOUS
 10
93.259807620000004
 20
15.0
 30
0.0
 11
93.0
 21
15.15
 31
0.0
  0
LINE
  5
152C
  8
240
  6
CONTINUOUS
 10
91.0
 20
11.699999999999999
 30
0.0
 11
91.0
 21
15.15
 31
0.0
  0
LINE
  5
152D
  8
241
  6
CONTINUOUS
 10
93.0
 20
15.15
 30
0.0
 11
93.0
 21
-15.15
 31
0.0
  0
ARC
  5
152F
  8
240
  6
CONTINUOUS
 10
1.9730983600000001
 20
16.0
 30
0.0
 40
1.0
 50
194.99999998000001
 51
270.0
  0
LINE
  5
1536
  8
240
  6
CONTINUOUS
 10
90.0
 20
15.0
 30
0.0
 11
1.9730983600000001
 21
15.0
 31
0.0
  0
LINE
  5
153A
  8
241
  6
CONTINUOUS
 10
91.0
 20
11.699999999999999
 30
0.0
 11
91.0
 21
-11.699999999999999
 31
0.0
  0
LINE
  5
153B
  8
241
  6
CONTINUOUS
 10
94.199999999999989
 20
15.0
 30
0.0
 11
94.199999999999989
 21
-15.0
 31
0.0
  0
LINE
  5
153F
  8
242
  6
HIDDEN2
 10
79.0
 20
7.1417784900000001
 30
0.0
 11
93.0
 21
0.0
 31
0.0
  0
LINE
  5
1540
  8
242
  6
HIDDEN2
 10
79.0
 20
0.0
 30
0.0
 11
93.0
 21
7.1417784900000001
 31
0.0
  0
LINE
  5
1541
  8
243
  6
HIDDEN2
 10
79.0
 20
7.1417784900000001
 30
0.0
 11
79.0
 21
0.0
 31
0.0
  0
LINE
  5
154B
  8
243
  6
HIDDEN2
 10
79.0
 20
7.1417784900000001
 30
0.0
 11
93.0
 21
7.1417784900000001
 31
0.0
  0
LINE
  5
154C
  8
240
  6
CONTINUOUS
 10
90.0
 20
11.699999999999999
 30
0.0
 11
90.0
 21
15.0
 31
0.0
  0
LINE
  5
154D
  8
240
  6
CONTINUOUS
 10
91.0
 20
11.699999999999999
 30
0.0
 11
90.0
 21
11.699999999999999
 31
0.0
  0
LINE
  5
154F
  8
240
  6
CONTINUOUS
 10
-7.5
 20
19.000000010000001
 30
0.0
 11
-6.1262612799999987
 21
19.5
 31
0.0
  0
LINE
  5
1555
  8
240
  6
CONTINUOUS
 10
0.0000000028216141
 20
19.5
 30
0.0
 11
-6.1262612900000004
 21
19.5
 31
0.0
  0
LINE
  5
1557
  8
240
  6
CONTINUOUS
 10
0.0000000028216141
 20
19.5
 30
0.0
 11
1.0071725300000001
 21
15.741180959999999
 31
0.0
  0
LINE
  5
155C
  8
240
  6
CONTINUOUS
 10
91.0
 20
15.15
 30
0.0
 11
93.0
 21
15.15
 31
0.0
  0
LINE
  5
1560
  8
240
  6
CONTINUOUS
 10
115.0
 20
15.0
 30
0.0
 11
115.0
 21
-15.0
 31
0.0
  0
LINE
  5
1562
  8
250
  6
CONTINUOUS
 10
0.0
 20
20.0
 30
0.0
 11
0.0
 21
36.0
 31
0.0
  0
LINE
  5
1563
  8
250
  6
CONTINUOUS
 10
115.0
 20
15.5
 30
0.0
 11
115.0
 21
36.0
 31
0.0
  0
LINE
  5
1564
  8
250
  6
CONTINUOUS
 10
0.0
 20
35.0
 30
0.0
 11
112.77
 21
35.0
 31
0.0
  0
LINE
  5
1568
  8
250
  6
CONTINUOUS
 10
115.5
 20
-15.0
 30
0.0
 11
134.0
 21
-15.0
 31
0.0
  0
LINE
  5
1569
  8
250
  6
CONTINUOUS
 10
115.5
 20
15.0
 30
0.0
 11
134.0
 21
15.0
 31
0.0
  0
LINE
  5
156A
  8
250
  6
CONTINUOUS
 10
133.0
 20
-13.0
 30
0.0
 11
133.0
 21
13.0
 31
0.0
  0
LINE
  5
156E
  8
250
  6
CONTINUOUS
 10
115.5
 20
6.25
 30
0.0
 11
126.91463865
 21
6.25
 31
0.0
  0
LINE
  5
156F
  8
250
  6
CONTINUOUS
 10
125.91463865
 20
-6.2500000000000018
 30
0.0
 11
125.91463865
 21
4.0199999999999987
 31
0.0
  0
INSERT
  5
1570
  8
250
  6
CONTINUOUS
  2
矢印なし
 10
45.914638650000001
 20
-6.25
 30
0.0
 41
2.2299999999999991
 42
2.2299999999999991
 43
2.2299999999999991
 50
270.0
  0
TEXT
  5
1573
  8
250
  6
CONTINUOUS
 10
124.99227277399579
 20
-6.036958507574365
 30
0.0
 40
2.799999999999998
  1
\U+220512.5
 50
90.0
1001
ACAD
1000
MTEXTBEGIN
1070
    73
1070
     1
1070
    44
1040
1.0
1070
    74
1070
     0
1000
MTEXTEND
  0
LINE
  5
1574
  8
250
  6
CONTINUOUS
 10
125.5429719833333
 20
4.0199999999999987
 30
0.0
 11
125.91463865
 21
6.25
 31
0.0
  0
LINE
  5
1575
  8
250
  6
CONTINUOUS
 10
126.2863053166666
 20
4.0199999999999987
 30
0.0
 11
125.91463865
 21
6.25
 31
0.0
  0
LINE
  5
1576
  8
250
  6
CONTINUOUS
 10
125.91463865
 20
6.25
 30
0.0
 11
125.91463865
 21
4.0199999999999987
 31
0.0
  0
TEXT
  5
1577
  8
250
  6
CONTINUOUS
 10
132.0
 20
-3.9333333333333318
 30
0.0
 40
2.799999999999998
  1
\U+220530
 50
90.0
1001
ACAD
1000
MTEXTBEGIN
1070
    73
1070
     1
1070
    44
1040
1.0
1070
    74
1070
     0
1000
MTEXTEND
  0
LINE
  5
1578
  8
250
  6
CONTINUOUS
 10
132.6666666666666
 20
13.0
 30
0.0
 11
133.0
 21
15.0
 31
0.0
  0
LINE
  5
1579
  8
250
  6
CONTINUOUS
 10
133.33333333333329
 20
13.0
 30
0.0
 11
133.0
 21
15.0
 31
0.0
  0
LINE
  5
157A
  8
250
  6
CONTINUOUS
 10
133.0
 20
15.0
 30
0.0
 11
133.0
 21
13.0
 31
0.0
  0
LINE
  5
157B
  8
250
  6
CONTINUOUS
 10
133.33333333333329
 20
-13.0
 30
0.0
 11
133.0
 21
-15.0
 31
0.0
  0
LINE
  5
157C
  8
250
  6
CONTINUOUS
 10
132.6666666666666
 20
-13.0
 30
0.0
 11
133.0
 21
-15.0
 31
0.0
  0
LINE
  5
157D
  8
250
  6
CONTINUOUS
 10
133.0
 20
-15.0
 30
0.0
 11
133.0
 21
-13.0
 31
0.0
  0
POLYLINE
  5
157F
  8
250
  6
CONTINUOUS
 66
     1
 10
0.0
 20
0.0
 30
0.0
1001
ACAD
1000
DSTYLE
1002
{
1070
     6
1000
OPEN
1070
    41
1040
2.0
1070
    42
1040
2.0
1070
    44
1040
2.0
1070
   140
1040
4.0
1070
   343
1005
594
1002
}
  0
VERTEX
  5
1A68
  8
250
  6
CONTINUOUS
 10
85.244200553901564
 20
8.9324373622689848
 30
0.0
  0
VERTEX
  5
1A69
  8
250
  6
CONTINUOUS
 10
94.760617011673219
 20
28.061851390000001
 30
0.0
  0
SEQEND
  5
1A6A
  8
250
  6
CONTINUOUS
  0
TEXT
  5
1580
  8
250
  6
CONTINUOUS
 10
97.187283678339895
 20
29.061851390000001
 30
0.0
 40
2.799999999999998
  1
□10
  7
YOKO
1001
ITEMNAME
1000
LNSP3
1001
ACAD
1000
MTEXTBEGIN
1070
    73
1070
     1
1070
    44
1040
1.0
1070
    74
1070
     0
1000
MTEXTEND
1000
MTEXTBEGIN
1070
    73
1070
     1
1070
    44
1040
1.0
1070
    74
1070
     0
1000
MTEXTEND
1000
MTEXTBEGIN
1070
    73
1070
     1
1070
    44
1040
1.0
1070
    74
1070
     0
1000
MTEXTEND
1000
MTEXTBEGIN
1070
    73
1070
     1
1070
    44
1040
1.0
1070
    74
1070
     0
1000
MTEXTEND
1000
MTEXTBEGIN
1070
    73
1070
     1
1070
    44
1040
1.0
1070
    74
1070
     0
1000
MTEXTEND
1000
MTEXTBEGIN
1070
    73
1070
     1
1070
    44
1040
1.0
1070
    74
1070
     0
1000
MTEXTEND
1000
MTEXTBEGIN
1070
    73
1070
     1
1070
    44
1040
1.0
1070
    74
1070
     0
1000
MTEXTEND
1000
MTEXTBEGIN
1070
    73
1070
     1
1070
    44
1040
1.0
1070
    74
1070
     0
1000
MTEXTEND
1000
MTEXTBEGIN
1070
    73
1070
     1
1070
    44
1040
1.0
1070
    74
1070
     0
1000
MTEXTEND
  0
TEXT
  5
1581
  8
250
  6
CONTINUOUS
 10
51.983608183426497
 20
36.0
 30
0.0
 40
2.799999999999998
  1
115
1001
ACAD
1000
MTEXTBEGIN
1070
    73
1070
     1
1070
    44
1040
1.0
1070
    74
1070
     0
1000
MTEXTEND
  0
LINE
  5
1582
  8
250
  6
CONTINUOUS
 10
112.77
 20
35.37166666666667
 30
0.0
 11
115.0
 21
35.0
 31
0.0
  0
LINE
  5
1583
  8
250
  6
CONTINUOUS
 10
112.77
 20
34.62833333333333
 30
0.0
 11
115.0
 21
35.0
 31
0.0
  0
LINE
  5
1584
  8
250
  6
CONTINUOUS
 10
115.0
 20
35.0
 30
0.0
 11
112.77
 21
35.0
 31
0.0
  0
LINE
  5
1585
  8
250
  6
CONTINUOUS
 10
2.2299999999999991
 20
34.62833333333333
 30
0.0
 11
0.0
 21
35.0
 31
0.0
  0
LINE
  5
1586
  8
250
  6
CONTINUOUS
 10
2.2299999999999991
 20
35.37166666666667
 30
0.0
 11
0.0
 21
35.0
 31
0.0
  0
LINE
  5
1587
  8
250
  6
CONTINUOUS
 10
0.0
 20
35.0
 30
0.0
 11
2.2299999999999991
 21
35.0
 31
0.0
  0
LINE
  5
1588
  8
250
  6
CONTINUOUS
 10
85.542643699279765
 20
8.7839691835642562
 30
0.0
 11
84.353391481673199
 21
7.1417784900000001
 31
0.0
  0
LINE
  5
1589
  8
250
  6
CONTINUOUS
 10
84.94575740852342
 20
9.0809055409737116
 30
0.0
 11
84.353391481673199
 21
7.1417784900000001
 31
0.0
  0
LINE
  5
158A
  8
250
  6
CONTINUOUS
 10
84.353391481673199
 20
7.1417784900000001
 30
0.0
 11
85.244200553901564
 21
8.9324373622689848
 31
0.0
  0
LINE
  5
15AE
  8
240
  6
CONTINUOUS
 10
-7.5
 20
15.0
 30
0.0
 11
-7.5
 21
19.000000010000001
 31
0.0
  0
LINE
  5
15AF
  8
240
  6
CONTINUOUS
 10
-7.5
 20
-15.0
 30
0.0
 11
-7.5
 21
-19.000000010000001
 31
0.0
  0
LINE
  5
15DA
  8
247
  6
CONTINUOUS
 10
5.2057713699999582
 20
-11.0
 30
0.0
 11
5.205771369999999
 21
-7.2923076925360242
 31
0.0
  0
LINE
  5
15DB
  8
247
  6
CONTINUOUS
 10
3.205771369999999
 20
-10.363914799990351
 30
0.0
 11
4.8857713699328027
 21
-10.84564704804588
 31
0.0
  0
LINE
  5
15DC
  8
247
  6
CONTINUOUS
 10
4.002694446891196
 20
-9.8601211228152223
 30
0.0
 11
4.002694446891196
 21
-10.592428815093619
 31
0.0
  0
ARC
  5
15DD
  8
247
  6
CONTINUOUS
 10
3.513546623835281
 20
-9.6698107215574396
 30
0.0
 40
0.3101372647461394
 50
72.997889675291987
 51
172.92416621851231
  0
ARC
  5
15DE
  8
247
  6
CONTINUOUS
 10
3.4499498748224151
 20
-9.9059820454432792
 30
0.0
 40
0.5546438372287014
 50
4.742936852201395
 51
73.849226273266424
1001
GENIUS_GENOBJ-N-FIL_13
1002
{
1000
OWNER
1000
GEN
1002
}
1001
GENIUS_GENODEF_13
1002
{
1000
HIER
1070
     0
1002
}
1002
{
1000
MANEDIT
1070
     0
1002
}
1002
{
1000
NOSEL
1070
     0
1002
}
1002
{
1000
BEHIND
1070
     0
1002
}
1002
{
1000
OTHER
1070
     0
1002
}
1002
{
1000
REACTOR
1002
}
  0
LINE
  5
15DF
  8
247
  6
CONTINUOUS
 10
4.8857713699328027
 20
-10.113339355767479
 30
0.0
 11
4.8857713699328027
 21
-10.84564704804588
 31
0.0
  0
LINE
  5
15E0
  8
247
  6
CONTINUOUS
 10
3.205771369999999
 20
-10.363914799990351
 30
0.0
 11
3.205771369999999
 21
-9.6316071077119556
 31
0.0
  0
ARC
  5
15E1
  8
247
  6
CONTINUOUS
 10
4.3157049402142951
 20
-9.9026451810134581
 30
0.0
 40
0.3158858408603088
 50
65.990941652528775
 51
172.26344345906949
  0
ARC
  5
15E2
  8
247
  6
CONTINUOUS
 10
4.318731631866056
 20
-10.16995728834153
 30
0.0
 40
0.5698593289889349
 50
5.7019851642581392
 51
77.27733843682222
1001
GENIUS_GENOBJ-N-FIL_13
1002
{
1000
OWNER
1000
GEN
1002
}
1001
GENIUS_GENODEF_13
1002
{
1000
HIER
1070
     0
1002
}
1002
{
1000
MANEDIT
1070
     0
1002
}
1002
{
1000
NOSEL
1070
     0
1002
}
1002
{
1000
BEHIND
1070
     0
1002
}
1002
{
1000
OTHER
1070
     0
1002
}
1002
{
1000
REACTOR
1002
}
  0
LINE
  5
15E3
  8
247
  6
CONTINUOUS
 10
4.8857713699328027
 20
-9.3471855096506911
 30
0.0
 11
3.205771369999999
 21
-8.8654532615951656
 31
0.0
  0
LINE
  5
15E4
  8
247
  6
CONTINUOUS
 10
3.205771369999999
 20
-7.6685301847263672
 30
0.0
 11
3.205771369999999
 21
-7.9853426914428622
 31
0.0
  0
LINE
  5
15E5
  8
247
  6
CONTINUOUS
 10
4.8857713699328027
 20
-8.4869917231551657
 30
0.0
 11
4.8857713699328027
 21
-8.1423763385535768
 31
0.0
  0
ARC
  5
15E6
  8
247
  6
CONTINUOUS
 10
4.3724110460666861
 20
-7.5054532616559682
 30
0.0
 40
1.261484046111637
 50
202.3594881415269
 51
254.99324854284609
  0
ARC
  5
15E7
  8
247
  6
CONTINUOUS
 10
3.6584264568305112
 20
-7.878009092906578
 30
0.0
 40
0.4987765437607558
 50
94.994589319075374
 51
155.16632895730359
1001
GENIUS_GENOBJ-N-FIL_13
1002
{
1000
OWNER
1000
GEN
1002
}
1001
GENIUS_GENODEF_13
1002
{
1000
HIER
1070
     0
1002
}
1002
{
1000
MANEDIT
1070
     0
1002
}
1002
{
1000
NOSEL
1070
     0
1002
}
1002
{
1000
BEHIND
1070
     0
1002
}
1002
{
1000
OTHER
1070
     0
1002
}
1002
{
1000
REACTOR
1002
}
  0
ARC
  5
15E8
  8
247
  6
CONTINUOUS
 10
4.1354530675755532
 20
-8.3553471608262164
 30
0.0
 40
0.7799577719285588
 50
15.8460965557799
 51
82.325137004169122
  0
ARC
  5
15E9
  8
247
  6
CONTINUOUS
 10
4.3029476915768541
 20
-8.0281693110177734
 30
0.0
 40
0.7417556510953607
 50
249.71360167049701
 51
321.78874565640962
1001
GENIUS_GENOBJ-N-FIL_13
1002
{
1000
OWNER
1000
GEN
1002
}
1001
GENIUS_GENODEF_13
1002
{
1000
HIER
1070
     0
1002
}
1002
{
1000
MANEDIT
1070
     0
1002
}
1002
{
1000
NOSEL
1070
     0
1002
}
1002
{
1000
BEHIND
1070
     0
1002
}
1002
{
1000
OTHER
1070
     0
1002
}
1002
{
1000
REACTOR
1002
}
  0
LINE
  5
15EA
  8
247
  6
CONTINUOUS
 10
4.23961752380478
 20
-7.9700686462527663
 30
0.0
 11
4.23961752380478
 21
-7.5823763385759699
 31
0.0
  0
ARC
  5
15EB
  8
247
  6
CONTINUOUS
 10
4.205771369999999
 20
-11.0
 30
0.0
 40
1.0
 50
180.0
 51
0.0
  0
LINE
  5
15EC
  8
247
  6
CONTINUOUS
 10
3.205771369999999
 20
-11.0
 30
0.0
 11
3.205771369999999
 21
-10.643076923131201
 31
0.0
  0
ARC
  5
15ED
  8
247
  6
CONTINUOUS
 10
4.205771369999999
 20
-7.2923076925360091
 30
0.0
 40
1.0
 50
0.0
 51
180.0
  0
LINE
  5
15F1
  8
243
  6
HIDDEN2
 10
93.0
 20
-6.25
 30
0.0
 11
115.0
 21
-6.25
 31
0.0
  0
LINE
  5
15F2
  8
243
  6
HIDDEN2
 10
93.0
 20
-7.1417784900000001
 30
0.0
 11
93.0
 21
7.1417784900000001
 31
0.0
  0
LINE
  5
15F4
  8
242
  6
HIDDEN2
 10
79.0
 20
-7.1417784900000001
 30
0.0
 11
93.0
 21
0.0
 31
0.0
  0
LINE
  5
15F5
  8
242
  6
HIDDEN2
 10
79.0
 20
0.0
 30
0.0
 11
93.0
 21
-7.1417784900000001
 31
0.0
  0
LINE
  5
15F6
  8
243
  6
HIDDEN2
 10
79.0
 20
-7.1417784900000001
 30
0.0
 11
79.0
 21
0.0
 31
0.0
  0
LINE
  5
15F7
  8
243
  6
HIDDEN2
 10
79.0
 20
-7.1417784900000001
 30
0.0
 11
93.0
 21
-7.1417784900000001
 31
0.0
  0
LINE
  5
167E
  8
250
  6
CONTINUOUS
 10
115.5
 20
-6.25
 30
0.0
 11
126.91463865
 21
-6.2500000000000009
 31
0.0
  0
LINE
  5
167F
  8
250
  6
CONTINUOUS
 10
125.5429719833333
 20
-4.0200000000000014
 30
0.0
 11
125.91463865
 21
-6.2500000000000009
 31
0.0
  0
LINE
  5
1680
  8
250
  6
CONTINUOUS
 10
126.2863053166666
 20
-4.0200000000000014
 30
0.0
 11
125.91463865
 21
-6.2500000000000009
 31
0.0
  0
VIEWPORT
  5
22
 67
     1
  8
0
 10
261.51769911999997
 20
148.5
 30
0.0
 40
523.03539823000006
 41
297.0
 68
     1
 69
     1
1001
ACAD
1000
MVIEW
1002
{
1070
    16
1010
0.0
1020
0.0
1030
0.0
1010
0.0
1020
0.0
1030
1.0
1040
0.0
1040
297.0
1040
261.51769911999997
1040
148.5
1040
50.0
1040
0.0
1040
0.0
1070
     0
1070
   100
1070
     1
1070
     1
1070
     0
1070
     0
1070
     0
1070
     0
1040
0.0
1040
0.0
1040
0.0
1040
1.0
1040
1.0
1040
10.0
1040
10.0
1070
     0
1002
{
1002
}
1002
}
1001
GENIUS_GENOBJ-N-SDF_13
1002
{
1000
OWNER
1000
GEN
1002
}
1001
GENIUS_GENODEF_13
1002
{
1000
HIER
1070
     0
1002
}
1002
{
1000
MANEDIT
1070
     0
1002
}
1002
{
1000
NOSEL
1070
     0
1002
}
1002
{
1000
BEHIND
1070
     0
1002
}
1002
{
1000
OTHER
1070
     0
1002
}
1002
{
1000
REACTOR
1002
}
1001
GENIUS_GENSCREG_15
1000
PF
1040
1.0
1000
DF
1040
1.0
1000
MIN
1011
0.0000000049999471
1021
0.0
1031
0.0
1021
0.0
1031
0.0
1000
MAX
1011
523.035398235
1021
0.0
1031
0.0
1021
297.0
1031
0.0
1000
FLAGS
1070
     4
  0
ENDSEC
  0
EOF
