  0
SECTION
  2
HEADER
  9
$ACADVER
  1
AC1009
  9
$INSBASE
 10
0.0
 20
0.0
 30
0.0
  9
$EXTMIN
 10
-70.01495247242849
 20
-19.50398104563271
 30
-0.0015258207003583
  9
$EXTMAX
 10
101.0169990605407
 20
54.002085604381698
 30
0.0000000349246037
  9
$LIMMIN
 10
0.0
 20
0.0
  9
$LIMMAX
 10
420.0
 20
297.0
  9
$ORTHOMODE
 70
     1
  9
$REGENMODE
 70
     1
  9
$FILLMODE
 70
     1
  9
$QTEXTMODE
 70
     0
  9
$MIRRTEXT
 70
     1
  9
$DRAGMODE
 70
     2
  9
$LTSCALE
 40
10.0
  9
$OSMODE
 70
    55
  9
$ATTMODE
 70
     1
  9
$TEXTSIZE
 40
3.0
  9
$TRACEWID
 40
1.0
  9
$TEXTSTYLE
  7
YOKO
  9
$CLAYER
  8
240
  9
$CELTYPE
  6
BYLAYER
  9
$CECOLOR
 62
   256
  9
$DIMSCALE
 40
1.0
  9
$DIMASZ
 40
2.0
  9
$DIMEXO
 40
2.0
  9
$DIMDLI
 40
2.5
  9
$DIMRND
 40
0.0
  9
$DIMDLE
 40
0.0
  9
$DIMEXE
 40
2.0
  9
$DIMTP
 40
0.0
  9
$DIMTM
 40
0.0
  9
$DIMTXT
 40
4.0
  9
$DIMCEN
 40
0.0
  9
$DIMTSZ
 40
0.0
  9
$DIMTOL
 70
     0
  9
$DIMLIM
 70
     0
  9
$DIMTIH
 70
     0
  9
$DIMTOH
 70
     0
  9
$DIMSE1
 70
     0
  9
$DIMSE2
 70
     0
  9
$DIMTAD
 70
     3
  9
$DIMZIN
 70
     8
  9
$DIMBLK
  1

  9
$DIMASO
 70
     1
  9
$DIMSHO
 70
     1
  9
$DIMPOST
  1

  9
$DIMAPOST
  1

  9
$DIMALT
 70
     0
  9
$DIMALTD
 70
     2
  9
$DIMALTF
 40
25.399999999999999
  9
$DIMLFAC
 40
1.0
  9
$DIMTOFL
 70
     1
  9
$DIMTVP
 40
0.0
  9
$DIMTIX
 70
     1
  9
$DIMSOXD
 70
     0
  9
$DIMSAH
 70
     1
  9
$DIMBLK1
  1
OPEN
  9
$DIMBLK2
  1
OPEN
  9
$DIMSTYLE
  2
BIGT
  9
$DIMCLRD
 70
   256
  9
$DIMCLRE
 70
   256
  9
$DIMCLRT
 70
    40
  9
$DIMTFAC
 40
1.0
  9
$DIMGAP
 40
1.0
  9
$LUNITS
 70
     2
  9
$LUPREC
 70
     3
  9
$SKETCHINC
 40
1.0
  9
$FILLETRAD
 40
0.0
  9
$AUNITS
 70
     0
  9
$AUPREC
 70
     3
  9
$MENU
  1
.
  9
$ELEVATION
 40
0.0
  9
$PELEVATION
 40
0.0
  9
$THICKNESS
 40
0.0
  9
$LIMCHECK
 70
     0
  9
$BLIPMODE
 70
     0
  9
$CHAMFERA
 40
10.0
  9
$CHAMFERB
 40
10.0
  9
$SKPOLY
 70
     0
  9
$TDCREATE
 40
2455128.589352211
  9
$TDUPDATE
 40
2457791.5870297109
  9
$TDINDWG
 40
0.0347627431
  9
$TDUSRTIMER
 40
0.0347627083
  9
$USRTIMER
 70
     1
  9
$ANGBASE
 50
0.0
  9
$ANGDIR
 70
     0
  9
$PDMODE
 70
     1
  9
$PDSIZE
 40
-5.0
  9
$PLINEWID
 40
0.0
  9
$COORDS
 70
     1
  9
$SPLFRAME
 70
     0
  9
$SPLINETYPE
 70
     6
  9
$SPLINESEGS
 70
     8
  9
$ATTDIA
 70
     1
  9
$ATTREQ
 70
     1
  9
$HANDLING
 70
     1
  9
$HANDSEED
  5
1F5B
  9
$SURFTAB1
 70
     6
  9
$SURFTAB2
 70
     6
  9
$SURFTYPE
 70
     6
  9
$SURFU
 70
     6
  9
$SURFV
 70
     6
  9
$UCSNAME
  2

  9
$UCSORG
 10
0.0
 20
0.0
 30
0.0
  9
$UCSXDIR
 10
1.0
 20
0.0
 30
0.0
  9
$UCSYDIR
 10
0.0
 20
1.0
 30
0.0
  9
$PUCSNAME
  2

  9
$PUCSORG
 10
0.0
 20
0.0
 30
0.0
  9
$PUCSXDIR
 10
1.0
 20
0.0
 30
0.0
  9
$PUCSYDIR
 10
0.0
 20
1.0
 30
0.0
  9
$USERI1
 70
     1
  9
$USERI2
 70
     0
  9
$USERI3
 70
     0
  9
$USERI4
 70
     0
  9
$USERI5
 70
     0
  9
$USERR1
 40
0.0
  9
$USERR2
 40
0.0
  9
$USERR3
 40
0.0
  9
$USERR4
 40
0.0
  9
$USERR5
 40
0.0
  9
$WORLDVIEW
 70
     1
  9
$SHADEDGE
 70
     3
  9
$SHADEDIF
 70
    70
  9
$TILEMODE
 70
     1
  9
$MAXACTVP
 70
    16
  9
$PLIMCHECK
 70
     0
  9
$PEXTMIN
 10
1.0000000000000000E+020
 20
1.0000000000000000E+020
 30
1.0000000000000000E+020
  9
$PEXTMAX
 10
-1.0000000000000000E+020
 20
-1.0000000000000000E+020
 30
-1.0000000000000000E+020
  9
$PLIMMIN
 10
0.0
 20
0.0
  9
$PLIMMAX
 10
420.0
 20
297.0
  9
$UNITMODE
 70
     0
  9
$VISRETAIN
 70
     0
  9
$PLINEGEN
 70
     0
  9
$PSLTSCALE
 70
     1
  0
ENDSEC
  0
SECTION
  2
TABLES
  0
TABLE
  2
VPORT
 70
     1
  0
VPORT
  2
*ACTIVE
 70
     0
 10
0.0
 20
0.0
 11
1.0
 21
1.0
 12
15.5010232940561
 22
17.249052279374489
 13
0.0
 23
0.0
 14
7.0
 24
7.0
 15
7.0
 25
7.0
 16
0.0
 26
0.0
 36
1.0
 17
0.0
 27
0.0
 37
0.0
 40
119.5621196559274
 41
1.4370208105147859
 42
50.0
 43
0.0
 44
0.0
 50
0.0
 51
0.0
 71
     0
 72
  2000
 73
     1
 74
     0
 75
     0
 76
     1
 77
     0
 78
     0
  0
ENDTAB
  0
TABLE
  2
LTYPE
 70
    16
  0
LTYPE
  2
CONTINUOUS
 70
     0
  3
Solid line
 72
    65
 73
     0
 40
0.0
  0
LTYPE
  2
CENTER2
 70
     0
  3
___ _ ___ _ ___ _ ___ _ ___ _ ___ _ ___ _ ___ _
 72
    65
 73
     4
 40
1.125
 49
0.75
 49
-0.125
 49
0.125
 49
-0.125
  0
LTYPE
  2
HIDDEN2
 70
     0
  3
_ _ _ _ _ _ _ _ _ _ _ _ _ _ _ _ _ _ _ _ _ _ _ _
 72
    65
 73
     2
 40
0.1875
 49
0.125
 49
-0.0625
  0
LTYPE
  2
PHANTOM2
 70
     0
  3
___ _ _ ___ _ _ ___ _ _ ___ _ _ ___ _ _ ___ _ _
 72
    65
 73
     6
 40
1.25
 49
0.625
 49
-0.125
 49
0.125
 49
-0.125
 49
0.125
 49
-0.125
  0
LTYPE
  2
AMCONSTR
 70
     0
  3
_______________________
 72
    65
 73
     2
 40
9999.0
 49
9999.0
 49
0.0
  0
LTYPE
  2
HIDDEN
 70
     0
  3
Hidden __ __ __ __ __ __ __ __ __ __ __ __ __ _
 72
    65
 73
     2
 40
0.375
 49
0.25
 49
-0.125
  0
LTYPE
  2
CENTER
 70
     0
  3
Center ____ _ ____ _ ____ _ ____ _ ____ _ ____
 72
    65
 73
     4
 40
2.0
 49
1.25
 49
-0.25
 49
0.25
 49
-0.25
  0
LTYPE
  2
AMZIGZAG2
 70
     0
  3
/\/-/\/-/\/-/\/-/\/-/\/
 72
    65
 73
     2
 40
0.4401
 49
0.0001
 49
-0.4400000000000002
  0
LTYPE
  2
ACANSTGB
 70
     0
  3
__ . . __ . .
 72
    65
 73
     6
 40
0.35433070866
 49
0.15748031496
 49
-0.03937007874
 49
0.03937007874
 49
-0.03937007874
 49
0.03937007874
 49
-0.03937007874
  0
LTYPE
  2
ACANSTGL
 70
     0
  3
_ _ _ _ _
 72
    65
 73
     2
 40
0.11811023622
 49
0.07874015748
 49
-0.03937007874
  0
LTYPE
  2
AM_ISO02W050
 70
     0
  3
__ __ __ __ __ __ __ __ __ __ __ __ __ __ __
 72
    65
 73
     2
 40
7.5
 49
6.0
 49
-1.5
  0
LTYPE
  2
AM_ISO08W050
 70
     0
  3
____ . ____ . ____ . ____ . ____ . ____ . ____
 72
    65
 73
     4
 40
18.0
 49
12.0
 49
-1.5
 49
3.0
 49
-1.5
  0
LTYPE
  2
AM_ISO09W050
 70
     0
  3
_____ . . _____ . . _____ . . ____ .. ____
 72
    65
 73
     6
 40
22.5
 49
12.0
 49
-1.5
 49
3.0
 49
-1.5
 49
3.0
 49
-1.5
  0
LTYPE
  2
AM_ISO08W050X2
 70
     0
  3
__ . __ . __ . __ . __ . __
 72
    65
 73
     4
 40
9.0
 49
6.0
 49
-0.75
 49
1.5
 49
-0.75
  0
LTYPE
  2
AM_ISO02W050X2
 70
     0
  3
 _ _ _ _ _ _ _ _ _ _ _ _
 72
    65
 73
     2
 40
3.75
 49
3.0
 49
-0.75
  0
LTYPE
  2
AMZIGZAG
 70
     0
  3
/\/-/\/-/\/-/\/-/\/-/\/
 72
    65
 73
     2
 40
11.0001
 49
0.0001
 49
-11.0
  0
ENDTAB
  0
TABLE
  2
LAYER
 70
     9
  0
LAYER
  2
0
 70
     0
 62
     7
  6
CONTINUOUS
  0
LAYER
  2
240
 70
     0
 62
     4
  6
CONTINUOUS
  0
LAYER
  2
241
 70
     0
 62
   211
  6
CONTINUOUS
  0
LAYER
  2
242
 70
     0
 62
     3
  6
CONTINUOUS
  0
LAYER
  2
245
 70
     0
 62
     2
  6
CENTER2
  0
LAYER
  2
250
 70
     0
 62
     3
  6
CONTINUOUS
  0
LAYER
  2
DEFPOINTS
 70
     0
 62
     7
  6
CONTINUOUS
  0
LAYER
  2
247
 70
     0
 62
    60
  6
CONTINUOUS
  0
LAYER
  2
243
 70
     0
 62
   211
  6
HIDDEN2
  0
ENDTAB
  0
TABLE
  2
STYLE
 70
     6
  0
STYLE
  2
STANDARD
 70
     0
 40
0.0
 41
1.0
 50
0.0
 71
     0
 42
3.0
  3
romans.shx
  4
BIGFONT.SHX
  0
STYLE
  2
ANNOTATIVE
 70
     0
 40
0.0
 41
1.0
 50
0.0
 71
     0
 42
0.2
  3
txt
  4

  0
STYLE
  2
YOKO
 70
     0
 40
0.0
 41
1.0
 50
0.0
 71
     0
 42
3.0
  3
romans.shx
  4
extfont.shx
  0
STYLE
  2

 70
     1
 40
0.0
 41
1.0
 50
0.0
 71
     0
 42
3.0
  3
genltshp.shx
  4

  0
STYLE
  2
ACANSGDT
 70
     0
 40
0.0
 41
1.0
 50
0.0
 71
     0
 42
3.0
  3
amgdt.shx
  4

  0
STYLE
  2
ACANSTS
 70
     0
 40
0.0
 41
1.0
 50
0.0
 71
     0
 42
3.0
  3
romans.shx
  4
extfont.shx
  0
ENDTAB
  0
TABLE
  2
VIEW
 70
     0
  0
ENDTAB
  0
TABLE
  2
UCS
 70
     0
  0
ENDTAB
  0
TABLE
  2
APPID
 70
    45
  0
APPID
  2
ACAD
 70
     0
  0
APPID
  2
ACADANNOTATIVE
 70
     0
  0
APPID
  2
GLOBAL
 70
     0
  0
APPID
  2
DETAIL
 70
     0
  0
APPID
  2
GRPNAME
 70
     0
  0
APPID
  2
GPARA
 70
     0
  0
APPID
  2
DCO15
 70
     0
  0
APPID
  2
ITEMNAME
 70
     0
  0
APPID
  2
GRADE_0
 70
     0
  0
APPID
  2
GENIUS_GENODEF_13
 70
     0
  0
APPID
  2
GENIUS_GENOREF_13
 70
     0
  0
APPID
  2
GENIUS_GENOBJ-N-FIL_13
 70
     0
  0
APPID
  2
HATCH_TYPE
 70
     0
  0
APPID
  2
HATCH_DISPLAY
 70
     0
  0
APPID
  2
HATCH_DISTANCE
 70
     0
  0
APPID
  2
CONTENTBLOCKICON
 70
     0
  0
APPID
  2
MCAD_NO_VIS
 70
     0
  0
APPID
  2
ACAD_TEMP_GRAPHIC
 70
     0
  0
APPID
  2
ACATTRIBSERVICES
 70
     0
  0
APPID
  2
GENIUS_GENSCREG_15
 70
     0
  0
APPID
  2
GENIUS_GENOBJ-N-SDF_13
 70
     0
  0
APPID
  2
GENIUS_GENREC_14
 70
     0
  0
APPID
  2
GENIUS_GENOBJ-N-REC_13
 70
     0
  0
APPID
  2
GENIUS_GENDIMSH_14
 70
     0
  0
APPID
  2
GENIUS_GENOBJ-N-DIM_13
 70
     0
  0
APPID
  2
GENIUS_GENDIM_13
 70
     0
  0
APPID
  2
GENIUS_GENDTOL_13
 70
     0
  0
APPID
  2
GENIUS_GENOLIS_13
 70
     0
  0
APPID
  2
GENIUS_GENOENT_13
 70
     0
  0
APPID
  2
GENIUS_GENOBJ-F-FEM_13
 70
     0
  0
APPID
  2
GENIUS_GEFFEM_13
 70
     0
  0
APPID
  2
GENIUS_GEFFEMP_13
 70
     0
  0
APPID
  2
AD_DRAW
 70
     0
  0
APPID
  2
DESIGNERASSEMBLIES
 70
     0
  0
APPID
  2
ACADM_DIM_EDIT
 70
     0
  0
APPID
  2
AMDT_DM_ADJ
 70
     0
  0
APPID
  2
GENIUS_GENFIL_13
 70
     0
  0
APPID
  2
GENIUS_GENOBJ-N-CHA_13
 70
     0
  0
APPID
  2
ACAD_NAV_VCDISPLAY
 70
     0
  0
APPID
  2
ACAD_EXEMPT_FROM_CAD_STANDARDS
 70
     0
  0
APPID
  2
ACAECLAYERSTANDARD
 70
     0
  0
APPID
  2
ACAD_DSTYLE_DIMINSPECT
 70
     0
  0
APPID
  2
ACAD_DSTYLE_DIMJAG
 70
     0
  0
APPID
  2
ACAD_DSTYLE_DIMBREAK
 70
     0
  0
APPID
  2
ACAD_MLEADERVER
 70
     0
  0
ENDTAB
  0
TABLE
  2
DIMSTYLE
 70
     9
  0
DIMSTYLE
  2
STANDARD
 70
     0
  3

  4

  5

  6

  7

 40
1.0
 41
0.18
 42
0.0625
 43
0.38
 44
0.18
 45
0.0
 46
0.0
 47
0.0
 48
0.0
140
0.18
141
0.09
142
0.0
143
25.399999999999999
144
1.0
145
0.0
146
1.0
147
0.09
 71
     0
 72
     0
 73
     1
 74
     1
 75
     0
 76
     0
 77
     0
 78
     0
170
     0
171
     2
172
     0
173
     0
174
     0
175
     0
176
     0
177
     0
178
     0
  0
DIMSTYLE
  2
ANNOTATIVE
 70
     0
  3

  4

  5

  6

  7

 40
1.0
 41
0.18
 42
0.0625
 43
0.38
 44
0.18
 45
0.0
 46
0.0
 47
0.0
 48
0.0
140
0.18
141
0.09
142
0.0
143
25.399999999999999
144
1.0
145
0.0
146
1.0
147
0.09
 71
     0
 72
     0
 73
     1
 74
     1
 75
     0
 76
     0
 77
     0
 78
     0
170
     0
171
     2
172
     0
173
     0
174
     0
175
     0
176
     0
177
     0
178
     0
  0
DIMSTYLE
  2
BIGT
 70
     0
  3

  4

  5

  6

  7

 40
1.0
 41
2.2299999999999991
 42
0.5
 43
7.0
 44
1.0
 45
0.0
 46
0.0
 47
0.0
 48
0.01
140
2.799999999999998
141
0.0
142
0.0
143
25.399999999999999
144
1.0
145
0.0
146
1.0
147
1.0
 71
     0
 72
     0
 73
     0
 74
     0
 75
     0
 76
     0
 77
     3
 78
     9
170
     0
171
     2
172
     1
173
     0
174
     1
175
     0
176
   256
177
   256
178
    40
  0
DIMSTYLE
  2
AM_ANSI
 70
     0
  3

  4
mm
  5

  6

  7

 40
1.0
 41
0.12
 42
0.05
 43
0.5
 44
0.1
 45
0.0
 46
0.0
 47
0.1
 48
0.1
140
0.12
141
0.0
142
0.0
143
25.399999999999999
144
1.0
145
0.0
146
0.71
147
0.06
 71
     0
 72
     0
 73
     1
 74
     1
 75
     0
 76
     0
 77
     0
 78
     7
170
     0
171
     2
172
     0
173
     0
174
     0
175
     0
176
   256
177
   256
178
     2
  0
DIMSTYLE
  2
AM_ANSI$3
 70
     0
  3

  4
mm
  5

  6

  7

 40
1.0
 41
0.12
 42
0.05
 43
0.5
 44
0.1
 45
0.0
 46
0.0
 47
0.1
 48
0.1
140
0.12
141
0.0
142
0.0
143
25.399999999999999
144
1.0
145
0.0
146
0.71
147
0.06
 71
     0
 72
     0
 73
     1
 74
     1
 75
     0
 76
     0
 77
     0
 78
     7
170
     0
171
     2
172
     0
173
     0
174
     0
175
     0
176
   256
177
   256
178
     2
  0
DIMSTYLE
  2
AM_ANSI$4
 70
     0
  3

  4
mm
  5

  6

  7

 40
1.0
 41
0.12
 42
0.05
 43
0.5
 44
0.1
 45
0.0
 46
0.0
 47
0.1
 48
0.1
140
0.12
141
0.0
142
0.0
143
25.399999999999999
144
1.0
145
0.0
146
0.71
147
0.06
 71
     0
 72
     0
 73
     1
 74
     1
 75
     0
 76
     0
 77
     0
 78
     7
170
     0
171
     2
172
     0
173
     0
174
     0
175
     0
176
   256
177
   256
178
     2
  0
DIMSTYLE
  2
AM_ANSI$7
 70
     0
  3

  4
mm
  5

  6

  7

 40
1.0
 41
0.12
 42
0.05
 43
0.5
 44
0.1
 45
0.0
 46
0.0
 47
0.1
 48
0.1
140
0.12
141
0.0
142
0.0
143
25.399999999999999
144
1.0
145
0.0
146
0.71
147
0.06
 71
     0
 72
     0
 73
     1
 74
     1
 75
     0
 76
     0
 77
     0
 78
     7
170
     0
171
     2
172
     0
173
     0
174
     0
175
     0
176
   256
177
   256
178
     2
  0
DIMSTYLE
  2
AM_ANSI$SF
 70
     0
  3

  4
mm
  5

  6

  7

 40
1.0
 41
0.12
 42
0.05
 43
0.5
 44
0.1
 45
0.0
 46
0.0
 47
0.1
 48
0.1
140
0.12
141
0.0
142
0.0
143
25.399999999999999
144
1.0
145
0.0
146
0.71
147
0.06
 71
     0
 72
     0
 73
     1
 74
     1
 75
     1
 76
     1
 77
     0
 78
     7
170
     0
171
     2
172
     0
173
     0
174
     0
175
     0
176
   256
177
   256
178
     2
  0
DIMSTYLE
  2
AM_ANSI$SH
 70
     0
  3

  4
mm
  5

  6

  7

 40
1.0
 41
0.12
 42
0.05
 43
0.5
 44
0.1
 45
0.0
 46
0.0
 47
0.1
 48
0.1
140
0.12
141
0.0
142
0.0
143
25.399999999999999
144
1.0
145
0.0
146
0.71
147
0.06
 71
     0
 72
     0
 73
     1
 74
     1
 75
     1
 76
     1
 77
     0
 78
     7
170
     0
171
     2
172
     0
173
     1
174
     0
175
     0
176
   256
177
   256
178
     2
  0
ENDTAB
  0
ENDSEC
  0
SECTION
  2
BLOCKS
  0
BLOCK
  8
0
  2
$MODEL_SPACE
 70
     0
 10
0.0
 20
0.0
 30
0.0
  3
$MODEL_SPACE
  1

  0
ENDBLK
  5
1E22
  8
0
  0
BLOCK
 67
     1
  8
0
  2
$PAPER_SPACE
 70
     0
 10
0.0
 20
0.0
 30
0.0
  3
$PAPER_SPACE
  1

  0
ENDBLK
  5
1E1E
 67
     1
  8
0
  0
BLOCK
  8
0
  2
_OPEN
 70
     0
 10
0.0
 20
0.0
 30
0.0
  3
_OPEN
  1

  0
LINE
  5
1AC0
  8
0
  6
BYBLOCK
 62
     0
 10
-1.0
 20
0.1666666666666666
 30
0.0
 11
0.0
 21
0.0
 31
0.0
  0
LINE
  5
1AC1
  8
0
  6
BYBLOCK
 62
     0
 10
-1.0
 20
-0.1666666666666666
 30
0.0
 11
0.0
 21
0.0
 31
0.0
  0
LINE
  5
1AC2
  8
0
  6
BYBLOCK
 62
     0
 10
0.0
 20
0.0
 30
0.0
 11
-1.0
 21
0.0
 31
0.0
  0
ENDBLK
  5
1AC3
  8
0
  0
BLOCK
  8
0
  2
矢印なし
 70
     0
 10
0.0
 20
0.0
 30
0.0
  3
矢印なし
  1

  0
ENDBLK
  5
6E5
  8
0
  0
BLOCK
  8
0
  2
GENAXEH
 70
     0
 10
0.0
 20
0.0
 30
0.0
  3
GENAXEH
  1

  0
LINE
  5
1AFB
  8
0
 10
-1.0
 20
0.0
 30
0.0
 11
1.0
 21
0.0
 31
0.0
  0
ENDBLK
  5
1AFC
  8
0
  0
BLOCK
  8
0
  2
*U5
 70
     1
 10
0.0
 20
0.0
 30
0.0
  3
*U5
  1

  0
TEXT
  5
1BC3
  8
250
 10
91.999999999999986
 20
-4.810210177602829
 30
0.0
 40
2.799999999999998
  1
\U+22058.5
 50
90.0
  0
ENDBLK
  5
1BC5
  8
0
  0
BLOCK
  8
0
  2
_ACMFILLEDHALF
 70
     0
 10
0.0
 20
0.0
 30
0.0
  3
_ACMFILLEDHALF
  1

  0
TRACE
  5
1D07
  8
240
 62
     0
 10
-0.8
 20
0.0
 30
0.0
 11
-1.0
 21
0.166666666
 31
0.0
 12
0.0
 22
0.0
 32
0.0
 13
0.0
 23
0.0
 33
0.0
  0
LINE
  5
1D08
  8
240
 62
     0
 10
-1.0
 20
0.0
 30
0.0
 11
-0.8
 21
0.0
 31
0.0
  0
ENDBLK
  5
1D06
  8
0
  0
ENDSEC
  0
SECTION
  2
ENTITIES
  0
INSERT
  5
6E6
  8
245
  2
矢印なし
 10
175.62382697000001
 20
90.551235719999994
 30
0.0
  0
INSERT
  5
8D9
  8
245
  2
矢印なし
 10
350.62382696999998
 20
244.55123571999999
 30
0.0
  0
INSERT
  5
8DA
  8
245
  2
矢印なし
 10
525.62382696999975
 20
377.55123572000002
 30
0.0
  0
INSERT
  5
8DB
  8
245
  2
矢印なし
 10
679.62382696999987
 20
524.55123571999991
 30
0.0
  0
TEXT
  5
8DC
  8
241
  6
CONTINUOUS
 10
-69.0
 20
49.0
 30
0.0
 40
5.0
  1
MGT20-M12-85
  7
YOKO
 11
-69.0
 21
49.0
 31
0.0
 73
     1
  0
LINE
  5
1262
  8
250
  6
CONTINUOUS
 10
83.793129614944093
 20
28.046058519999999
 30
0.0
 11
68.939796284944109
 21
28.046058519999999
 31
0.0
1001
ITEMNAME
1000
LNSP2
  0
LINE
  5
1580
  8
250
  6
CONTINUOUS
 10
0.0
 20
20.0
 30
0.0
 11
0.0
 21
36.0
 31
0.0
  0
LINE
  5
1581
  8
250
  6
CONTINUOUS
 10
85.0
 20
15.5
 30
0.0
 11
85.0
 21
36.0
 31
0.0
  0
LINE
  5
1582
  8
250
  6
CONTINUOUS
 10
2.2299999999999991
 20
35.0
 30
0.0
 11
82.770000000000024
 21
35.0
 31
0.0
  0
TEXT
  5
1587
  8
250
  6
CONTINUOUS
 10
71.366462951610771
 20
29.046058519999999
 30
0.0
 40
2.799999999999998
  1
□6.5
  7
YOKO
1001
ITEMNAME
1000
LNSP3
1001
ACAD
1000
MTEXTBEGIN
1070
    73
1070
     1
1070
    44
1040
1.0
1070
    74
1070
     0
1000
MTEXTEND
1000
MTEXTBEGIN
1070
    73
1070
     1
1070
    44
1040
1.0
1070
    74
1070
     0
1000
MTEXTEND
1000
MTEXTBEGIN
1070
    73
1070
     1
1070
    44
1040
1.0
1070
    74
1070
     0
1000
MTEXTEND
1000
MTEXTBEGIN
1070
    73
1070
     1
1070
    44
1040
1.0
1070
    74
1070
     0
1000
MTEXTEND
1000
MTEXTBEGIN
1070
    73
1070
     1
1070
    44
1040
1.0
1070
    74
1070
     0
1000
MTEXTEND
1000
MTEXTBEGIN
1070
    73
1070
     1
1070
    44
1040
1.0
1070
    74
1070
     0
1000
MTEXTEND
1000
MTEXTBEGIN
1070
    73
1070
     1
1070
    44
1040
1.0
1070
    74
1070
     0
1000
MTEXTEND
1000
MTEXTBEGIN
1070
    73
1070
     1
1070
    44
1040
1.0
1070
    74
1070
     0
1000
MTEXTEND
  0
LINE
  5
158A
  8
250
  6
CONTINUOUS
 10
85.5
 20
4.25
 30
0.0
 11
94.0
 21
4.25
 31
0.0
  0
LINE
  5
158B
  8
250
  6
CONTINUOUS
 10
93.0
 20
-4.25
 30
0.0
 11
93.0
 21
2.02
 31
0.0
  0
INSERT
  5
158C
  8
250
  6
CONTINUOUS
  2
矢印なし
 10
43.0
 20
-4.25
 30
0.0
 41
2.2299999999999991
 42
2.2299999999999991
 43
2.2299999999999991
 50
270.0
  0
INSERT
  5
158E
  8
240
  2
*U5
 10
0.0
 20
0.0
 30
0.0
  0
LINE
  5
158F
  8
250
  6
CONTINUOUS
 10
85.5
 20
-15.0
 30
0.0
 11
101.0
 21
-15.0
 31
0.0
  0
LINE
  5
1590
  8
250
  6
CONTINUOUS
 10
85.5
 20
15.0
 30
0.0
 11
101.0
 21
15.0
 31
0.0
  0
LINE
  5
1591
  8
250
  6
CONTINUOUS
 10
100.0
 20
-13.0
 30
0.0
 11
100.0
 21
13.0
 31
0.0
  0
LINE
  5
1595
  8
250
  6
CONTINUOUS
 10
92.628333333333316
 20
2.02
 30
0.0
 11
93.0
 21
4.25
 31
0.0
  0
LINE
  5
1596
  8
250
  6
CONTINUOUS
 10
93.371666666666641
 20
2.02
 30
0.0
 11
93.0
 21
4.25
 31
0.0
  0
LINE
  5
1597
  8
250
  6
CONTINUOUS
 10
93.0
 20
4.25
 30
0.0
 11
93.0
 21
2.02
 31
0.0
  0
TEXT
  5
1598
  8
250
  6
CONTINUOUS
 10
99.0
 20
-3.9333333333333309
 30
0.0
 40
2.799999999999998
  1
\U+220530
 50
90.0
1001
ACAD
1000
MTEXTBEGIN
1070
    73
1070
     1
1070
    44
1040
1.0
1070
    74
1070
     0
1000
MTEXTEND
  0
LINE
  5
1599
  8
250
  6
CONTINUOUS
 10
99.666666666666643
 20
13.0
 30
0.0
 11
100.0
 21
15.0
 31
0.0
  0
LINE
  5
159A
  8
250
  6
CONTINUOUS
 10
100.3333333333333
 20
13.0
 30
0.0
 11
100.0
 21
15.0
 31
0.0
  0
LINE
  5
159B
  8
250
  6
CONTINUOUS
 10
100.0
 20
15.0
 30
0.0
 11
100.0
 21
13.0
 31
0.0
  0
LINE
  5
159C
  8
250
  6
CONTINUOUS
 10
100.3333333333333
 20
-13.0
 30
0.0
 11
100.0
 21
-15.0
 31
0.0
  0
LINE
  5
159D
  8
250
  6
CONTINUOUS
 10
99.666666666666643
 20
-13.0
 30
0.0
 11
100.0
 21
-15.0
 31
0.0
  0
LINE
  5
159E
  8
250
  6
CONTINUOUS
 10
100.0
 20
-15.0
 30
0.0
 11
100.0
 21
-13.0
 31
0.0
  0
LINE
  5
159F
  8
250
  6
CONTINUOUS
 10
62.303626269714691
 20
6.795526852638984
 30
0.0
 11
68.939796284944109
 21
28.046058519999999
 31
0.0
1001
ACAD
1000
DSTYLE
1002
{
1070
     6
1000
OPEN
1070
   343
1005
594
1002
}
  0
TEXT
  5
15A0
  8
250
  6
CONTINUOUS
 10
41.37059331471017
 20
36.0
 30
0.0
 40
2.799999999999998
  1
85
1001
ACAD
1000
MTEXTBEGIN
1070
    73
1070
     1
1070
    44
1040
1.0
1070
    74
1070
     0
1000
MTEXTEND
  0
LINE
  5
15A1
  8
250
  6
CONTINUOUS
 10
82.770000000000024
 20
35.37166666666667
 30
0.0
 11
85.0
 21
35.0
 31
0.0
  0
LINE
  5
15A2
  8
250
  6
CONTINUOUS
 10
82.770000000000024
 20
34.62833333333333
 30
0.0
 11
85.0
 21
35.0
 31
0.0
  0
LINE
  5
15A3
  8
250
  6
CONTINUOUS
 10
85.0
 20
35.0
 30
0.0
 11
82.770000000000024
 21
35.0
 31
0.0
  0
LINE
  5
15A4
  8
250
  6
CONTINUOUS
 10
2.2299999999999991
 20
34.62833333333333
 30
0.0
 11
0.0
 21
35.0
 31
0.0
  0
LINE
  5
15A5
  8
250
  6
CONTINUOUS
 10
2.2299999999999991
 20
35.37166666666667
 30
0.0
 11
0.0
 21
35.0
 31
0.0
  0
LINE
  5
15A6
  8
250
  6
CONTINUOUS
 10
0.0
 20
35.0
 30
0.0
 11
2.2299999999999991
 21
35.0
 31
0.0
  0
LINE
  5
15A7
  8
250
  6
CONTINUOUS
 10
62.65839661848787
 20
6.6847382668438833
 30
0.0
 11
61.638894754944111
 21
4.6669047600000004
 31
0.0
  0
LINE
  5
15A8
  8
250
  6
CONTINUOUS
 10
61.948855920941547
 20
6.9063154384340839
 30
0.0
 11
61.638894754944111
 21
4.6669047600000004
 31
0.0
  0
LINE
  5
15A9
  8
250
  6
CONTINUOUS
 10
61.638894754944111
 20
4.6669047600000004
 30
0.0
 11
62.303626269714691
 21
6.795526852638984
 31
0.0
  0
LINE
  5
15AA
  8
240
  6
CONTINUOUS
 10
63.259807619999997
 20
15.0
 30
0.0
 11
85.0
 21
15.0
 31
0.0
  0
LINE
  5
15AB
  8
243
  6
HIDDEN2
 10
65.0
 20
4.2499999999999991
 30
0.0
 11
85.0
 21
4.25
 31
0.0
  0
LINE
  5
15AC
  8
240
  6
CONTINUOUS
 10
63.259807619999997
 20
-15.0
 30
0.0
 11
85.0
 21
-15.0
 31
0.0
  0
LINE
  5
15AD
  8
245
  6
CENTER2
 10
-70.0
 20
0.0
 30
0.0
 11
86.0
 21
0.0
 31
0.0
  0
LINE
  5
15AE
  8
240
  6
CONTINUOUS
 10
-54.0
 20
-12.5
 30
0.0
 11
-56.5
 21
-15.0
 31
0.0
  0
LINE
  5
15AF
  8
240
  6
CONTINUOUS
 10
-54.0
 20
12.5
 30
0.0
 11
-56.5
 21
15.0
 31
0.0
  0
LINE
  5
15B1
  8
240
  6
CONTINUOUS
 10
-69.0
 20
-15.0
 30
0.0
 11
-56.5
 21
-15.0
 31
0.0
  0
LINE
  5
15B4
  8
240
  6
CONTINUOUS
 10
-69.0
 20
15.0
 30
0.0
 11
-69.0
 21
-15.0
 31
0.0
  0
LINE
  5
15B5
  8
240
  6
CONTINUOUS
 10
-69.0
 20
15.0
 30
0.0
 11
-56.5
 21
15.0
 31
0.0
  0
LINE
  5
15BA
  8
241
  6
CONTINUOUS
 10
60.0
 20
-11.699999999999999
 30
0.0
 11
60.0
 21
11.699999999999999
 31
0.0
  0
LINE
  5
15BB
  8
241
  6
CONTINUOUS
 10
64.200000000000003
 20
-15.0
 30
0.0
 11
64.200000000000003
 21
15.0
 31
0.0
  0
LINE
  5
15BC
  8
241
  6
CONTINUOUS
 10
63.0
 20
-15.15
 30
0.0
 11
63.0
 21
15.15
 31
0.0
  0
LINE
  5
15BD
  8
241
  6
CONTINUOUS
 10
61.0
 20
-11.699999999999999
 30
0.0
 11
61.0
 21
11.699999999999999
 31
0.0
  0
LINE
  5
15BE
  8
245
  6
CENTER2
 10
-46.0
 20
-15.0
 30
0.0
 11
-46.0
 21
15.0
 31
0.0
1001
GENIUS_GENOREF_13
1005
0
  0
LINE
  5
15C1
  8
241
  6
CONTINUOUS
 10
-32.0
 20
-15.0
 30
0.0
 11
-32.0
 21
15.0
 31
0.0
  0
LINE
  5
15C2
  8
241
  6
CONTINUOUS
 10
-29.5
 20
-15.0
 30
0.0
 11
-29.5
 21
15.0
 31
0.0
  0
LINE
  5
15C3
  8
241
  6
CONTINUOUS
 10
-21.5
 20
-15.0
 30
0.0
 11
-21.5
 21
15.0
 31
0.0
  0
LINE
  5
15C4
  8
241
  6
CONTINUOUS
 10
-19.0
 20
-15.0
 30
0.0
 11
-19.0
 21
15.0
 31
0.0
  0
LINE
  5
15C8
  8
241
  6
CONTINUOUS
 10
0.0
 20
-19.5
 30
0.0
 11
0.0
 21
19.5
 31
0.0
  0
LINE
  5
15CB
  8
241
  6
CONTINUOUS
 10
1.205771369999999
 20
-15.358743970000001
 30
0.0
 11
1.205771369999999
 21
15.358743970000001
 31
0.0
  0
LINE
  5
15CD
  8
240
  6
CONTINUOUS
 10
-38.0
 20
-12.5
 30
0.0
 11
-35.5
 21
-15.0
 31
0.0
  0
LINE
  5
15CE
  8
240
  6
CONTINUOUS
 10
-46.0
 20
-12.5
 30
0.0
 11
-38.0
 21
-12.5
 31
0.0
  0
LINE
  5
15CF
  8
240
  6
CONTINUOUS
 10
-54.0
 20
-12.5
 30
0.0
 11
-46.0
 21
-12.5
 31
0.0
  0
LINE
  5
15D0
  8
240
  6
CONTINUOUS
 10
-35.5
 20
-15.0
 30
0.0
 11
-7.5
 21
-15.0
 31
0.0
  0
LINE
  5
15D8
  8
240
  6
CONTINUOUS
 10
60.0
 20
-15.0
 30
0.0
 11
1.9730983600000001
 21
-15.0
 31
0.0
  0
LINE
  5
15D9
  8
240
  6
CONTINUOUS
 10
-7.5
 20
-19.000000010000001
 30
0.0
 11
-6.1262612799999987
 21
-19.5
 31
0.0
  0
LINE
  5
15E1
  8
240
  6
CONTINUOUS
 10
0.0000000028216141
 20
-19.5
 30
0.0
 11
1.0071725300000001
 21
-15.741180959999999
 31
0.0
  0
LINE
  5
15E8
  8
240
  6
CONTINUOUS
 10
0.0000000028216141
 20
-19.5
 30
0.0
 11
-6.1262612900000004
 21
-19.5
 31
0.0
  0
ARC
  5
15E9
  8
240
  6
CONTINUOUS
 10
1.9730983600000001
 20
-16.0
 30
0.0
 40
1.0
 50
90.0
 51
165.00000001999999
  0
LINE
  5
15EA
  8
240
  6
CONTINUOUS
 10
61.0
 20
-15.15
 30
0.0
 11
63.0
 21
-15.15
 31
0.0
  0
LINE
  5
167A
  8
240
  6
CONTINUOUS
 10
61.0
 20
-11.699999999999999
 30
0.0
 11
61.0
 21
-15.15
 31
0.0
  0
LINE
  5
167B
  8
240
  6
CONTINUOUS
 10
60.0
 20
-11.699999999999999
 30
0.0
 11
60.0
 21
-15.0
 31
0.0
  0
LINE
  5
167C
  8
240
  6
CONTINUOUS
 10
61.0
 20
-11.699999999999999
 30
0.0
 11
60.0
 21
-11.699999999999999
 31
0.0
  0
LINE
  5
167D
  8
240
  6
CONTINUOUS
 10
63.259807619999997
 20
-15.0
 30
0.0
 11
63.0
 21
-15.15
 31
0.0
  0
LINE
  5
167F
  8
240
  6
CONTINUOUS
 10
-38.0
 20
12.5
 30
0.0
 11
-35.5
 21
15.0
 31
0.0
  0
LINE
  5
1680
  8
240
  6
CONTINUOUS
 10
-46.0
 20
12.5
 30
0.0
 11
-38.0
 21
12.5
 31
0.0
  0
LINE
  5
1681
  8
240
  6
CONTINUOUS
 10
-54.0
 20
12.5
 30
0.0
 11
-46.0
 21
12.5
 31
0.0
  0
LINE
  5
168C
  8
240
  6
CONTINUOUS
 10
-35.5
 20
15.0
 30
0.0
 11
-7.5
 21
15.0
 31
0.0
  0
LINE
  5
1691
  8
240
  6
CONTINUOUS
 10
63.259807619999997
 20
15.0
 30
0.0
 11
63.0
 21
15.15
 31
0.0
  0
LINE
  5
1693
  8
240
  6
CONTINUOUS
 10
61.0
 20
11.699999999999999
 30
0.0
 11
61.0
 21
15.15
 31
0.0
  0
ARC
  5
1695
  8
240
  6
CONTINUOUS
 10
1.9730983600000001
 20
16.0
 30
0.0
 40
1.0
 50
194.99999998000001
 51
270.0
  0
LINE
  5
1698
  8
241
  6
CONTINUOUS
 10
-7.5
 20
15.0
 30
0.0
 11
-7.5
 21
-15.0
 31
0.0
  0
LINE
  5
169C
  8
240
  6
CONTINUOUS
 10
60.0
 20
15.0
 30
0.0
 11
1.9730983600000001
 21
15.0
 31
0.0
  0
LINE
  5
16A5
  8
243
  6
HIDDEN2
 10
65.0
 20
4.6669047600000004
 30
0.0
 11
65.0
 21
-4.6669047600000004
 31
0.0
  0
LINE
  5
16A6
  8
243
  6
HIDDEN2
 10
55.0
 20
4.6669047600000004
 30
0.0
 11
55.0
 21
-4.6669047600000004
 31
0.0
  0
LINE
  5
16A7
  8
242
  6
HIDDEN2
 10
65.0
 20
4.6669047600000004
 30
0.0
 11
55.0
 21
0.0
 31
0.0
  0
LINE
  5
16A8
  8
242
  6
HIDDEN2
 10
55.0
 20
4.6669047600000004
 30
0.0
 11
65.0
 21
0.0
 31
0.0
  0
LINE
  5
16B2
  8
243
  6
HIDDEN2
 10
55.0
 20
4.6669047600000004
 30
0.0
 11
65.0
 21
4.6669047600000004
 31
0.0
  0
LINE
  5
16B3
  8
240
  6
CONTINUOUS
 10
60.0
 20
11.699999999999999
 30
0.0
 11
60.0
 21
15.0
 31
0.0
  0
LINE
  5
16B4
  8
240
  6
CONTINUOUS
 10
61.0
 20
11.699999999999999
 30
0.0
 11
60.0
 21
11.699999999999999
 31
0.0
  0
LINE
  5
16B6
  8
240
  6
CONTINUOUS
 10
-7.5
 20
19.000000010000001
 30
0.0
 11
-6.1262612799999987
 21
19.5
 31
0.0
  0
LINE
  5
16BE
  8
240
  6
CONTINUOUS
 10
0.000000002821614
 20
19.5
 30
0.0
 11
1.0071725300000001
 21
15.741180959999999
 31
0.0
  0
LINE
  5
16BF
  8
240
  6
CONTINUOUS
 10
0.000000002821614
 20
19.5
 30
0.0
 11
-6.1262612900000004
 21
19.5
 31
0.0
  0
LINE
  5
16C3
  8
240
  6
CONTINUOUS
 10
61.0
 20
15.15
 30
0.0
 11
63.0
 21
15.15
 31
0.0
  0
LINE
  5
16C7
  8
240
  6
CONTINUOUS
 10
85.0
 20
15.0
 30
0.0
 11
85.0
 21
-15.0
 31
0.0
  0
LINE
  5
16D0
  8
240
  6
CONTINUOUS
 10
-7.5
 20
-15.0
 30
0.0
 11
-7.5
 21
-19.000000010000001
 31
0.0
  0
LINE
  5
16D1
  8
240
  6
CONTINUOUS
 10
-7.5
 20
15.0
 30
0.0
 11
-7.5
 21
19.000000010000001
 31
0.0
  0
LINE
  5
16D2
  8
243
  6
HIDDEN2
 10
65.0
 20
-4.2499999999999991
 30
0.0
 11
85.0
 21
-4.25
 31
0.0
  0
LINE
  5
16D6
  8
242
  6
HIDDEN2
 10
65.0
 20
-4.6669047600000004
 30
0.0
 11
55.0
 21
0.0
 31
0.0
  0
LINE
  5
16D7
  8
242
  6
HIDDEN2
 10
55.0
 20
-4.6669047600000004
 30
0.0
 11
65.0
 21
0.0
 31
0.0
  0
LINE
  5
16D8
  8
243
  6
HIDDEN2
 10
55.0
 20
-4.6669047600000004
 30
0.0
 11
65.0
 21
-4.6669047600000004
 31
0.0
  0
LINE
  5
1763
  8
250
  6
CONTINUOUS
 10
85.5
 20
-4.25
 30
0.0
 11
94.0
 21
-4.25
 31
0.0
  0
LINE
  5
1764
  8
250
  6
CONTINUOUS
 10
92.628333333333316
 20
-2.02
 30
0.0
 11
93.0
 21
-4.25
 31
0.0
  0
LINE
  5
1765
  8
250
  6
CONTINUOUS
 10
93.371666666666641
 20
-2.02
 30
0.0
 11
93.0
 21
-4.25
 31
0.0
  0
LINE
  5
1847
  8
247
  6
CONTINUOUS
 10
5.2057713699999582
 20
-11.0
 30
0.0
 11
5.205771369999999
 21
-7.2923076925360242
 31
0.0
  0
LINE
  5
1848
  8
247
  6
CONTINUOUS
 10
3.205771369999999
 20
-10.363914799990351
 30
0.0
 11
4.8857713699328018
 21
-10.84564704804588
 31
0.0
  0
LINE
  5
1849
  8
247
  6
CONTINUOUS
 10
4.002694446891196
 20
-9.8601211228152223
 30
0.0
 11
4.002694446891196
 21
-10.592428815093619
 31
0.0
  0
ARC
  5
184A
  8
247
  6
CONTINUOUS
 10
3.513546623835281
 20
-9.6698107215574396
 30
0.0
 40
0.3101372647461394
 50
72.997889675291987
 51
172.92416621851231
  0
ARC
  5
184B
  8
247
  6
CONTINUOUS
 10
3.4499498748224151
 20
-9.9059820454432792
 30
0.0
 40
0.5546438372287014
 50
4.7429368522013942
 51
73.849226273266424
1001
GENIUS_GENOBJ-N-FIL_13
1002
{
1000
OWNER
1000
GEN
1002
}
1001
GENIUS_GENODEF_13
1002
{
1000
HIER
1070
     0
1002
}
1002
{
1000
MANEDIT
1070
     0
1002
}
1002
{
1000
NOSEL
1070
     0
1002
}
1002
{
1000
BEHIND
1070
     0
1002
}
1002
{
1000
OTHER
1070
     0
1002
}
1002
{
1000
REACTOR
1002
}
  0
LINE
  5
184C
  8
247
  6
CONTINUOUS
 10
4.8857713699328018
 20
-10.113339355767479
 30
0.0
 11
4.8857713699328018
 21
-10.84564704804588
 31
0.0
  0
LINE
  5
184D
  8
247
  6
CONTINUOUS
 10
3.205771369999999
 20
-10.363914799990351
 30
0.0
 11
3.205771369999999
 21
-9.6316071077119556
 31
0.0
  0
ARC
  5
184E
  8
247
  6
CONTINUOUS
 10
4.3157049402142951
 20
-9.9026451810134581
 30
0.0
 40
0.3158858408603088
 50
65.990941652528775
 51
172.26344345906949
  0
ARC
  5
184F
  8
247
  6
CONTINUOUS
 10
4.318731631866056
 20
-10.16995728834153
 30
0.0
 40
0.5698593289889349
 50
5.7019851642581267
 51
77.27733843682222
1001
GENIUS_GENOBJ-N-FIL_13
1002
{
1000
OWNER
1000
GEN
1002
}
1001
GENIUS_GENODEF_13
1002
{
1000
HIER
1070
     0
1002
}
1002
{
1000
MANEDIT
1070
     0
1002
}
1002
{
1000
NOSEL
1070
     0
1002
}
1002
{
1000
BEHIND
1070
     0
1002
}
1002
{
1000
OTHER
1070
     0
1002
}
1002
{
1000
REACTOR
1002
}
  0
LINE
  5
1850
  8
247
  6
CONTINUOUS
 10
4.8857713699328018
 20
-9.3471855096506911
 30
0.0
 11
3.205771369999999
 21
-8.8654532615951656
 31
0.0
  0
LINE
  5
1851
  8
247
  6
CONTINUOUS
 10
3.205771369999999
 20
-7.6685301847263663
 30
0.0
 11
3.205771369999999
 21
-7.9853426914428622
 31
0.0
  0
LINE
  5
1852
  8
247
  6
CONTINUOUS
 10
4.8857713699328018
 20
-8.4869917231551621
 30
0.0
 11
4.8857713699328018
 21
-8.1423763385535768
 31
0.0
  0
ARC
  5
1853
  8
247
  6
CONTINUOUS
 10
4.3724110460666861
 20
-7.5054532616559682
 30
0.0
 40
1.261484046111637
 50
202.35948814152701
 51
254.99324854284609
  0
ARC
  5
1854
  8
247
  6
CONTINUOUS
 10
3.6584264568305112
 20
-7.878009092906578
 30
0.0
 40
0.4987765437607558
 50
94.994589319075374
 51
155.16632895730359
1001
GENIUS_GENOBJ-N-FIL_13
1002
{
1000
OWNER
1000
GEN
1002
}
1001
GENIUS_GENODEF_13
1002
{
1000
HIER
1070
     0
1002
}
1002
{
1000
MANEDIT
1070
     0
1002
}
1002
{
1000
NOSEL
1070
     0
1002
}
1002
{
1000
BEHIND
1070
     0
1002
}
1002
{
1000
OTHER
1070
     0
1002
}
1002
{
1000
REACTOR
1002
}
  0
ARC
  5
1855
  8
247
  6
CONTINUOUS
 10
4.1354530675755532
 20
-8.3553471608262164
 30
0.0
 40
0.7799577719285588
 50
15.8460965557799
 51
82.325137004169122
  0
ARC
  5
1856
  8
247
  6
CONTINUOUS
 10
4.3029476915768541
 20
-8.0281693110177734
 30
0.0
 40
0.7417556510953607
 50
249.71360167049701
 51
321.78874565640962
1001
GENIUS_GENOBJ-N-FIL_13
1002
{
1000
OWNER
1000
GEN
1002
}
1001
GENIUS_GENODEF_13
1002
{
1000
HIER
1070
     0
1002
}
1002
{
1000
MANEDIT
1070
     0
1002
}
1002
{
1000
NOSEL
1070
     0
1002
}
1002
{
1000
BEHIND
1070
     0
1002
}
1002
{
1000
OTHER
1070
     0
1002
}
1002
{
1000
REACTOR
1002
}
  0
LINE
  5
1857
  8
247
  6
CONTINUOUS
 10
4.2396175238047791
 20
-7.9700686462527663
 30
0.0
 11
4.2396175238047791
 21
-7.5823763385759699
 31
0.0
  0
ARC
  5
1858
  8
247
  6
CONTINUOUS
 10
4.205771369999999
 20
-11.0
 30
0.0
 40
1.0
 50
180.0
 51
0.0
  0
LINE
  5
1859
  8
247
  6
CONTINUOUS
 10
3.205771369999999
 20
-11.0
 30
0.0
 11
3.205771369999999
 21
-10.643076923131201
 31
0.0
  0
ARC
  5
185A
  8
247
  6
CONTINUOUS
 10
4.205771369999999
 20
-7.2923076925360091
 30
0.0
 40
1.0
 50
0.0
 51
180.0
  0
VIEWPORT
  5
22
 67
     1
  8
0
 10
261.51769911999997
 20
148.5
 30
0.0
 40
523.03539823000006
 41
297.0
 68
     1
 69
     1
1001
ACAD
1000
MVIEW
1002
{
1070
    16
1010
0.0
1020
0.0
1030
0.0
1010
0.0
1020
0.0
1030
1.0
1040
0.0
1040
297.0
1040
261.51769911999997
1040
148.5
1040
50.0
1040
0.0
1040
0.0
1070
     0
1070
   100
1070
     1
1070
     1
1070
     0
1070
     0
1070
     0
1070
     0
1040
0.0
1040
0.0
1040
0.0
1040
1.0
1040
1.0
1040
10.0
1040
10.0
1070
     0
1002
{
1002
}
1002
}
1001
GENIUS_GENODEF_13
1002
{
1000
HIER
1070
     0
1002
}
1002
{
1000
MANEDIT
1070
     0
1002
}
1002
{
1000
NOSEL
1070
     0
1002
}
1002
{
1000
BEHIND
1070
     0
1002
}
1002
{
1000
OTHER
1070
     0
1002
}
1002
{
1000
REACTOR
1002
}
1001
GENIUS_GENOBJ-N-SDF_13
1002
{
1000
OWNER
1000
GEN
1002
}
1001
GENIUS_GENSCREG_15
1000
PF
1040
1.0
1000
DF
1040
1.0
1000
MIN
1011
0.0000000049999471
1021
0.0
1031
0.0
1021
0.0
1031
0.0
1000
MAX
1011
523.035398235
1021
0.0
1031
0.0
1021
297.0
1031
0.0
1000
FLAGS
1070
     4
  0
ENDSEC
  0
EOF
