ISO-10303-21;
HEADER;
FILE_DESCRIPTION((''),'1');
FILE_NAME('T:/02_3D_Field-HP\X2\FF71FF6FFF8CFF9F5916\X0\2013/02_Step_Field-HP\X2\FF71FF6FFF8CFF9F5916\X0\2013/MGT20-d-85_M12-20.stp','2017-02-08T06:17:45',(''),(''),'Spatial Interop R21 SP3','Kubotek KeyCreator 2011 V10.0.2 (22737)',' ');
FILE_SCHEMA(('automotive_design'));
ENDSEC;
DATA;
#1=MECHANICAL_DESIGN_GEOMETRIC_PRESENTATION_REPRESENTATION(' ',(#10,#11,#12,#13,#14,#15,#16,#17,#18,#19,#20,#21,#22,#23,#24,#25,#26,#27,#28,#29,#30,#31,#32,#33,#34,#35,#36,#37),#6);
#2=PRODUCT_DEFINITION_CONTEXT('',#38,'design');
#3=APPLICATION_PROTOCOL_DEFINITION('INTERNATIONAL STANDARD','automotive_design',1994,#38);
#4=PRODUCT_CATEGORY_RELATIONSHIP('NONE','NONE',#39,#40);
#5=SHAPE_DEFINITION_REPRESENTATION(#41,#42);
#6= (GEOMETRIC_REPRESENTATION_CONTEXT(3)GLOBAL_UNCERTAINTY_ASSIGNED_CONTEXT((#45))GLOBAL_UNIT_ASSIGNED_CONTEXT((#47,#48,#49))REPRESENTATION_CONTEXT('NONE','WORKSPACE'));
#10=STYLED_ITEM('',(#51,#52),#53);
#11=STYLED_ITEM('',(#54,#55),#56);
#12=STYLED_ITEM('',(#57,#58),#59);
#13=STYLED_ITEM('',(#60,#61),#62);
#14=STYLED_ITEM('',(#63),#64);
#15=STYLED_ITEM('',(#65),#66);
#16=STYLED_ITEM('',(#67,#68),#69);
#17=STYLED_ITEM('',(#70),#71);
#18=STYLED_ITEM('',(#72,#73),#74);
#19=STYLED_ITEM('',(#75,#76),#77);
#20=STYLED_ITEM('',(#78,#79),#80);
#21=STYLED_ITEM('',(#81,#82),#83);
#22=STYLED_ITEM('',(#84),#85);
#23=STYLED_ITEM('',(#86),#87);
#24=STYLED_ITEM('',(#88),#89);
#25=STYLED_ITEM('',(#90,#91),#92);
#26=STYLED_ITEM('',(#93,#94),#95);
#27=STYLED_ITEM('',(#96),#97);
#28=STYLED_ITEM('',(#98,#99),#100);
#29=STYLED_ITEM('',(#101),#102);
#30=STYLED_ITEM('',(#103),#104);
#31=STYLED_ITEM('',(#105),#106);
#32=STYLED_ITEM('',(#107,#108),#109);
#33=STYLED_ITEM('',(#110,#111),#112);
#34=STYLED_ITEM('',(#113,#114),#115);
#35=STYLED_ITEM('',(#116),#117);
#36=STYLED_ITEM('',(#118),#119);
#37=STYLED_ITEM('',(#120),#121);
#38=APPLICATION_CONTEXT(' ');
#39=PRODUCT_CATEGORY('part','NONE');
#40=PRODUCT_RELATED_PRODUCT_CATEGORY('detail',' ',(#122));
#41=PRODUCT_DEFINITION_SHAPE('NONE','NONE',#123);
#42=ADVANCED_BREP_SHAPE_REPRESENTATION('240[2]',(#62,#124),#6);
#45=UNCERTAINTY_MEASURE_WITH_UNIT(LENGTH_MEASURE(1.0E-006),#47,'','');
#47= (CONVERSION_BASED_UNIT('MILLIMETRE',#127)LENGTH_UNIT()NAMED_UNIT(#130));
#48= (NAMED_UNIT(#132)PLANE_ANGLE_UNIT()SI_UNIT($,.RADIAN.));
#49= (NAMED_UNIT(#132)SOLID_ANGLE_UNIT()SI_UNIT($,.STERADIAN.));
#51=PRESENTATION_STYLE_ASSIGNMENT((#138));
#52=PRESENTATION_STYLE_ASSIGNMENT((#139));
#53=ADVANCED_FACE('240[2]',(#140,#141),#142,.T.);
#54=PRESENTATION_STYLE_ASSIGNMENT((#143));
#55=PRESENTATION_STYLE_ASSIGNMENT((#144));
#56=ADVANCED_FACE('240[2]',(#145,#146),#147,.T.);
#57=PRESENTATION_STYLE_ASSIGNMENT((#148));
#58=PRESENTATION_STYLE_ASSIGNMENT((#149));
#59=ADVANCED_FACE('240[2]',(#150,#151),#152,.T.);
#60=PRESENTATION_STYLE_ASSIGNMENT((#153));
#61=PRESENTATION_STYLE_ASSIGNMENT((#154));
#62=MANIFOLD_SOLID_BREP('240[2]',#155);
#63=PRESENTATION_STYLE_ASSIGNMENT((#156));
#64=EDGE_CURVE('240[2]',#157,#157,#158,.T.);
#65=PRESENTATION_STYLE_ASSIGNMENT((#159));
#66=EDGE_CURVE('240[2]',#160,#160,#161,.T.);
#67=PRESENTATION_STYLE_ASSIGNMENT((#162));
#68=PRESENTATION_STYLE_ASSIGNMENT((#163));
#69=ADVANCED_FACE('240[2]',(#164,#165),#166,.T.);
#70=PRESENTATION_STYLE_ASSIGNMENT((#167));
#71=EDGE_CURVE('240[2]',#168,#168,#169,.T.);
#72=PRESENTATION_STYLE_ASSIGNMENT((#170));
#73=PRESENTATION_STYLE_ASSIGNMENT((#171));
#74=ADVANCED_FACE('240[2]',(#172),#173,.T.);
#75=PRESENTATION_STYLE_ASSIGNMENT((#174));
#76=PRESENTATION_STYLE_ASSIGNMENT((#175));
#77=ADVANCED_FACE('240[2]',(#176,#177),#178,.T.);
#78=PRESENTATION_STYLE_ASSIGNMENT((#179));
#79=PRESENTATION_STYLE_ASSIGNMENT((#180));
#80=ADVANCED_FACE('240[2]',(#181,#182),#183,.T.);
#81=PRESENTATION_STYLE_ASSIGNMENT((#184));
#82=PRESENTATION_STYLE_ASSIGNMENT((#185));
#83=ADVANCED_FACE('240[2]',(#186,#187),#188,.T.);
#84=PRESENTATION_STYLE_ASSIGNMENT((#189));
#85=EDGE_CURVE('240[2]',#190,#190,#191,.T.);
#86=PRESENTATION_STYLE_ASSIGNMENT((#192));
#87=EDGE_CURVE('240[2]',#193,#193,#194,.T.);
#88=PRESENTATION_STYLE_ASSIGNMENT((#195));
#89=EDGE_CURVE('240[2]',#196,#196,#197,.T.);
#90=PRESENTATION_STYLE_ASSIGNMENT((#198));
#91=PRESENTATION_STYLE_ASSIGNMENT((#199));
#92=ADVANCED_FACE('240[2]',(#200,#201),#202,.T.);
#93=PRESENTATION_STYLE_ASSIGNMENT((#203));
#94=PRESENTATION_STYLE_ASSIGNMENT((#204));
#95=ADVANCED_FACE('240[2]',(#205,#206),#207,.T.);
#96=PRESENTATION_STYLE_ASSIGNMENT((#208));
#97=EDGE_CURVE('240[2]',#209,#209,#210,.T.);
#98=PRESENTATION_STYLE_ASSIGNMENT((#211));
#99=PRESENTATION_STYLE_ASSIGNMENT((#212));
#100=ADVANCED_FACE('240[2]',(#213,#214),#215,.T.);
#101=PRESENTATION_STYLE_ASSIGNMENT((#216));
#102=EDGE_CURVE('240[2]',#217,#217,#218,.T.);
#103=PRESENTATION_STYLE_ASSIGNMENT((#219));
#104=EDGE_CURVE('240[2]',#220,#220,#221,.T.);
#105=PRESENTATION_STYLE_ASSIGNMENT((#222));
#106=EDGE_CURVE('240[2]',#223,#223,#224,.T.);
#107=PRESENTATION_STYLE_ASSIGNMENT((#225));
#108=PRESENTATION_STYLE_ASSIGNMENT((#226));
#109=ADVANCED_FACE('240[2]',(#227,#228),#229,.T.);
#110=PRESENTATION_STYLE_ASSIGNMENT((#230));
#111=PRESENTATION_STYLE_ASSIGNMENT((#231));
#112=ADVANCED_FACE('240[2]',(#232),#233,.T.);
#113=PRESENTATION_STYLE_ASSIGNMENT((#234));
#114=PRESENTATION_STYLE_ASSIGNMENT((#235));
#115=ADVANCED_FACE('240[2]',(#236,#237),#238,.T.);
#116=PRESENTATION_STYLE_ASSIGNMENT((#239));
#117=EDGE_CURVE('240[2]',#240,#240,#241,.T.);
#118=PRESENTATION_STYLE_ASSIGNMENT((#242));
#119=EDGE_CURVE('240[2]',#243,#243,#244,.T.);
#120=PRESENTATION_STYLE_ASSIGNMENT((#245));
#121=EDGE_CURVE('240[2]',#246,#246,#247,.T.);
#122=PRODUCT('240[2]','240[2]','PART-240[2]-DESC',(#248));
#123=PRODUCT_DEFINITION('NONE','NONE',#249,#2);
#124=AXIS2_PLACEMENT_3D('',#250,#251,#252);
#127=LENGTH_MEASURE_WITH_UNIT(LENGTH_MEASURE(1.0),#253);
#130=DIMENSIONAL_EXPONENTS(1.0,0.0,0.0,0.0,0.0,0.0,0.0);
#132=DIMENSIONAL_EXPONENTS(0.0,0.0,0.0,0.0,0.0,0.0,0.0);
#138=SURFACE_STYLE_USAGE(.BOTH.,#254);
#139=CURVE_STYLE('',#255,POSITIVE_LENGTH_MEASURE(1000.0),#256);
#140=FACE_BOUND('',#257,.T.);
#141=FACE_BOUND('',#258,.T.);
#142=CONICAL_SURFACE('',#259,19.2500000000009,0.349065850398894);
#143=SURFACE_STYLE_USAGE(.BOTH.,#260);
#144=CURVE_STYLE('',#261,POSITIVE_LENGTH_MEASURE(1000.0),#262);
#145=FACE_BOUND('',#263,.T.);
#146=FACE_BOUND('',#264,.T.);
#147=CYLINDRICAL_SURFACE('',#265,15.0000000000669);
#148=SURFACE_STYLE_USAGE(.BOTH.,#266);
#149=CURVE_STYLE('',#267,POSITIVE_LENGTH_MEASURE(1000.0),#268);
#150=FACE_BOUND('',#269,.T.);
#151=FACE_BOUND('',#270,.T.);
#152=CYLINDRICAL_SURFACE('',#271,11.699999999933);
#153=SURFACE_STYLE_USAGE(.BOTH.,#272);
#154=CURVE_STYLE('',#273,POSITIVE_LENGTH_MEASURE(1000.0),#274);
#155=CLOSED_SHELL('',(#83,#53,#109,#100,#56,#95,#59,#77,#115,#92,#80,#112,#74,#69));
#156=CURVE_STYLE('',#275,POSITIVE_LENGTH_MEASURE(1000.0),#276);
#157=VERTEX_POINT('',#277);
#158=CIRCLE('',#278,15.0000000000669);
#159=CURVE_STYLE('',#279,POSITIVE_LENGTH_MEASURE(1000.0),#280);
#160=VERTEX_POINT('',#281);
#161=CIRCLE('',#282,15.0);
#162=SURFACE_STYLE_USAGE(.BOTH.,#283);
#163=CURVE_STYLE('',#284,POSITIVE_LENGTH_MEASURE(1000.0),#285);
#164=FACE_BOUND('',#286,.T.);
#165=FACE_BOUND('',#287,.T.);
#166=CYLINDRICAL_SURFACE('',#288,15.0);
#167=CURVE_STYLE('',#289,POSITIVE_LENGTH_MEASURE(1000.0),#290);
#168=VERTEX_POINT('',#291);
#169=CIRCLE('',#292,19.5000000000009);
#170=SURFACE_STYLE_USAGE(.BOTH.,#293);
#171=CURVE_STYLE('',#294,POSITIVE_LENGTH_MEASURE(1000.0),#295);
#172=FACE_OUTER_BOUND('',#296,.T.);
#173=PLANE('',#297);
#174=SURFACE_STYLE_USAGE(.BOTH.,#298);
#175=CURVE_STYLE('',#299,POSITIVE_LENGTH_MEASURE(1000.0),#300);
#176=FACE_OUTER_BOUND('',#301,.T.);
#177=FACE_BOUND('',#302,.T.);
#178=PLANE('',#303);
#179=SURFACE_STYLE_USAGE(.BOTH.,#304);
#180=CURVE_STYLE('',#305,POSITIVE_LENGTH_MEASURE(1000.0),#306);
#181=FACE_BOUND('',#307,.T.);
#182=FACE_BOUND('',#308,.T.);
#183=CYLINDRICAL_SURFACE('',#309,15.0000000000005);
#184=SURFACE_STYLE_USAGE(.BOTH.,#310);
#185=CURVE_STYLE('',#311,POSITIVE_LENGTH_MEASURE(1000.0),#312);
#186=FACE_OUTER_BOUND('',#313,.T.);
#187=FACE_BOUND('',#314,.T.);
#188=PLANE('',#315);
#189=CURVE_STYLE('',#316,POSITIVE_LENGTH_MEASURE(1000.0),#317);
#190=VERTEX_POINT('',#318);
#191=CIRCLE('',#319,11.699999999933);
#192=CURVE_STYLE('',#320,POSITIVE_LENGTH_MEASURE(1000.0),#321);
#193=VERTEX_POINT('',#322);
#194=CIRCLE('',#323,15.150000000001);
#195=CURVE_STYLE('',#324,POSITIVE_LENGTH_MEASURE(1000.0),#325);
#196=VERTEX_POINT('',#326);
#197=CIRCLE('',#327,19.0000000000009);
#198=SURFACE_STYLE_USAGE(.BOTH.,#328);
#199=CURVE_STYLE('',#329,POSITIVE_LENGTH_MEASURE(1000.0),#330);
#200=FACE_BOUND('',#331,.T.);
#201=FACE_BOUND('',#332,.T.);
#202=CONICAL_SURFACE('',#333,15.0750000000005,0.124354994547199);
#203=SURFACE_STYLE_USAGE(.BOTH.,#334);
#204=CURVE_STYLE('',#335,POSITIVE_LENGTH_MEASURE(1000.0),#336);
#205=FACE_OUTER_BOUND('',#337,.T.);
#206=FACE_BOUND('',#338,.T.);
#207=PLANE('',#339);
#208=CURVE_STYLE('',#340,POSITIVE_LENGTH_MEASURE(1000.0),#341);
#209=VERTEX_POINT('',#342);
#210=CIRCLE('',#343,15.150000000001);
#211=SURFACE_STYLE_USAGE(.BOTH.,#344);
#212=CURVE_STYLE('',#345,POSITIVE_LENGTH_MEASURE(1000.0),#346);
#213=FACE_BOUND('',#347,.T.);
#214=FACE_BOUND('',#348,.T.);
#215=CONICAL_SURFACE('',#349,17.2500000000339,1.30899693899576);
#216=CURVE_STYLE('',#350,POSITIVE_LENGTH_MEASURE(1000.0),#351);
#217=VERTEX_POINT('',#352);
#218=CIRCLE('',#353,15.0);
#219=CURVE_STYLE('',#354,POSITIVE_LENGTH_MEASURE(1000.0),#355);
#220=VERTEX_POINT('',#356);
#221=CIRCLE('',#357,15.0000000000669);
#222=CURVE_STYLE('',#358,POSITIVE_LENGTH_MEASURE(1000.0),#359);
#223=VERTEX_POINT('',#360);
#224=CIRCLE('',#361,11.699999999933);
#225=SURFACE_STYLE_USAGE(.BOTH.,#362);
#226=CURVE_STYLE('',#363,POSITIVE_LENGTH_MEASURE(1000.0),#364);
#227=FACE_BOUND('',#365,.T.);
#228=FACE_BOUND('',#366,.T.);
#229=CYLINDRICAL_SURFACE('',#367,19.5000000000009);
#230=SURFACE_STYLE_USAGE(.BOTH.,#368);
#231=CURVE_STYLE('',#369,POSITIVE_LENGTH_MEASURE(1000.0),#370);
#232=FACE_OUTER_BOUND('',#371,.T.);
#233=PLANE('',#372);
#234=SURFACE_STYLE_USAGE(.BOTH.,#373);
#235=CURVE_STYLE('',#374,POSITIVE_LENGTH_MEASURE(1000.0),#375);
#236=FACE_BOUND('',#376,.T.);
#237=FACE_BOUND('',#377,.T.);
#238=CYLINDRICAL_SURFACE('',#378,15.150000000001);
#239=CURVE_STYLE('',#379,POSITIVE_LENGTH_MEASURE(1000.0),#380);
#240=VERTEX_POINT('',#381);
#241=CIRCLE('',#382,15.0);
#242=CURVE_STYLE('',#383,POSITIVE_LENGTH_MEASURE(1000.0),#384);
#243=VERTEX_POINT('',#385);
#244=CIRCLE('',#386,15.000000000001);
#245=CURVE_STYLE('',#387,POSITIVE_LENGTH_MEASURE(1000.0),#388);
#246=VERTEX_POINT('',#389);
#247=CIRCLE('',#390,19.5000000000009);
#248=PRODUCT_CONTEXT('',#38,'mechanical');
#249=PRODUCT_DEFINITION_FORMATION_WITH_SPECIFIED_SOURCE(' ','NONE',#122,.NOT_KNOWN.);
#250=CARTESIAN_POINT('',(0.0,0.0,0.0));
#251=DIRECTION('',(0.0,0.0,1.0));
#252=DIRECTION('',(1.0,0.0,0.0));
#253= (NAMED_UNIT(#130)LENGTH_UNIT()SI_UNIT(.MILLI.,.METRE.));
#254=SURFACE_SIDE_STYLE('',(#392));
#255=DRAUGHTING_PRE_DEFINED_CURVE_FONT('continuous');
#256=COLOUR_RGB('',0.0,1.0,1.0);
#257=EDGE_LOOP('',(#393));
#258=EDGE_LOOP('',(#394));
#259=AXIS2_PLACEMENT_3D('',#395,#396,#397);
#260=SURFACE_SIDE_STYLE('',(#398));
#261=DRAUGHTING_PRE_DEFINED_CURVE_FONT('continuous');
#262=COLOUR_RGB('',0.0,1.0,1.0);
#263=EDGE_LOOP('',(#399));
#264=EDGE_LOOP('',(#400));
#265=AXIS2_PLACEMENT_3D('',#401,#402,#403);
#266=SURFACE_SIDE_STYLE('',(#404));
#267=DRAUGHTING_PRE_DEFINED_CURVE_FONT('continuous');
#268=COLOUR_RGB('',0.0,1.0,1.0);
#269=EDGE_LOOP('',(#405));
#270=EDGE_LOOP('',(#406));
#271=AXIS2_PLACEMENT_3D('',#407,#408,#409);
#272=SURFACE_SIDE_STYLE('',(#410));
#273=DRAUGHTING_PRE_DEFINED_CURVE_FONT('continuous');
#274=COLOUR_RGB('',0.0,1.0,1.0);
#275=DRAUGHTING_PRE_DEFINED_CURVE_FONT('continuous');
#276=COLOUR_RGB('',0.0,1.0,1.0);
#277=CARTESIAN_POINT('',(-5.13091669418711E-015,15.0000000000668,83.7942286340757));
#278=AXIS2_PLACEMENT_3D('',#411,#412,#413);
#279=DRAUGHTING_PRE_DEFINED_CURVE_FONT('continuous');
#280=COLOUR_RGB('',0.0,1.0,1.0);
#281=CARTESIAN_POINT('',(-1.27363267111434E-015,15.0,20.8000000000178));
#282=AXIS2_PLACEMENT_3D('',#414,#415,#416);
#283=SURFACE_SIDE_STYLE('',(#417));
#284=DRAUGHTING_PRE_DEFINED_CURVE_FONT('continuous');
#285=COLOUR_RGB('',0.0,1.0,1.0);
#286=EDGE_LOOP('',(#418));
#287=EDGE_LOOP('',(#419));
#288=AXIS2_PLACEMENT_3D('',#420,#421,#422);
#289=DRAUGHTING_PRE_DEFINED_CURVE_FONT('continuous');
#290=COLOUR_RGB('',0.0,1.0,1.0);
#291=CARTESIAN_POINT('',(-5.57987421036975E-015,19.5000000000009,91.1262612902704));
#292=AXIS2_PLACEMENT_3D('',#423,#424,#425);
#293=SURFACE_SIDE_STYLE('',(#426));
#294=DRAUGHTING_PRE_DEFINED_CURVE_FONT('continuous');
#295=COLOUR_RGB('',0.0,1.0,1.0);
#296=EDGE_LOOP('',(#427));
#297=AXIS2_PLACEMENT_3D('',#428,#429,#430);
#298=SURFACE_SIDE_STYLE('',(#431));
#299=DRAUGHTING_PRE_DEFINED_CURVE_FONT('continuous');
#300=COLOUR_RGB('',0.0,1.0,1.0);
#301=EDGE_LOOP('',(#432));
#302=EDGE_LOOP('',(#433));
#303=AXIS2_PLACEMENT_3D('',#434,#435,#436);
#304=SURFACE_SIDE_STYLE('',(#437));
#305=DRAUGHTING_PRE_DEFINED_CURVE_FONT('continuous');
#306=COLOUR_RGB('',0.0,1.0,1.0);
#307=EDGE_LOOP('',(#438));
#308=EDGE_LOOP('',(#439));
#309=AXIS2_PLACEMENT_3D('',#440,#441,#442);
#310=SURFACE_SIDE_STYLE('',(#443));
#311=DRAUGHTING_PRE_DEFINED_CURVE_FONT('continuous');
#312=COLOUR_RGB('',0.0,1.0,1.0);
#313=EDGE_LOOP('',(#444));
#314=EDGE_LOOP('',(#445));
#315=AXIS2_PLACEMENT_3D('',#446,#447,#448);
#316=DRAUGHTING_PRE_DEFINED_CURVE_FONT('continuous');
#317=COLOUR_RGB('',0.0,1.0,1.0);
#318=CARTESIAN_POINT('',(-1.53080849893463E-015,11.699999999933,25.0000000000072));
#319=AXIS2_PLACEMENT_3D('',#449,#450,#451);
#320=DRAUGHTING_PRE_DEFINED_CURVE_FONT('continuous');
#321=COLOUR_RGB('',0.0,1.0,1.0);
#322=CARTESIAN_POINT('',(-1.34711147906341E-015,15.150000000001,22.0000000000216));
#323=AXIS2_PLACEMENT_3D('',#452,#453,#454);
#324=DRAUGHTING_PRE_DEFINED_CURVE_FONT('continuous');
#325=COLOUR_RGB('',0.0,1.0,1.0);
#326=CARTESIAN_POINT('',(-5.66399144605636E-015,19.0000000000009,92.4999999999976));
#327=AXIS2_PLACEMENT_3D('',#455,#456,#457);
#328=SURFACE_SIDE_STYLE('',(#458));
#329=DRAUGHTING_PRE_DEFINED_CURVE_FONT('continuous');
#330=COLOUR_RGB('',0.0,1.0,1.0);
#331=EDGE_LOOP('',(#459));
#332=EDGE_LOOP('',(#460));
#333=AXIS2_PLACEMENT_3D('',#461,#462,#463);
#334=SURFACE_SIDE_STYLE('',(#464));
#335=DRAUGHTING_PRE_DEFINED_CURVE_FONT('continuous');
#336=COLOUR_RGB('',0.0,1.0,1.0);
#337=EDGE_LOOP('',(#465));
#338=EDGE_LOOP('',(#466));
#339=AXIS2_PLACEMENT_3D('',#467,#468,#469);
#340=DRAUGHTING_PRE_DEFINED_CURVE_FONT('continuous');
#341=COLOUR_RGB('',0.0,1.0,1.0);
#342=CARTESIAN_POINT('',(-1.46957615897729E-015,15.150000000001,24.0000000000077));
#343=AXIS2_PLACEMENT_3D('',#470,#471,#472);
#344=SURFACE_SIDE_STYLE('',(#473));
#345=DRAUGHTING_PRE_DEFINED_CURVE_FONT('continuous');
#346=COLOUR_RGB('',0.0,1.0,1.0);
#347=EDGE_LOOP('',(#474));
#348=EDGE_LOOP('',(#475));
#349=AXIS2_PLACEMENT_3D('',#476,#477,#478);
#350=DRAUGHTING_PRE_DEFINED_CURVE_FONT('continuous');
#351=COLOUR_RGB('',0.0,1.0,1.0);
#352=CARTESIAN_POINT('',(-9.4297803534345E-015,15.0,153.999999999998));
#353=AXIS2_PLACEMENT_3D('',#479,#480,#481);
#354=DRAUGHTING_PRE_DEFINED_CURVE_FONT('continuous');
#355=COLOUR_RGB('',0.0,1.0,1.0);
#356=CARTESIAN_POINT('',(-1.5308084989345E-015,15.0000000000668,25.000000000005));
#357=AXIS2_PLACEMENT_3D('',#482,#483,#484);
#358=DRAUGHTING_PRE_DEFINED_CURVE_FONT('continuous');
#359=COLOUR_RGB('',0.0,1.0,1.0);
#360=CARTESIAN_POINT('',(-1.46957615897699E-015,11.699999999933,24.0000000000027));
#361=AXIS2_PLACEMENT_3D('',#485,#486,#487);
#362=SURFACE_SIDE_STYLE('',(#488));
#363=DRAUGHTING_PRE_DEFINED_CURVE_FONT('continuous');
#364=COLOUR_RGB('',0.0,1.0,1.0);
#365=EDGE_LOOP('',(#489));
#366=EDGE_LOOP('',(#490));
#367=AXIS2_PLACEMENT_3D('',#491,#492,#493);
#368=SURFACE_SIDE_STYLE('',(#494));
#369=DRAUGHTING_PRE_DEFINED_CURVE_FONT('continuous');
#370=COLOUR_RGB('',0.0,1.0,1.0);
#371=EDGE_LOOP('',(#495));
#372=AXIS2_PLACEMENT_3D('',#496,#497,#498);
#373=SURFACE_SIDE_STYLE('',(#499));
#374=DRAUGHTING_PRE_DEFINED_CURVE_FONT('continuous');
#375=COLOUR_RGB('',0.0,1.0,1.0);
#376=EDGE_LOOP('',(#500));
#377=EDGE_LOOP('',(#501));
#378=AXIS2_PLACEMENT_3D('',#502,#503,#504);
#379=DRAUGHTING_PRE_DEFINED_CURVE_FONT('continuous');
#380=COLOUR_RGB('',0.0,1.0,1.0);
#381=CARTESIAN_POINT('',(-6.03138548580058E-015,15.0,92.4999999999976));
#382=AXIS2_PLACEMENT_3D('',#505,#506,#507);
#383=DRAUGHTING_PRE_DEFINED_CURVE_FONT('continuous');
#384=COLOUR_RGB('',0.0,1.0,1.0);
#385=CARTESIAN_POINT('',(-5.75363218585634E-028,15.000000000001,9.39521193694724E-012));
#386=AXIS2_PLACEMENT_3D('',#508,#509,#510);
#387=DRAUGHTING_PRE_DEFINED_CURVE_FONT('continuous');
#388=COLOUR_RGB('',0.0,1.0,1.0);
#389=CARTESIAN_POINT('',(-5.20474889637613E-015,19.5000000000009,84.999999999998));
#390=AXIS2_PLACEMENT_3D('',#511,#512,#513);
#392=SURFACE_STYLE_FILL_AREA(#514);
#393=ORIENTED_EDGE('',*,*,#71,.F.);
#394=ORIENTED_EDGE('',*,*,#89,.T.);
#395=CARTESIAN_POINT('',(-5.62193282821306E-015,-1.12438656564261E-014,91.813130645134));
#396=DIRECTION('',(6.12323399573677E-017,1.22464679914735E-016,-1.0));
#397=DIRECTION('',(-1.23259516440783E-032,1.0,1.22464679914735E-016));
#398=SURFACE_STYLE_FILL_AREA(#515);
#399=ORIENTED_EDGE('',*,*,#104,.F.);
#400=ORIENTED_EDGE('',*,*,#64,.T.);
#401=CARTESIAN_POINT('',(-3.33086259656081E-015,-6.66172519312161E-015,54.3971143170403));
#402=DIRECTION('',(6.12323399573677E-017,1.22464679914735E-016,-1.0));
#403=DIRECTION('',(-1.23259516440783E-032,1.0,1.22464679914735E-016));
#404=SURFACE_STYLE_FILL_AREA(#516);
#405=ORIENTED_EDGE('',*,*,#106,.F.);
#406=ORIENTED_EDGE('',*,*,#85,.T.);
#407=CARTESIAN_POINT('',(-1.50019232895581E-015,-3.00038465791162E-015,24.500000000005));
#408=DIRECTION('',(6.12323399573676E-017,1.22464679914735E-016,-1.0));
#409=DIRECTION('',(-1.23259516440783E-032,1.0,1.22464679914735E-016));
#410=SURFACE_STYLE_FILL_AREA(#517);
#411=CARTESIAN_POINT('',(-5.13091669418711E-015,-1.02618333883742E-014,83.7942286340757));
#412=DIRECTION('',(6.12323399573677E-017,1.22464679914735E-016,-1.0));
#413=DIRECTION('',(-1.23259516440783E-032,1.0,1.22464679914735E-016));
#414=CARTESIAN_POINT('',(-1.27363267111434E-015,-2.54726534222868E-015,20.8000000000178));
#415=DIRECTION('',(6.12323399573677E-017,1.22464679914735E-016,-1.0));
#416=DIRECTION('',(-1.23259516440783E-032,1.0,1.22464679914735E-016));
#417=SURFACE_STYLE_FILL_AREA(#518);
#418=ORIENTED_EDGE('',*,*,#117,.F.);
#419=ORIENTED_EDGE('',*,*,#102,.T.);
#420=CARTESIAN_POINT('',(-7.73058291961754E-015,-1.54611658392351E-014,126.249999999998));
#421=DIRECTION('',(6.12323399573677E-017,1.22464679914735E-016,-1.0));
#422=DIRECTION('',(-1.23259516440783E-032,1.0,1.22464679914735E-016));
#423=CARTESIAN_POINT('',(-5.57987421036975E-015,-1.11597484207395E-014,91.1262612902704));
#424=DIRECTION('',(6.12323399573677E-017,1.22464679914735E-016,-1.0));
#425=DIRECTION('',(-1.23259516440783E-032,1.0,1.22464679914735E-016));
#426=SURFACE_STYLE_FILL_AREA(#519);
#427=ORIENTED_EDGE('',*,*,#102,.F.);
#428=CARTESIAN_POINT('',(-9.4297803534345E-015,7.49999999999998,153.999999999998));
#429=DIRECTION('',(7.49879891330927E-033,-1.22464679914735E-016,1.0));
#430=DIRECTION('',(1.0,6.12323399573677E-017,0.0));
#431=SURFACE_STYLE_FILL_AREA(#520);
#432=ORIENTED_EDGE('',*,*,#97,.F.);
#433=ORIENTED_EDGE('',*,*,#106,.T.);
#434=CARTESIAN_POINT('',(-1.46957615897714E-015,13.424999999967,24.0000000000052));
#435=DIRECTION('',(8.73391642684467E-029,-1.42635679657605E-012,1.0));
#436=DIRECTION('',(1.0,6.12323399573677E-017,0.0));
#437=SURFACE_STYLE_FILL_AREA(#521);
#438=ORIENTED_EDGE('',*,*,#119,.F.);
#439=ORIENTED_EDGE('',*,*,#66,.T.);
#440=CARTESIAN_POINT('',(-6.36816335557458E-016,-1.27363267111491E-015,10.4000000000136));
#441=DIRECTION('',(6.12323399573677E-017,1.22464679914735E-016,-1.0));
#442=DIRECTION('',(-1.23259516440783E-032,1.0,1.22464679914735E-016));
#443=SURFACE_STYLE_FILL_AREA(#522);
#444=ORIENTED_EDGE('',*,*,#89,.F.);
#445=ORIENTED_EDGE('',*,*,#117,.T.);
#446=CARTESIAN_POINT('',(-14.7627727571536,2.65716776298423,92.4999999999976));
#447=DIRECTION('',(0.0,0.0,1.0));
#448=DIRECTION('',(-1.0,0.0,0.0));
#449=CARTESIAN_POINT('',(-1.53080849893463E-015,-3.06161699786926E-015,25.0000000000072));
#450=DIRECTION('',(6.12323399573676E-017,1.22464679914735E-016,-1.0));
#451=DIRECTION('',(-1.23259516440783E-032,1.0,1.22464679914735E-016));
#452=CARTESIAN_POINT('',(-1.34711147906341E-015,-2.69422295812682E-015,22.0000000000216));
#453=DIRECTION('',(6.12323399573677E-017,1.22464679914735E-016,-1.0));
#454=DIRECTION('',(-1.23259516440783E-032,1.0,1.22464679914735E-016));
#455=CARTESIAN_POINT('',(-5.66399144605636E-015,-1.13279828921127E-014,92.4999999999976));
#456=DIRECTION('',(6.12323399573676E-017,1.22464679914735E-016,-1.0));
#457=DIRECTION('',(-1.23259516440783E-032,1.0,1.22464679914735E-016));
#458=SURFACE_STYLE_FILL_AREA(#523);
#459=ORIENTED_EDGE('',*,*,#66,.F.);
#460=ORIENTED_EDGE('',*,*,#87,.T.);
#461=CARTESIAN_POINT('',(-1.31037207508887E-015,-2.62074415017775E-015,21.4000000000197));
#462=DIRECTION('',(-6.12323399573677E-017,-1.22464679914735E-016,1.0));
#463=DIRECTION('',(-1.23259516440783E-032,1.0,1.22464679914735E-016));
#464=SURFACE_STYLE_FILL_AREA(#524);
#465=ORIENTED_EDGE('',*,*,#104,.T.);
#466=ORIENTED_EDGE('',*,*,#85,.F.);
#467=CARTESIAN_POINT('',(-1.53080849893457E-015,13.3499999999999,25.0000000000061));
#468=DIRECTION('',(6.12323399573677E-017,-6.64127335238564E-013,-1.0));
#469=DIRECTION('',(0.0,-1.0,6.64127335238564E-013));
#470=CARTESIAN_POINT('',(-1.46957615897729E-015,-2.93915231795458E-015,24.0000000000076));
#471=DIRECTION('',(6.12323399573677E-017,1.22464679914735E-016,-1.0));
#472=DIRECTION('',(-1.23259516440783E-032,1.0,1.22464679914735E-016));
#473=SURFACE_STYLE_FILL_AREA(#525);
#474=ORIENTED_EDGE('',*,*,#64,.F.);
#475=ORIENTED_EDGE('',*,*,#121,.T.);
#476=CARTESIAN_POINT('',(-5.16783279528162E-015,-1.03356655905632E-014,84.3971143170369));
#477=DIRECTION('',(-6.12323399573676E-017,-1.22464679914735E-016,1.0));
#478=DIRECTION('',(-1.23259516440783E-032,1.0,1.22464679914735E-016));
#479=CARTESIAN_POINT('',(-9.4297803534345E-015,-1.8859560706869E-014,153.999999999998));
#480=DIRECTION('',(6.12323399573677E-017,1.22464679914735E-016,-1.0));
#481=DIRECTION('',(-1.23259516440783E-032,1.0,1.22464679914735E-016));
#482=CARTESIAN_POINT('',(-1.5308084989345E-015,-3.06161699786899E-015,25.000000000005));
#483=DIRECTION('',(6.12323399573677E-017,1.22464679914735E-016,-1.0));
#484=DIRECTION('',(-1.23259516440783E-032,1.0,1.22464679914735E-016));
#485=CARTESIAN_POINT('',(-1.46957615897699E-015,-2.93915231795398E-015,24.0000000000027));
#486=DIRECTION('',(6.12323399573676E-017,1.22464679914735E-016,-1.0));
#487=DIRECTION('',(-1.23259516440783E-032,1.0,1.22464679914735E-016));
#488=SURFACE_STYLE_FILL_AREA(#526);
#489=ORIENTED_EDGE('',*,*,#121,.F.);
#490=ORIENTED_EDGE('',*,*,#71,.T.);
#491=CARTESIAN_POINT('',(-5.39231155337294E-015,-1.07846231067459E-014,88.0631306451342));
#492=DIRECTION('',(6.12323399573677E-017,1.22464679914735E-016,-1.0));
#493=DIRECTION('',(-1.23259516440783E-032,1.0,1.22464679914735E-016));
#494=SURFACE_STYLE_FILL_AREA(#527);
#495=ORIENTED_EDGE('',*,*,#119,.T.);
#496=CARTESIAN_POINT('',(-5.748356920048E-028,7.50000000000048,9.38718802449028E-012));
#497=DIRECTION('',(6.12323399573677E-017,1.06985499426148E-015,-1.0));
#498=DIRECTION('',(-1.0,0.0,-6.12323399573677E-017));
#499=SURFACE_STYLE_FILL_AREA(#528);
#500=ORIENTED_EDGE('',*,*,#87,.F.);
#501=ORIENTED_EDGE('',*,*,#97,.T.);
#502=CARTESIAN_POINT('',(-1.40834381902035E-015,-2.8166876380407E-015,23.0000000000146));
#503=DIRECTION('',(6.12323399573677E-017,1.22464679914735E-016,-1.0));
#504=DIRECTION('',(-1.23259516440783E-032,1.0,1.22464679914735E-016));
#505=CARTESIAN_POINT('',(-6.03138548580058E-015,-1.20627709716012E-014,92.4999999999976));
#506=DIRECTION('',(6.12323399573677E-017,1.22464679914735E-016,-1.0));
#507=DIRECTION('',(-1.23259516440783E-032,1.0,1.22464679914735E-016));
#508=CARTESIAN_POINT('',(-5.74308165423967E-028,-1.14861633084793E-027,9.37916411203332E-012));
#509=DIRECTION('',(6.12323399573676E-017,1.22464679914735E-016,-1.0));
#510=DIRECTION('',(-1.23259516440783E-032,1.0,1.22464679914735E-016));
#511=CARTESIAN_POINT('',(-5.20474889637613E-015,-1.04094977927523E-014,84.999999999998));
#512=DIRECTION('',(6.12323399573677E-017,1.22464679914735E-016,-1.0));
#513=DIRECTION('',(-1.23259516440783E-032,1.0,1.22464679914735E-016));
#514=FILL_AREA_STYLE('',(#529));
#515=FILL_AREA_STYLE('',(#530));
#516=FILL_AREA_STYLE('',(#531));
#517=FILL_AREA_STYLE('',(#532));
#518=FILL_AREA_STYLE('',(#533));
#519=FILL_AREA_STYLE('',(#534));
#520=FILL_AREA_STYLE('',(#535));
#521=FILL_AREA_STYLE('',(#536));
#522=FILL_AREA_STYLE('',(#537));
#523=FILL_AREA_STYLE('',(#538));
#524=FILL_AREA_STYLE('',(#539));
#525=FILL_AREA_STYLE('',(#540));
#526=FILL_AREA_STYLE('',(#541));
#527=FILL_AREA_STYLE('',(#542));
#528=FILL_AREA_STYLE('',(#543));
#529=FILL_AREA_STYLE_COLOUR('',#544);
#530=FILL_AREA_STYLE_COLOUR('',#545);
#531=FILL_AREA_STYLE_COLOUR('',#546);
#532=FILL_AREA_STYLE_COLOUR('',#547);
#533=FILL_AREA_STYLE_COLOUR('',#548);
#534=FILL_AREA_STYLE_COLOUR('',#549);
#535=FILL_AREA_STYLE_COLOUR('',#550);
#536=FILL_AREA_STYLE_COLOUR('',#551);
#537=FILL_AREA_STYLE_COLOUR('',#552);
#538=FILL_AREA_STYLE_COLOUR('',#553);
#539=FILL_AREA_STYLE_COLOUR('',#554);
#540=FILL_AREA_STYLE_COLOUR('',#555);
#541=FILL_AREA_STYLE_COLOUR('',#556);
#542=FILL_AREA_STYLE_COLOUR('',#557);
#543=FILL_AREA_STYLE_COLOUR('',#558);
#544=COLOUR_RGB('',0.0,1.0,1.0);
#545=COLOUR_RGB('',0.0,1.0,1.0);
#546=COLOUR_RGB('',0.0,1.0,1.0);
#547=COLOUR_RGB('',0.0,1.0,1.0);
#548=COLOUR_RGB('',0.0,1.0,1.0);
#549=COLOUR_RGB('',0.0,1.0,1.0);
#550=COLOUR_RGB('',0.0,1.0,1.0);
#551=COLOUR_RGB('',0.0,1.0,1.0);
#552=COLOUR_RGB('',0.0,1.0,1.0);
#553=COLOUR_RGB('',0.0,1.0,1.0);
#554=COLOUR_RGB('',0.0,1.0,1.0);
#555=COLOUR_RGB('',0.0,1.0,1.0);
#556=COLOUR_RGB('',0.0,1.0,1.0);
#557=COLOUR_RGB('',0.0,1.0,1.0);
#558=COLOUR_RGB('',0.0,1.0,1.0);
ENDSEC;
END-ISO-10303-21;
