ISO-10303-21;
HEADER;
FILE_DESCRIPTION((''),'1');
FILE_NAME('T:/02_3D_Field-HP\X2\FF71FF6FFF8CFF9F5916\X0\2013/02_Step_Field-HP\X2\FF71FF6FFF8CFF9F5916\X0\2013/MGT20-d-85_090071-0140112.stp','2017-02-08T07:58:13',(''),(''),'Spatial Interop R21 SP3','Kubotek KeyCreator 2011 V10.0.2 (22737)',' ');
FILE_SCHEMA(('automotive_design'));
ENDSEC;
DATA;
#1=MECHANICAL_DESIGN_GEOMETRIC_PRESENTATION_REPRESENTATION(' ',(#10,#11,#12,#13,#14,#15,#16,#17,#18,#19,#20,#21,#22,#23,#24,#25,#26,#27,#28,#29,#30,#31,#32,#33,#34,#35,#36,#37),#6);
#2=PRODUCT_DEFINITION_CONTEXT('',#38,'design');
#3=APPLICATION_PROTOCOL_DEFINITION('INTERNATIONAL STANDARD','automotive_design',1994,#38);
#4=PRODUCT_CATEGORY_RELATIONSHIP('NONE','NONE',#39,#40);
#5=SHAPE_DEFINITION_REPRESENTATION(#41,#42);
#6= (GEOMETRIC_REPRESENTATION_CONTEXT(3)GLOBAL_UNCERTAINTY_ASSIGNED_CONTEXT((#45))GLOBAL_UNIT_ASSIGNED_CONTEXT((#47,#48,#49))REPRESENTATION_CONTEXT('NONE','WORKSPACE'));
#10=STYLED_ITEM('',(#51),#52);
#11=STYLED_ITEM('',(#53,#54),#55);
#12=STYLED_ITEM('',(#56,#57),#58);
#13=STYLED_ITEM('',(#59,#60),#61);
#14=STYLED_ITEM('',(#62,#63),#64);
#15=STYLED_ITEM('',(#65),#66);
#16=STYLED_ITEM('',(#67),#68);
#17=STYLED_ITEM('',(#69,#70),#71);
#18=STYLED_ITEM('',(#72),#73);
#19=STYLED_ITEM('',(#74,#75),#76);
#20=STYLED_ITEM('',(#77,#78),#79);
#21=STYLED_ITEM('',(#80),#81);
#22=STYLED_ITEM('',(#82,#83),#84);
#23=STYLED_ITEM('',(#85),#86);
#24=STYLED_ITEM('',(#87,#88),#89);
#25=STYLED_ITEM('',(#90),#91);
#26=STYLED_ITEM('',(#92),#93);
#27=STYLED_ITEM('',(#94),#95);
#28=STYLED_ITEM('',(#96),#97);
#29=STYLED_ITEM('',(#98,#99),#100);
#30=STYLED_ITEM('',(#101),#102);
#31=STYLED_ITEM('',(#103),#104);
#32=STYLED_ITEM('',(#105),#106);
#33=STYLED_ITEM('',(#107,#108),#109);
#34=STYLED_ITEM('',(#110,#111),#112);
#35=STYLED_ITEM('',(#113,#114),#115);
#36=STYLED_ITEM('',(#116,#117),#118);
#37=STYLED_ITEM('',(#119,#120),#121);
#38=APPLICATION_CONTEXT(' ');
#39=PRODUCT_CATEGORY('part','NONE');
#40=PRODUCT_RELATED_PRODUCT_CATEGORY('detail',' ',(#122));
#41=PRODUCT_DEFINITION_SHAPE('NONE','NONE',#123);
#42=ADVANCED_BREP_SHAPE_REPRESENTATION('240[2]',(#79,#124),#6);
#45=UNCERTAINTY_MEASURE_WITH_UNIT(LENGTH_MEASURE(1.0E-006),#47,'','');
#47= (CONVERSION_BASED_UNIT('MILLIMETRE',#127)LENGTH_UNIT()NAMED_UNIT(#130));
#48= (NAMED_UNIT(#132)PLANE_ANGLE_UNIT()SI_UNIT($,.RADIAN.));
#49= (NAMED_UNIT(#132)SOLID_ANGLE_UNIT()SI_UNIT($,.STERADIAN.));
#51=PRESENTATION_STYLE_ASSIGNMENT((#138));
#52=EDGE_CURVE('240[2]',#139,#139,#140,.T.);
#53=PRESENTATION_STYLE_ASSIGNMENT((#141));
#54=PRESENTATION_STYLE_ASSIGNMENT((#142));
#55=ADVANCED_FACE('240[2]',(#143,#144),#145,.T.);
#56=PRESENTATION_STYLE_ASSIGNMENT((#146));
#57=PRESENTATION_STYLE_ASSIGNMENT((#147));
#58=ADVANCED_FACE('240[2]',(#148,#149),#150,.T.);
#59=PRESENTATION_STYLE_ASSIGNMENT((#151));
#60=PRESENTATION_STYLE_ASSIGNMENT((#152));
#61=ADVANCED_FACE('240[2]',(#153),#154,.T.);
#62=PRESENTATION_STYLE_ASSIGNMENT((#155));
#63=PRESENTATION_STYLE_ASSIGNMENT((#156));
#64=ADVANCED_FACE('240[2]',(#157,#158),#159,.T.);
#65=PRESENTATION_STYLE_ASSIGNMENT((#160));
#66=EDGE_CURVE('240[2]',#161,#161,#162,.T.);
#67=PRESENTATION_STYLE_ASSIGNMENT((#163));
#68=EDGE_CURVE('240[2]',#164,#164,#165,.T.);
#69=PRESENTATION_STYLE_ASSIGNMENT((#166));
#70=PRESENTATION_STYLE_ASSIGNMENT((#167));
#71=ADVANCED_FACE('240[2]',(#168,#169),#170,.T.);
#72=PRESENTATION_STYLE_ASSIGNMENT((#171));
#73=EDGE_CURVE('240[2]',#172,#172,#173,.T.);
#74=PRESENTATION_STYLE_ASSIGNMENT((#174));
#75=PRESENTATION_STYLE_ASSIGNMENT((#175));
#76=ADVANCED_FACE('240[2]',(#176,#177),#178,.T.);
#77=PRESENTATION_STYLE_ASSIGNMENT((#179));
#78=PRESENTATION_STYLE_ASSIGNMENT((#180));
#79=MANIFOLD_SOLID_BREP('240[2]',#181);
#80=PRESENTATION_STYLE_ASSIGNMENT((#182));
#81=EDGE_CURVE('240[2]',#183,#183,#184,.T.);
#82=PRESENTATION_STYLE_ASSIGNMENT((#185));
#83=PRESENTATION_STYLE_ASSIGNMENT((#186));
#84=ADVANCED_FACE('240[2]',(#187,#188),#189,.T.);
#85=PRESENTATION_STYLE_ASSIGNMENT((#190));
#86=EDGE_CURVE('240[2]',#191,#191,#192,.T.);
#87=PRESENTATION_STYLE_ASSIGNMENT((#193));
#88=PRESENTATION_STYLE_ASSIGNMENT((#194));
#89=ADVANCED_FACE('240[2]',(#195,#196),#197,.T.);
#90=PRESENTATION_STYLE_ASSIGNMENT((#198));
#91=EDGE_CURVE('240[2]',#199,#199,#200,.T.);
#92=PRESENTATION_STYLE_ASSIGNMENT((#201));
#93=EDGE_CURVE('240[2]',#202,#202,#203,.T.);
#94=PRESENTATION_STYLE_ASSIGNMENT((#204));
#95=EDGE_CURVE('240[2]',#205,#205,#206,.T.);
#96=PRESENTATION_STYLE_ASSIGNMENT((#207));
#97=EDGE_CURVE('240[2]',#208,#208,#209,.T.);
#98=PRESENTATION_STYLE_ASSIGNMENT((#210));
#99=PRESENTATION_STYLE_ASSIGNMENT((#211));
#100=ADVANCED_FACE('240[2]',(#212,#213),#214,.T.);
#101=PRESENTATION_STYLE_ASSIGNMENT((#215));
#102=EDGE_CURVE('240[2]',#216,#216,#217,.T.);
#103=PRESENTATION_STYLE_ASSIGNMENT((#218));
#104=EDGE_CURVE('240[2]',#219,#219,#220,.T.);
#105=PRESENTATION_STYLE_ASSIGNMENT((#221));
#106=EDGE_CURVE('240[2]',#222,#222,#223,.T.);
#107=PRESENTATION_STYLE_ASSIGNMENT((#224));
#108=PRESENTATION_STYLE_ASSIGNMENT((#225));
#109=ADVANCED_FACE('240[2]',(#226,#227),#228,.T.);
#110=PRESENTATION_STYLE_ASSIGNMENT((#229));
#111=PRESENTATION_STYLE_ASSIGNMENT((#230));
#112=ADVANCED_FACE('240[2]',(#231,#232),#233,.T.);
#113=PRESENTATION_STYLE_ASSIGNMENT((#234));
#114=PRESENTATION_STYLE_ASSIGNMENT((#235));
#115=ADVANCED_FACE('240[2]',(#236,#237),#238,.T.);
#116=PRESENTATION_STYLE_ASSIGNMENT((#239));
#117=PRESENTATION_STYLE_ASSIGNMENT((#240));
#118=ADVANCED_FACE('240[2]',(#241,#242),#243,.T.);
#119=PRESENTATION_STYLE_ASSIGNMENT((#244));
#120=PRESENTATION_STYLE_ASSIGNMENT((#245));
#121=ADVANCED_FACE('240[2]',(#246),#247,.T.);
#122=PRODUCT('240[2]','240[2]','PART-240[2]-DESC',(#248));
#123=PRODUCT_DEFINITION('NONE','NONE',#249,#2);
#124=AXIS2_PLACEMENT_3D('',#250,#251,#252);
#127=LENGTH_MEASURE_WITH_UNIT(LENGTH_MEASURE(1.0),#253);
#130=DIMENSIONAL_EXPONENTS(1.0,0.0,0.0,0.0,0.0,0.0,0.0);
#132=DIMENSIONAL_EXPONENTS(0.0,0.0,0.0,0.0,0.0,0.0,0.0);
#138=CURVE_STYLE('',#254,POSITIVE_LENGTH_MEASURE(1000.0),#255);
#139=VERTEX_POINT('',#256);
#140=CIRCLE('',#257,15.0000000000669);
#141=SURFACE_STYLE_USAGE(.BOTH.,#258);
#142=CURVE_STYLE('',#259,POSITIVE_LENGTH_MEASURE(1000.0),#260);
#143=FACE_BOUND('',#261,.T.);
#144=FACE_BOUND('',#262,.T.);
#145=CONICAL_SURFACE('',#263,19.2500000000009,0.349065850398894);
#146=SURFACE_STYLE_USAGE(.BOTH.,#264);
#147=CURVE_STYLE('',#265,POSITIVE_LENGTH_MEASURE(1000.0),#266);
#148=FACE_BOUND('',#267,.T.);
#149=FACE_BOUND('',#268,.T.);
#150=CYLINDRICAL_SURFACE('',#269,19.5000000000009);
#151=SURFACE_STYLE_USAGE(.BOTH.,#270);
#152=CURVE_STYLE('',#271,POSITIVE_LENGTH_MEASURE(1000.0),#272);
#153=FACE_OUTER_BOUND('',#273,.T.);
#154=PLANE('',#274);
#155=SURFACE_STYLE_USAGE(.BOTH.,#275);
#156=CURVE_STYLE('',#276,POSITIVE_LENGTH_MEASURE(1000.0),#277);
#157=FACE_BOUND('',#278,.T.);
#158=FACE_BOUND('',#279,.T.);
#159=CONICAL_SURFACE('',#280,17.2500000000339,1.30899693899576);
#160=CURVE_STYLE('',#281,POSITIVE_LENGTH_MEASURE(1000.0),#282);
#161=VERTEX_POINT('',#283);
#162=CIRCLE('',#284,11.699999999933);
#163=CURVE_STYLE('',#285,POSITIVE_LENGTH_MEASURE(1000.0),#286);
#164=VERTEX_POINT('',#287);
#165=CIRCLE('',#288,15.000000000001);
#166=SURFACE_STYLE_USAGE(.BOTH.,#289);
#167=CURVE_STYLE('',#290,POSITIVE_LENGTH_MEASURE(1000.0),#291);
#168=FACE_BOUND('',#292,.T.);
#169=FACE_BOUND('',#293,.T.);
#170=CYLINDRICAL_SURFACE('',#294,11.699999999933);
#171=CURVE_STYLE('',#295,POSITIVE_LENGTH_MEASURE(1000.0),#296);
#172=VERTEX_POINT('',#297);
#173=CIRCLE('',#298,19.0000000000009);
#174=SURFACE_STYLE_USAGE(.BOTH.,#299);
#175=CURVE_STYLE('',#300,POSITIVE_LENGTH_MEASURE(1000.0),#301);
#176=FACE_OUTER_BOUND('',#302,.T.);
#177=FACE_BOUND('',#303,.T.);
#178=PLANE('',#304);
#179=SURFACE_STYLE_USAGE(.BOTH.,#305);
#180=CURVE_STYLE('',#306,POSITIVE_LENGTH_MEASURE(1000.0),#307);
#181=CLOSED_SHELL('',(#76,#55,#58,#64,#118,#115,#71,#89,#109,#112,#84,#61,#121,#100));
#182=CURVE_STYLE('',#308,POSITIVE_LENGTH_MEASURE(1000.0),#309);
#183=VERTEX_POINT('',#310);
#184=CIRCLE('',#311,15.0);
#185=SURFACE_STYLE_USAGE(.BOTH.,#312);
#186=CURVE_STYLE('',#313,POSITIVE_LENGTH_MEASURE(1000.0),#314);
#187=FACE_BOUND('',#315,.T.);
#188=FACE_BOUND('',#316,.T.);
#189=CYLINDRICAL_SURFACE('',#317,15.0000000000005);
#190=CURVE_STYLE('',#318,POSITIVE_LENGTH_MEASURE(1000.0),#319);
#191=VERTEX_POINT('',#320);
#192=CIRCLE('',#321,11.699999999933);
#193=SURFACE_STYLE_USAGE(.BOTH.,#322);
#194=CURVE_STYLE('',#323,POSITIVE_LENGTH_MEASURE(1000.0),#324);
#195=FACE_OUTER_BOUND('',#325,.T.);
#196=FACE_BOUND('',#326,.T.);
#197=PLANE('',#327);
#198=CURVE_STYLE('',#328,POSITIVE_LENGTH_MEASURE(1000.0),#329);
#199=VERTEX_POINT('',#330);
#200=CIRCLE('',#331,15.0);
#201=CURVE_STYLE('',#332,POSITIVE_LENGTH_MEASURE(1000.0),#333);
#202=VERTEX_POINT('',#334);
#203=CIRCLE('',#335,19.5000000000009);
#204=CURVE_STYLE('',#336,POSITIVE_LENGTH_MEASURE(1000.0),#337);
#205=VERTEX_POINT('',#338);
#206=CIRCLE('',#339,15.0);
#207=CURVE_STYLE('',#340,POSITIVE_LENGTH_MEASURE(1000.0),#341);
#208=VERTEX_POINT('',#342);
#209=CIRCLE('',#343,15.0000000000669);
#210=SURFACE_STYLE_USAGE(.BOTH.,#344);
#211=CURVE_STYLE('',#345,POSITIVE_LENGTH_MEASURE(1000.0),#346);
#212=FACE_BOUND('',#347,.T.);
#213=FACE_BOUND('',#348,.T.);
#214=CYLINDRICAL_SURFACE('',#349,15.0);
#215=CURVE_STYLE('',#350,POSITIVE_LENGTH_MEASURE(1000.0),#351);
#216=VERTEX_POINT('',#352);
#217=CIRCLE('',#353,19.5000000000009);
#218=CURVE_STYLE('',#354,POSITIVE_LENGTH_MEASURE(1000.0),#355);
#219=VERTEX_POINT('',#356);
#220=CIRCLE('',#357,15.150000000001);
#221=CURVE_STYLE('',#358,POSITIVE_LENGTH_MEASURE(1000.0),#359);
#222=VERTEX_POINT('',#360);
#223=CIRCLE('',#361,15.150000000001);
#224=SURFACE_STYLE_USAGE(.BOTH.,#362);
#225=CURVE_STYLE('',#363,POSITIVE_LENGTH_MEASURE(1000.0),#364);
#226=FACE_BOUND('',#365,.T.);
#227=FACE_BOUND('',#366,.T.);
#228=CYLINDRICAL_SURFACE('',#367,15.150000000001);
#229=SURFACE_STYLE_USAGE(.BOTH.,#368);
#230=CURVE_STYLE('',#369,POSITIVE_LENGTH_MEASURE(1000.0),#370);
#231=FACE_BOUND('',#371,.T.);
#232=FACE_BOUND('',#372,.T.);
#233=CONICAL_SURFACE('',#373,15.0750000000005,0.124354994547199);
#234=SURFACE_STYLE_USAGE(.BOTH.,#374);
#235=CURVE_STYLE('',#375,POSITIVE_LENGTH_MEASURE(1000.0),#376);
#236=FACE_OUTER_BOUND('',#377,.T.);
#237=FACE_BOUND('',#378,.T.);
#238=PLANE('',#379);
#239=SURFACE_STYLE_USAGE(.BOTH.,#380);
#240=CURVE_STYLE('',#381,POSITIVE_LENGTH_MEASURE(1000.0),#382);
#241=FACE_BOUND('',#383,.T.);
#242=FACE_BOUND('',#384,.T.);
#243=CYLINDRICAL_SURFACE('',#385,15.0000000000669);
#244=SURFACE_STYLE_USAGE(.BOTH.,#386);
#245=CURVE_STYLE('',#387,POSITIVE_LENGTH_MEASURE(1000.0),#388);
#246=FACE_OUTER_BOUND('',#389,.T.);
#247=PLANE('',#390);
#248=PRODUCT_CONTEXT('',#38,'mechanical');
#249=PRODUCT_DEFINITION_FORMATION_WITH_SPECIFIED_SOURCE(' ','NONE',#122,.NOT_KNOWN.);
#250=CARTESIAN_POINT('',(0.0,0.0,0.0));
#251=DIRECTION('',(0.0,0.0,1.0));
#252=DIRECTION('',(1.0,0.0,0.0));
#253= (NAMED_UNIT(#130)LENGTH_UNIT()SI_UNIT(.MILLI.,.METRE.));
#254=DRAUGHTING_PRE_DEFINED_CURVE_FONT('continuous');
#255=COLOUR_RGB('',0.0,1.0,1.0);
#256=CARTESIAN_POINT('',(-1.5308084989345E-015,15.0000000000668,25.000000000005));
#257=AXIS2_PLACEMENT_3D('',#392,#393,#394);
#258=SURFACE_SIDE_STYLE('',(#395));
#259=DRAUGHTING_PRE_DEFINED_CURVE_FONT('continuous');
#260=COLOUR_RGB('',0.0,1.0,1.0);
#261=EDGE_LOOP('',(#396));
#262=EDGE_LOOP('',(#397));
#263=AXIS2_PLACEMENT_3D('',#398,#399,#400);
#264=SURFACE_SIDE_STYLE('',(#401));
#265=DRAUGHTING_PRE_DEFINED_CURVE_FONT('continuous');
#266=COLOUR_RGB('',0.0,1.0,1.0);
#267=EDGE_LOOP('',(#402));
#268=EDGE_LOOP('',(#403));
#269=AXIS2_PLACEMENT_3D('',#404,#405,#406);
#270=SURFACE_SIDE_STYLE('',(#407));
#271=DRAUGHTING_PRE_DEFINED_CURVE_FONT('continuous');
#272=COLOUR_RGB('',0.0,1.0,1.0);
#273=EDGE_LOOP('',(#408));
#274=AXIS2_PLACEMENT_3D('',#409,#410,#411);
#275=SURFACE_SIDE_STYLE('',(#412));
#276=DRAUGHTING_PRE_DEFINED_CURVE_FONT('continuous');
#277=COLOUR_RGB('',0.0,1.0,1.0);
#278=EDGE_LOOP('',(#413));
#279=EDGE_LOOP('',(#414));
#280=AXIS2_PLACEMENT_3D('',#415,#416,#417);
#281=DRAUGHTING_PRE_DEFINED_CURVE_FONT('continuous');
#282=COLOUR_RGB('',0.0,1.0,1.0);
#283=CARTESIAN_POINT('',(-1.53080849893463E-015,11.699999999933,25.0000000000072));
#284=AXIS2_PLACEMENT_3D('',#418,#419,#420);
#285=DRAUGHTING_PRE_DEFINED_CURVE_FONT('continuous');
#286=COLOUR_RGB('',0.0,1.0,1.0);
#287=CARTESIAN_POINT('',(-5.75363218585634E-028,15.000000000001,9.39521193694724E-012));
#288=AXIS2_PLACEMENT_3D('',#421,#422,#423);
#289=SURFACE_SIDE_STYLE('',(#424));
#290=DRAUGHTING_PRE_DEFINED_CURVE_FONT('continuous');
#291=COLOUR_RGB('',0.0,1.0,1.0);
#292=EDGE_LOOP('',(#425));
#293=EDGE_LOOP('',(#426));
#294=AXIS2_PLACEMENT_3D('',#427,#428,#429);
#295=DRAUGHTING_PRE_DEFINED_CURVE_FONT('continuous');
#296=COLOUR_RGB('',0.0,1.0,1.0);
#297=CARTESIAN_POINT('',(-5.66399144605636E-015,19.0000000000009,92.4999999999976));
#298=AXIS2_PLACEMENT_3D('',#430,#431,#432);
#299=SURFACE_SIDE_STYLE('',(#433));
#300=DRAUGHTING_PRE_DEFINED_CURVE_FONT('continuous');
#301=COLOUR_RGB('',0.0,1.0,1.0);
#302=EDGE_LOOP('',(#434));
#303=EDGE_LOOP('',(#435));
#304=AXIS2_PLACEMENT_3D('',#436,#437,#438);
#305=SURFACE_SIDE_STYLE('',(#439));
#306=DRAUGHTING_PRE_DEFINED_CURVE_FONT('continuous');
#307=COLOUR_RGB('',0.0,1.0,1.0);
#308=DRAUGHTING_PRE_DEFINED_CURVE_FONT('continuous');
#309=COLOUR_RGB('',0.0,1.0,1.0);
#310=CARTESIAN_POINT('',(-9.4297803534345E-015,15.0,153.999999999998));
#311=AXIS2_PLACEMENT_3D('',#440,#441,#442);
#312=SURFACE_SIDE_STYLE('',(#443));
#313=DRAUGHTING_PRE_DEFINED_CURVE_FONT('continuous');
#314=COLOUR_RGB('',0.0,1.0,1.0);
#315=EDGE_LOOP('',(#444));
#316=EDGE_LOOP('',(#445));
#317=AXIS2_PLACEMENT_3D('',#446,#447,#448);
#318=DRAUGHTING_PRE_DEFINED_CURVE_FONT('continuous');
#319=COLOUR_RGB('',0.0,1.0,1.0);
#320=CARTESIAN_POINT('',(-1.46957615897699E-015,11.699999999933,24.0000000000027));
#321=AXIS2_PLACEMENT_3D('',#449,#450,#451);
#322=SURFACE_SIDE_STYLE('',(#452));
#323=DRAUGHTING_PRE_DEFINED_CURVE_FONT('continuous');
#324=COLOUR_RGB('',0.0,1.0,1.0);
#325=EDGE_LOOP('',(#453));
#326=EDGE_LOOP('',(#454));
#327=AXIS2_PLACEMENT_3D('',#455,#456,#457);
#328=DRAUGHTING_PRE_DEFINED_CURVE_FONT('continuous');
#329=COLOUR_RGB('',0.0,1.0,1.0);
#330=CARTESIAN_POINT('',(-1.27363267111434E-015,15.0,20.8000000000178));
#331=AXIS2_PLACEMENT_3D('',#458,#459,#460);
#332=DRAUGHTING_PRE_DEFINED_CURVE_FONT('continuous');
#333=COLOUR_RGB('',0.0,1.0,1.0);
#334=CARTESIAN_POINT('',(-5.57987421036975E-015,19.5000000000009,91.1262612902704));
#335=AXIS2_PLACEMENT_3D('',#461,#462,#463);
#336=DRAUGHTING_PRE_DEFINED_CURVE_FONT('continuous');
#337=COLOUR_RGB('',0.0,1.0,1.0);
#338=CARTESIAN_POINT('',(-6.03138548580058E-015,15.0,92.4999999999976));
#339=AXIS2_PLACEMENT_3D('',#464,#465,#466);
#340=DRAUGHTING_PRE_DEFINED_CURVE_FONT('continuous');
#341=COLOUR_RGB('',0.0,1.0,1.0);
#342=CARTESIAN_POINT('',(-5.13091669418711E-015,15.0000000000668,83.7942286340757));
#343=AXIS2_PLACEMENT_3D('',#467,#468,#469);
#344=SURFACE_SIDE_STYLE('',(#470));
#345=DRAUGHTING_PRE_DEFINED_CURVE_FONT('continuous');
#346=COLOUR_RGB('',0.0,1.0,1.0);
#347=EDGE_LOOP('',(#471));
#348=EDGE_LOOP('',(#472));
#349=AXIS2_PLACEMENT_3D('',#473,#474,#475);
#350=DRAUGHTING_PRE_DEFINED_CURVE_FONT('continuous');
#351=COLOUR_RGB('',0.0,1.0,1.0);
#352=CARTESIAN_POINT('',(-5.20474889637613E-015,19.5000000000009,84.999999999998));
#353=AXIS2_PLACEMENT_3D('',#476,#477,#478);
#354=DRAUGHTING_PRE_DEFINED_CURVE_FONT('continuous');
#355=COLOUR_RGB('',0.0,1.0,1.0);
#356=CARTESIAN_POINT('',(-1.46957615897729E-015,15.150000000001,24.0000000000077));
#357=AXIS2_PLACEMENT_3D('',#479,#480,#481);
#358=DRAUGHTING_PRE_DEFINED_CURVE_FONT('continuous');
#359=COLOUR_RGB('',0.0,1.0,1.0);
#360=CARTESIAN_POINT('',(-1.34711147906341E-015,15.150000000001,22.0000000000216));
#361=AXIS2_PLACEMENT_3D('',#482,#483,#484);
#362=SURFACE_SIDE_STYLE('',(#485));
#363=DRAUGHTING_PRE_DEFINED_CURVE_FONT('continuous');
#364=COLOUR_RGB('',0.0,1.0,1.0);
#365=EDGE_LOOP('',(#486));
#366=EDGE_LOOP('',(#487));
#367=AXIS2_PLACEMENT_3D('',#488,#489,#490);
#368=SURFACE_SIDE_STYLE('',(#491));
#369=DRAUGHTING_PRE_DEFINED_CURVE_FONT('continuous');
#370=COLOUR_RGB('',0.0,1.0,1.0);
#371=EDGE_LOOP('',(#492));
#372=EDGE_LOOP('',(#493));
#373=AXIS2_PLACEMENT_3D('',#494,#495,#496);
#374=SURFACE_SIDE_STYLE('',(#497));
#375=DRAUGHTING_PRE_DEFINED_CURVE_FONT('continuous');
#376=COLOUR_RGB('',0.0,1.0,1.0);
#377=EDGE_LOOP('',(#498));
#378=EDGE_LOOP('',(#499));
#379=AXIS2_PLACEMENT_3D('',#500,#501,#502);
#380=SURFACE_SIDE_STYLE('',(#503));
#381=DRAUGHTING_PRE_DEFINED_CURVE_FONT('continuous');
#382=COLOUR_RGB('',0.0,1.0,1.0);
#383=EDGE_LOOP('',(#504));
#384=EDGE_LOOP('',(#505));
#385=AXIS2_PLACEMENT_3D('',#506,#507,#508);
#386=SURFACE_SIDE_STYLE('',(#509));
#387=DRAUGHTING_PRE_DEFINED_CURVE_FONT('continuous');
#388=COLOUR_RGB('',0.0,1.0,1.0);
#389=EDGE_LOOP('',(#510));
#390=AXIS2_PLACEMENT_3D('',#511,#512,#513);
#392=CARTESIAN_POINT('',(-1.5308084989345E-015,-3.06161699786899E-015,25.000000000005));
#393=DIRECTION('',(6.12323399573677E-017,1.22464679914735E-016,-1.0));
#394=DIRECTION('',(-1.23259516440783E-032,1.0,1.22464679914735E-016));
#395=SURFACE_STYLE_FILL_AREA(#514);
#396=ORIENTED_EDGE('',*,*,#93,.F.);
#397=ORIENTED_EDGE('',*,*,#73,.T.);
#398=CARTESIAN_POINT('',(-5.62193282821306E-015,-1.12438656564261E-014,91.813130645134));
#399=DIRECTION('',(6.12323399573677E-017,1.22464679914735E-016,-1.0));
#400=DIRECTION('',(-1.23259516440783E-032,1.0,1.22464679914735E-016));
#401=SURFACE_STYLE_FILL_AREA(#515);
#402=ORIENTED_EDGE('',*,*,#102,.F.);
#403=ORIENTED_EDGE('',*,*,#93,.T.);
#404=CARTESIAN_POINT('',(-5.39231155337294E-015,-1.07846231067459E-014,88.0631306451342));
#405=DIRECTION('',(-6.12323399573677E-017,-1.22464679914735E-016,1.0));
#406=DIRECTION('',(-1.23259516440783E-032,1.0,1.22464679914735E-016));
#407=SURFACE_STYLE_FILL_AREA(#516);
#408=ORIENTED_EDGE('',*,*,#68,.T.);
#409=CARTESIAN_POINT('',(-5.748356920048E-028,7.50000000000048,9.38718802449028E-012));
#410=DIRECTION('',(6.12323399573677E-017,1.06985499426148E-015,-1.0));
#411=DIRECTION('',(-1.0,0.0,-6.12323399573677E-017));
#412=SURFACE_STYLE_FILL_AREA(#517);
#413=ORIENTED_EDGE('',*,*,#97,.F.);
#414=ORIENTED_EDGE('',*,*,#102,.T.);
#415=CARTESIAN_POINT('',(-5.16783279528162E-015,-1.03356655905632E-014,84.3971143170369));
#416=DIRECTION('',(-6.12323399573676E-017,-1.22464679914735E-016,1.0));
#417=DIRECTION('',(-1.23259516440783E-032,1.0,1.22464679914735E-016));
#418=CARTESIAN_POINT('',(-1.53080849893463E-015,-3.06161699786926E-015,25.0000000000072));
#419=DIRECTION('',(6.12323399573676E-017,1.22464679914735E-016,-1.0));
#420=DIRECTION('',(-1.23259516440783E-032,1.0,1.22464679914735E-016));
#421=CARTESIAN_POINT('',(-5.74308165423967E-028,-1.14861633084793E-027,9.37916411203332E-012));
#422=DIRECTION('',(6.12323399573676E-017,1.22464679914735E-016,-1.0));
#423=DIRECTION('',(-1.23259516440783E-032,1.0,1.22464679914735E-016));
#424=SURFACE_STYLE_FILL_AREA(#518);
#425=ORIENTED_EDGE('',*,*,#86,.F.);
#426=ORIENTED_EDGE('',*,*,#66,.T.);
#427=CARTESIAN_POINT('',(-1.50019232895581E-015,-3.00038465791162E-015,24.500000000005));
#428=DIRECTION('',(-6.12323399573676E-017,-1.22464679914735E-016,1.0));
#429=DIRECTION('',(-1.23259516440783E-032,1.0,1.22464679914735E-016));
#430=CARTESIAN_POINT('',(-5.66399144605636E-015,-1.13279828921127E-014,92.4999999999976));
#431=DIRECTION('',(6.12323399573676E-017,1.22464679914735E-016,-1.0));
#432=DIRECTION('',(-1.23259516440783E-032,1.0,1.22464679914735E-016));
#433=SURFACE_STYLE_FILL_AREA(#519);
#434=ORIENTED_EDGE('',*,*,#73,.F.);
#435=ORIENTED_EDGE('',*,*,#95,.T.);
#436=CARTESIAN_POINT('',(-14.7627727571536,2.65716776298423,92.4999999999976));
#437=DIRECTION('',(0.0,0.0,1.0));
#438=DIRECTION('',(1.0,-0.0,0.0));
#439=SURFACE_STYLE_FILL_AREA(#520);
#440=CARTESIAN_POINT('',(-9.4297803534345E-015,-1.8859560706869E-014,153.999999999998));
#441=DIRECTION('',(6.12323399573677E-017,1.22464679914735E-016,-1.0));
#442=DIRECTION('',(-1.23259516440783E-032,1.0,1.22464679914735E-016));
#443=SURFACE_STYLE_FILL_AREA(#521);
#444=ORIENTED_EDGE('',*,*,#68,.F.);
#445=ORIENTED_EDGE('',*,*,#91,.T.);
#446=CARTESIAN_POINT('',(-6.36816335557458E-016,-1.27363267111491E-015,10.4000000000136));
#447=DIRECTION('',(-6.12323399573677E-017,-1.22464679914735E-016,1.0));
#448=DIRECTION('',(-1.23259516440783E-032,1.0,1.22464679914735E-016));
#449=CARTESIAN_POINT('',(-1.46957615897699E-015,-2.93915231795398E-015,24.0000000000027));
#450=DIRECTION('',(6.12323399573676E-017,1.22464679914735E-016,-1.0));
#451=DIRECTION('',(-1.23259516440783E-032,1.0,1.22464679914735E-016));
#452=SURFACE_STYLE_FILL_AREA(#522);
#453=ORIENTED_EDGE('',*,*,#104,.F.);
#454=ORIENTED_EDGE('',*,*,#86,.T.);
#455=CARTESIAN_POINT('',(-1.46957615897714E-015,13.424999999967,24.0000000000052));
#456=DIRECTION('',(-1.24576810561571E-040,-1.42635679657605E-012,1.0));
#457=DIRECTION('',(1.0,-8.73391642684467E-029,0.0));
#458=CARTESIAN_POINT('',(-1.27363267111434E-015,-2.54726534222868E-015,20.8000000000178));
#459=DIRECTION('',(6.12323399573677E-017,1.22464679914735E-016,-1.0));
#460=DIRECTION('',(-1.23259516440783E-032,1.0,1.22464679914735E-016));
#461=CARTESIAN_POINT('',(-5.57987421036975E-015,-1.11597484207395E-014,91.1262612902704));
#462=DIRECTION('',(6.12323399573677E-017,1.22464679914735E-016,-1.0));
#463=DIRECTION('',(-1.23259516440783E-032,1.0,1.22464679914735E-016));
#464=CARTESIAN_POINT('',(-6.03138548580058E-015,-1.20627709716012E-014,92.4999999999976));
#465=DIRECTION('',(6.12323399573677E-017,1.22464679914735E-016,-1.0));
#466=DIRECTION('',(-1.23259516440783E-032,1.0,1.22464679914735E-016));
#467=CARTESIAN_POINT('',(-5.13091669418711E-015,-1.02618333883742E-014,83.7942286340757));
#468=DIRECTION('',(6.12323399573677E-017,1.22464679914735E-016,-1.0));
#469=DIRECTION('',(-1.23259516440783E-032,1.0,1.22464679914735E-016));
#470=SURFACE_STYLE_FILL_AREA(#523);
#471=ORIENTED_EDGE('',*,*,#95,.F.);
#472=ORIENTED_EDGE('',*,*,#81,.T.);
#473=CARTESIAN_POINT('',(-7.73058291961754E-015,-1.54611658392351E-014,126.249999999998));
#474=DIRECTION('',(-6.12323399573677E-017,-1.22464679914735E-016,1.0));
#475=DIRECTION('',(-1.23259516440783E-032,1.0,1.22464679914735E-016));
#476=CARTESIAN_POINT('',(-5.20474889637613E-015,-1.04094977927523E-014,84.999999999998));
#477=DIRECTION('',(6.12323399573677E-017,1.22464679914735E-016,-1.0));
#478=DIRECTION('',(-1.23259516440783E-032,1.0,1.22464679914735E-016));
#479=CARTESIAN_POINT('',(-1.46957615897729E-015,-2.93915231795458E-015,24.0000000000076));
#480=DIRECTION('',(6.12323399573677E-017,1.22464679914735E-016,-1.0));
#481=DIRECTION('',(-1.23259516440783E-032,1.0,1.22464679914735E-016));
#482=CARTESIAN_POINT('',(-1.34711147906341E-015,-2.69422295812682E-015,22.0000000000216));
#483=DIRECTION('',(6.12323399573677E-017,1.22464679914735E-016,-1.0));
#484=DIRECTION('',(-1.23259516440783E-032,1.0,1.22464679914735E-016));
#485=SURFACE_STYLE_FILL_AREA(#524);
#486=ORIENTED_EDGE('',*,*,#106,.F.);
#487=ORIENTED_EDGE('',*,*,#104,.T.);
#488=CARTESIAN_POINT('',(-1.40834381902035E-015,-2.8166876380407E-015,23.0000000000146));
#489=DIRECTION('',(-6.12323399573677E-017,-1.22464679914735E-016,1.0));
#490=DIRECTION('',(-1.23259516440783E-032,1.0,1.22464679914735E-016));
#491=SURFACE_STYLE_FILL_AREA(#525);
#492=ORIENTED_EDGE('',*,*,#91,.F.);
#493=ORIENTED_EDGE('',*,*,#106,.T.);
#494=CARTESIAN_POINT('',(-1.31037207508887E-015,-2.62074415017775E-015,21.4000000000197));
#495=DIRECTION('',(-6.12323399573677E-017,-1.22464679914735E-016,1.0));
#496=DIRECTION('',(-1.23259516440783E-032,1.0,1.22464679914735E-016));
#497=SURFACE_STYLE_FILL_AREA(#526);
#498=ORIENTED_EDGE('',*,*,#52,.T.);
#499=ORIENTED_EDGE('',*,*,#66,.F.);
#500=CARTESIAN_POINT('',(-1.53080849893457E-015,13.3499999999999,25.0000000000061));
#501=DIRECTION('',(6.12323399573677E-017,-6.64127335238564E-013,-1.0));
#502=DIRECTION('',(0.0,-1.0,6.64127335238564E-013));
#503=SURFACE_STYLE_FILL_AREA(#527);
#504=ORIENTED_EDGE('',*,*,#52,.F.);
#505=ORIENTED_EDGE('',*,*,#97,.T.);
#506=CARTESIAN_POINT('',(-3.33086259656081E-015,-6.66172519312161E-015,54.3971143170403));
#507=DIRECTION('',(-6.12323399573677E-017,-1.22464679914735E-016,1.0));
#508=DIRECTION('',(-1.23259516440783E-032,1.0,1.22464679914735E-016));
#509=SURFACE_STYLE_FILL_AREA(#528);
#510=ORIENTED_EDGE('',*,*,#81,.F.);
#511=CARTESIAN_POINT('',(-9.4297803534345E-015,7.49999999999998,153.999999999998));
#512=DIRECTION('',(-9.18338008663382E-049,-1.22464679914735E-016,1.0));
#513=DIRECTION('',(1.0,-7.49879891330927E-033,0.0));
#514=FILL_AREA_STYLE('',(#529));
#515=FILL_AREA_STYLE('',(#530));
#516=FILL_AREA_STYLE('',(#531));
#517=FILL_AREA_STYLE('',(#532));
#518=FILL_AREA_STYLE('',(#533));
#519=FILL_AREA_STYLE('',(#534));
#520=FILL_AREA_STYLE('',(#535));
#521=FILL_AREA_STYLE('',(#536));
#522=FILL_AREA_STYLE('',(#537));
#523=FILL_AREA_STYLE('',(#538));
#524=FILL_AREA_STYLE('',(#539));
#525=FILL_AREA_STYLE('',(#540));
#526=FILL_AREA_STYLE('',(#541));
#527=FILL_AREA_STYLE('',(#542));
#528=FILL_AREA_STYLE('',(#543));
#529=FILL_AREA_STYLE_COLOUR('',#544);
#530=FILL_AREA_STYLE_COLOUR('',#545);
#531=FILL_AREA_STYLE_COLOUR('',#546);
#532=FILL_AREA_STYLE_COLOUR('',#547);
#533=FILL_AREA_STYLE_COLOUR('',#548);
#534=FILL_AREA_STYLE_COLOUR('',#549);
#535=FILL_AREA_STYLE_COLOUR('',#550);
#536=FILL_AREA_STYLE_COLOUR('',#551);
#537=FILL_AREA_STYLE_COLOUR('',#552);
#538=FILL_AREA_STYLE_COLOUR('',#553);
#539=FILL_AREA_STYLE_COLOUR('',#554);
#540=FILL_AREA_STYLE_COLOUR('',#555);
#541=FILL_AREA_STYLE_COLOUR('',#556);
#542=FILL_AREA_STYLE_COLOUR('',#557);
#543=FILL_AREA_STYLE_COLOUR('',#558);
#544=COLOUR_RGB('',0.0,1.0,1.0);
#545=COLOUR_RGB('',0.0,1.0,1.0);
#546=COLOUR_RGB('',0.0,1.0,1.0);
#547=COLOUR_RGB('',0.0,1.0,1.0);
#548=COLOUR_RGB('',0.0,1.0,1.0);
#549=COLOUR_RGB('',0.0,1.0,1.0);
#550=COLOUR_RGB('',0.0,1.0,1.0);
#551=COLOUR_RGB('',0.0,1.0,1.0);
#552=COLOUR_RGB('',0.0,1.0,1.0);
#553=COLOUR_RGB('',0.0,1.0,1.0);
#554=COLOUR_RGB('',0.0,1.0,1.0);
#555=COLOUR_RGB('',0.0,1.0,1.0);
#556=COLOUR_RGB('',0.0,1.0,1.0);
#557=COLOUR_RGB('',0.0,1.0,1.0);
#558=COLOUR_RGB('',0.0,1.0,1.0);
ENDSEC;
END-ISO-10303-21;
