ISO-10303-21;
HEADER;
FILE_DESCRIPTION((''),'1');
FILE_NAME('T:/02_3D_Field-HP\X2\FF71FF6FFF8CFF9F5916\X0\2013/02_Step_Field-HP\X2\FF71FF6FFF8CFF9F5916\X0\2013/MGT20-d-35_M12-20.stp','2017-02-08T06:16:11',(''),(''),'Spatial Interop R21 SP3','Kubotek KeyCreator 2011 V10.0.2 (22737)',' ');
FILE_SCHEMA(('automotive_design'));
ENDSEC;
DATA;
#1=MECHANICAL_DESIGN_GEOMETRIC_PRESENTATION_REPRESENTATION(' ',(#10,#11,#12,#13,#14,#15,#16,#17,#18,#19,#20,#21,#22,#23,#24,#25,#26,#27,#28,#29,#30,#31,#32,#33,#34,#35,#36,#37),#6);
#2=PRODUCT_DEFINITION_CONTEXT('',#38,'design');
#3=APPLICATION_PROTOCOL_DEFINITION('INTERNATIONAL STANDARD','automotive_design',1994,#38);
#4=PRODUCT_CATEGORY_RELATIONSHIP('NONE','NONE',#39,#40);
#5=SHAPE_DEFINITION_REPRESENTATION(#41,#42);
#6= (GEOMETRIC_REPRESENTATION_CONTEXT(3)GLOBAL_UNCERTAINTY_ASSIGNED_CONTEXT((#45))GLOBAL_UNIT_ASSIGNED_CONTEXT((#47,#48,#49))REPRESENTATION_CONTEXT('NONE','WORKSPACE'));
#10=STYLED_ITEM('',(#51,#52),#53);
#11=STYLED_ITEM('',(#54,#55),#56);
#12=STYLED_ITEM('',(#57),#58);
#13=STYLED_ITEM('',(#59),#60);
#14=STYLED_ITEM('',(#61),#62);
#15=STYLED_ITEM('',(#63),#64);
#16=STYLED_ITEM('',(#65,#66),#67);
#17=STYLED_ITEM('',(#68),#69);
#18=STYLED_ITEM('',(#70),#71);
#19=STYLED_ITEM('',(#72,#73),#74);
#20=STYLED_ITEM('',(#75,#76),#77);
#21=STYLED_ITEM('',(#78,#79),#80);
#22=STYLED_ITEM('',(#81),#82);
#23=STYLED_ITEM('',(#83),#84);
#24=STYLED_ITEM('',(#85,#86),#87);
#25=STYLED_ITEM('',(#88,#89),#90);
#26=STYLED_ITEM('',(#91,#92),#93);
#27=STYLED_ITEM('',(#94,#95),#96);
#28=STYLED_ITEM('',(#97,#98),#99);
#29=STYLED_ITEM('',(#100),#101);
#30=STYLED_ITEM('',(#102),#103);
#31=STYLED_ITEM('',(#104,#105),#106);
#32=STYLED_ITEM('',(#107),#108);
#33=STYLED_ITEM('',(#109,#110),#111);
#34=STYLED_ITEM('',(#112,#113),#114);
#35=STYLED_ITEM('',(#115,#116),#117);
#36=STYLED_ITEM('',(#118),#119);
#37=STYLED_ITEM('',(#120),#121);
#38=APPLICATION_CONTEXT(' ');
#39=PRODUCT_CATEGORY('part','NONE');
#40=PRODUCT_RELATED_PRODUCT_CATEGORY('detail',' ',(#122));
#41=PRODUCT_DEFINITION_SHAPE('NONE','NONE',#123);
#42=ADVANCED_BREP_SHAPE_REPRESENTATION('240[2]',(#77,#124),#6);
#45=UNCERTAINTY_MEASURE_WITH_UNIT(LENGTH_MEASURE(1.0E-006),#47,'','');
#47= (CONVERSION_BASED_UNIT('MILLIMETRE',#127)LENGTH_UNIT()NAMED_UNIT(#130));
#48= (NAMED_UNIT(#132)PLANE_ANGLE_UNIT()SI_UNIT($,.RADIAN.));
#49= (NAMED_UNIT(#132)SOLID_ANGLE_UNIT()SI_UNIT($,.STERADIAN.));
#51=PRESENTATION_STYLE_ASSIGNMENT((#138));
#52=PRESENTATION_STYLE_ASSIGNMENT((#139));
#53=ADVANCED_FACE('240[2]',(#140,#141),#142,.T.);
#54=PRESENTATION_STYLE_ASSIGNMENT((#143));
#55=PRESENTATION_STYLE_ASSIGNMENT((#144));
#56=ADVANCED_FACE('240[2]',(#145,#146),#147,.T.);
#57=PRESENTATION_STYLE_ASSIGNMENT((#148));
#58=EDGE_CURVE('240[2]',#149,#149,#150,.T.);
#59=PRESENTATION_STYLE_ASSIGNMENT((#151));
#60=EDGE_CURVE('240[2]',#152,#152,#153,.T.);
#61=PRESENTATION_STYLE_ASSIGNMENT((#154));
#62=EDGE_CURVE('240[2]',#155,#155,#156,.T.);
#63=PRESENTATION_STYLE_ASSIGNMENT((#157));
#64=EDGE_CURVE('240[2]',#158,#158,#159,.T.);
#65=PRESENTATION_STYLE_ASSIGNMENT((#160));
#66=PRESENTATION_STYLE_ASSIGNMENT((#161));
#67=ADVANCED_FACE('240[2]',(#162,#163),#164,.T.);
#68=PRESENTATION_STYLE_ASSIGNMENT((#165));
#69=EDGE_CURVE('240[2]',#166,#166,#167,.T.);
#70=PRESENTATION_STYLE_ASSIGNMENT((#168));
#71=EDGE_CURVE('240[2]',#169,#169,#170,.T.);
#72=PRESENTATION_STYLE_ASSIGNMENT((#171));
#73=PRESENTATION_STYLE_ASSIGNMENT((#172));
#74=ADVANCED_FACE('240[2]',(#173,#174),#175,.T.);
#75=PRESENTATION_STYLE_ASSIGNMENT((#176));
#76=PRESENTATION_STYLE_ASSIGNMENT((#177));
#77=MANIFOLD_SOLID_BREP('240[2]',#178);
#78=PRESENTATION_STYLE_ASSIGNMENT((#179));
#79=PRESENTATION_STYLE_ASSIGNMENT((#180));
#80=ADVANCED_FACE('240[2]',(#181,#182),#183,.T.);
#81=PRESENTATION_STYLE_ASSIGNMENT((#184));
#82=EDGE_CURVE('240[2]',#185,#185,#186,.T.);
#83=PRESENTATION_STYLE_ASSIGNMENT((#187));
#84=EDGE_CURVE('240[2]',#188,#188,#189,.T.);
#85=PRESENTATION_STYLE_ASSIGNMENT((#190));
#86=PRESENTATION_STYLE_ASSIGNMENT((#191));
#87=ADVANCED_FACE('240[2]',(#192,#193),#194,.T.);
#88=PRESENTATION_STYLE_ASSIGNMENT((#195));
#89=PRESENTATION_STYLE_ASSIGNMENT((#196));
#90=ADVANCED_FACE('240[2]',(#197,#198),#199,.T.);
#91=PRESENTATION_STYLE_ASSIGNMENT((#200));
#92=PRESENTATION_STYLE_ASSIGNMENT((#201));
#93=ADVANCED_FACE('240[2]',(#202),#203,.T.);
#94=PRESENTATION_STYLE_ASSIGNMENT((#204));
#95=PRESENTATION_STYLE_ASSIGNMENT((#205));
#96=ADVANCED_FACE('240[2]',(#206,#207),#208,.T.);
#97=PRESENTATION_STYLE_ASSIGNMENT((#209));
#98=PRESENTATION_STYLE_ASSIGNMENT((#210));
#99=ADVANCED_FACE('240[2]',(#211,#212),#213,.T.);
#100=PRESENTATION_STYLE_ASSIGNMENT((#214));
#101=EDGE_CURVE('240[2]',#215,#215,#216,.T.);
#102=PRESENTATION_STYLE_ASSIGNMENT((#217));
#103=EDGE_CURVE('240[2]',#218,#218,#219,.T.);
#104=PRESENTATION_STYLE_ASSIGNMENT((#220));
#105=PRESENTATION_STYLE_ASSIGNMENT((#221));
#106=ADVANCED_FACE('240[2]',(#222,#223),#224,.T.);
#107=PRESENTATION_STYLE_ASSIGNMENT((#225));
#108=EDGE_CURVE('240[2]',#226,#226,#227,.T.);
#109=PRESENTATION_STYLE_ASSIGNMENT((#228));
#110=PRESENTATION_STYLE_ASSIGNMENT((#229));
#111=ADVANCED_FACE('240[2]',(#230,#231),#232,.T.);
#112=PRESENTATION_STYLE_ASSIGNMENT((#233));
#113=PRESENTATION_STYLE_ASSIGNMENT((#234));
#114=ADVANCED_FACE('240[2]',(#235),#236,.T.);
#115=PRESENTATION_STYLE_ASSIGNMENT((#237));
#116=PRESENTATION_STYLE_ASSIGNMENT((#238));
#117=ADVANCED_FACE('240[2]',(#239,#240),#241,.T.);
#118=PRESENTATION_STYLE_ASSIGNMENT((#242));
#119=EDGE_CURVE('240[2]',#243,#243,#244,.T.);
#120=PRESENTATION_STYLE_ASSIGNMENT((#245));
#121=EDGE_CURVE('240[2]',#246,#246,#247,.T.);
#122=PRODUCT('240[2]','240[2]','PART-240[2]-DESC',(#248));
#123=PRODUCT_DEFINITION('NONE','NONE',#249,#2);
#124=AXIS2_PLACEMENT_3D('',#250,#251,#252);
#127=LENGTH_MEASURE_WITH_UNIT(LENGTH_MEASURE(1.0),#253);
#130=DIMENSIONAL_EXPONENTS(1.0,0.0,0.0,0.0,0.0,0.0,0.0);
#132=DIMENSIONAL_EXPONENTS(0.0,0.0,0.0,0.0,0.0,0.0,0.0);
#138=SURFACE_STYLE_USAGE(.BOTH.,#254);
#139=CURVE_STYLE('',#255,POSITIVE_LENGTH_MEASURE(1000.0),#256);
#140=FACE_BOUND('',#257,.T.);
#141=FACE_BOUND('',#258,.T.);
#142=CYLINDRICAL_SURFACE('',#259,11.7);
#143=SURFACE_STYLE_USAGE(.BOTH.,#260);
#144=CURVE_STYLE('',#261,POSITIVE_LENGTH_MEASURE(1000.0),#262);
#145=FACE_BOUND('',#263,.T.);
#146=FACE_BOUND('',#264,.T.);
#147=CONICAL_SURFACE('',#265,19.25,0.349065841567637);
#148=CURVE_STYLE('',#266,POSITIVE_LENGTH_MEASURE(1000.0),#267);
#149=VERTEX_POINT('',#268);
#150=CIRCLE('',#269,19.5);
#151=CURVE_STYLE('',#270,POSITIVE_LENGTH_MEASURE(1000.0),#271);
#152=VERTEX_POINT('',#272);
#153=CIRCLE('',#273,15.15);
#154=CURVE_STYLE('',#274,POSITIVE_LENGTH_MEASURE(1000.0),#275);
#155=VERTEX_POINT('',#276);
#156=CIRCLE('',#277,11.7);
#157=CURVE_STYLE('',#278,POSITIVE_LENGTH_MEASURE(1000.0),#279);
#158=VERTEX_POINT('',#280);
#159=CIRCLE('',#281,15.15);
#160=SURFACE_STYLE_USAGE(.BOTH.,#282);
#161=CURVE_STYLE('',#283,POSITIVE_LENGTH_MEASURE(1000.0),#284);
#162=FACE_BOUND('',#285,.T.);
#163=FACE_BOUND('',#286,.T.);
#164=CYLINDRICAL_SURFACE('',#287,15.15);
#165=CURVE_STYLE('',#288,POSITIVE_LENGTH_MEASURE(1000.0),#289);
#166=VERTEX_POINT('',#290);
#167=CIRCLE('',#291,15.0);
#168=CURVE_STYLE('',#292,POSITIVE_LENGTH_MEASURE(1000.0),#293);
#169=VERTEX_POINT('',#294);
#170=CIRCLE('',#295,19.5);
#171=SURFACE_STYLE_USAGE(.BOTH.,#296);
#172=CURVE_STYLE('',#297,POSITIVE_LENGTH_MEASURE(1000.0),#298);
#173=FACE_BOUND('',#299,.T.);
#174=FACE_BOUND('',#300,.T.);
#175=CYLINDRICAL_SURFACE('',#301,15.0);
#176=SURFACE_STYLE_USAGE(.BOTH.,#302);
#177=CURVE_STYLE('',#303,POSITIVE_LENGTH_MEASURE(1000.0),#304);
#178=CLOSED_SHELL('',(#117,#114,#87,#56,#90,#111,#74,#80,#53,#99,#67,#96,#106,#93));
#179=SURFACE_STYLE_USAGE(.BOTH.,#305);
#180=CURVE_STYLE('',#306,POSITIVE_LENGTH_MEASURE(1000.0),#307);
#181=FACE_OUTER_BOUND('',#308,.T.);
#182=FACE_BOUND('',#309,.T.);
#183=PLANE('',#310);
#184=CURVE_STYLE('',#311,POSITIVE_LENGTH_MEASURE(1000.0),#312);
#185=VERTEX_POINT('',#313);
#186=CIRCLE('',#314,15.0);
#187=CURVE_STYLE('',#315,POSITIVE_LENGTH_MEASURE(1000.0),#316);
#188=VERTEX_POINT('',#317);
#189=CIRCLE('',#318,15.0);
#190=SURFACE_STYLE_USAGE(.BOTH.,#319);
#191=CURVE_STYLE('',#320,POSITIVE_LENGTH_MEASURE(1000.0),#321);
#192=FACE_BOUND('',#322,.T.);
#193=FACE_BOUND('',#323,.T.);
#194=CYLINDRICAL_SURFACE('',#324,15.0);
#195=SURFACE_STYLE_USAGE(.BOTH.,#325);
#196=CURVE_STYLE('',#326,POSITIVE_LENGTH_MEASURE(1000.0),#327);
#197=FACE_BOUND('',#328,.T.);
#198=FACE_BOUND('',#329,.T.);
#199=CYLINDRICAL_SURFACE('',#330,19.5);
#200=SURFACE_STYLE_USAGE(.BOTH.,#331);
#201=CURVE_STYLE('',#332,POSITIVE_LENGTH_MEASURE(1000.0),#333);
#202=FACE_OUTER_BOUND('',#334,.T.);
#203=PLANE('',#335);
#204=SURFACE_STYLE_USAGE(.BOTH.,#336);
#205=CURVE_STYLE('',#337,POSITIVE_LENGTH_MEASURE(1000.0),#338);
#206=FACE_BOUND('',#339,.T.);
#207=FACE_BOUND('',#340,.T.);
#208=CONICAL_SURFACE('',#341,15.075,0.124354994546763);
#209=SURFACE_STYLE_USAGE(.BOTH.,#342);
#210=CURVE_STYLE('',#343,POSITIVE_LENGTH_MEASURE(1000.0),#344);
#211=FACE_OUTER_BOUND('',#345,.T.);
#212=FACE_BOUND('',#346,.T.);
#213=PLANE('',#347);
#214=CURVE_STYLE('',#348,POSITIVE_LENGTH_MEASURE(1000.0),#349);
#215=VERTEX_POINT('',#350);
#216=CIRCLE('',#351,15.0);
#217=CURVE_STYLE('',#352,POSITIVE_LENGTH_MEASURE(1000.0),#353);
#218=VERTEX_POINT('',#354);
#219=CIRCLE('',#355,11.7);
#220=SURFACE_STYLE_USAGE(.BOTH.,#356);
#221=CURVE_STYLE('',#357,POSITIVE_LENGTH_MEASURE(1000.0),#358);
#222=FACE_BOUND('',#359,.T.);
#223=FACE_BOUND('',#360,.T.);
#224=CYLINDRICAL_SURFACE('',#361,15.0);
#225=CURVE_STYLE('',#362,POSITIVE_LENGTH_MEASURE(1000.0),#363);
#226=VERTEX_POINT('',#364);
#227=CIRCLE('',#365,15.0);
#228=SURFACE_STYLE_USAGE(.BOTH.,#366);
#229=CURVE_STYLE('',#367,POSITIVE_LENGTH_MEASURE(1000.0),#368);
#230=FACE_BOUND('',#369,.T.);
#231=FACE_BOUND('',#370,.T.);
#232=CONICAL_SURFACE('',#371,17.25,1.30899693876846);
#233=SURFACE_STYLE_USAGE(.BOTH.,#372);
#234=CURVE_STYLE('',#373,POSITIVE_LENGTH_MEASURE(1000.0),#374);
#235=FACE_OUTER_BOUND('',#375,.T.);
#236=PLANE('',#376);
#237=SURFACE_STYLE_USAGE(.BOTH.,#377);
#238=CURVE_STYLE('',#378,POSITIVE_LENGTH_MEASURE(1000.0),#379);
#239=FACE_OUTER_BOUND('',#380,.T.);
#240=FACE_BOUND('',#381,.T.);
#241=PLANE('',#382);
#242=CURVE_STYLE('',#383,POSITIVE_LENGTH_MEASURE(1000.0),#384);
#243=VERTEX_POINT('',#385);
#244=CIRCLE('',#386,19.0);
#245=CURVE_STYLE('',#387,POSITIVE_LENGTH_MEASURE(1000.0),#388);
#246=VERTEX_POINT('',#389);
#247=CIRCLE('',#390,15.0);
#248=PRODUCT_CONTEXT('',#38,'mechanical');
#249=PRODUCT_DEFINITION_FORMATION_WITH_SPECIFIED_SOURCE(' ','NONE',#122,.NOT_KNOWN.);
#250=CARTESIAN_POINT('',(0.0,0.0,0.0));
#251=DIRECTION('',(0.0,0.0,1.0));
#252=DIRECTION('',(1.0,0.0,0.0));
#253= (NAMED_UNIT(#130)LENGTH_UNIT()SI_UNIT(.MILLI.,.METRE.));
#254=SURFACE_SIDE_STYLE('',(#392));
#255=DRAUGHTING_PRE_DEFINED_CURVE_FONT('continuous');
#256=COLOUR_RGB('',0.0,1.0,1.0);
#257=EDGE_LOOP('',(#393));
#258=EDGE_LOOP('',(#394));
#259=AXIS2_PLACEMENT_3D('',#395,#396,#397);
#260=SURFACE_SIDE_STYLE('',(#398));
#261=DRAUGHTING_PRE_DEFINED_CURVE_FONT('continuous');
#262=COLOUR_RGB('',0.0,1.0,1.0);
#263=EDGE_LOOP('',(#399));
#264=EDGE_LOOP('',(#400));
#265=AXIS2_PLACEMENT_3D('',#401,#402,#403);
#266=DRAUGHTING_PRE_DEFINED_CURVE_FONT('continuous');
#267=COLOUR_RGB('',0.0,1.0,1.0);
#268=CARTESIAN_POINT('',(-2.14313189833509E-015,19.5,34.9999999971784));
#269=AXIS2_PLACEMENT_3D('',#404,#405,#406);
#270=DRAUGHTING_PRE_DEFINED_CURVE_FONT('continuous');
#271=COLOUR_RGB('',0.0,1.0,1.0);
#272=CARTESIAN_POINT('',(-1.46957615897682E-015,15.15,24.0));
#273=AXIS2_PLACEMENT_3D('',#407,#408,#409);
#274=DRAUGHTING_PRE_DEFINED_CURVE_FONT('continuous');
#275=COLOUR_RGB('',0.0,1.0,1.0);
#276=CARTESIAN_POINT('',(-1.53080849893419E-015,11.7,25.0));
#277=AXIS2_PLACEMENT_3D('',#410,#411,#412);
#278=DRAUGHTING_PRE_DEFINED_CURVE_FONT('continuous');
#279=COLOUR_RGB('',0.0,1.0,1.0);
#280=CARTESIAN_POINT('',(-1.34711147906209E-015,15.15,22.0));
#281=AXIS2_PLACEMENT_3D('',#413,#414,#415);
#282=SURFACE_SIDE_STYLE('',(#416));
#283=DRAUGHTING_PRE_DEFINED_CURVE_FONT('continuous');
#284=COLOUR_RGB('',0.0,1.0,1.0);
#285=EDGE_LOOP('',(#417));
#286=EDGE_LOOP('',(#418));
#287=AXIS2_PLACEMENT_3D('',#419,#420,#421);
#288=DRAUGHTING_PRE_DEFINED_CURVE_FONT('continuous');
#289=COLOUR_RGB('',0.0,1.0,1.0);
#290=CARTESIAN_POINT('',(-1.27363267111325E-015,15.0,20.8));
#291=AXIS2_PLACEMENT_3D('',#422,#423,#424);
#292=DRAUGHTING_PRE_DEFINED_CURVE_FONT('continuous');
#293=COLOUR_RGB('',0.0,1.0,1.0);
#294=CARTESIAN_POINT('',(-2.51825721187249E-015,19.5,41.12626128));
#295=AXIS2_PLACEMENT_3D('',#425,#426,#427);
#296=SURFACE_SIDE_STYLE('',(#428));
#297=DRAUGHTING_PRE_DEFINED_CURVE_FONT('continuous');
#298=COLOUR_RGB('',0.0,1.0,1.0);
#299=EDGE_LOOP('',(#429));
#300=EDGE_LOOP('',(#430));
#301=AXIS2_PLACEMENT_3D('',#431,#432,#433);
#302=SURFACE_SIDE_STYLE('',(#434));
#303=DRAUGHTING_PRE_DEFINED_CURVE_FONT('continuous');
#304=COLOUR_RGB('',0.0,1.0,1.0);
#305=SURFACE_SIDE_STYLE('',(#435));
#306=DRAUGHTING_PRE_DEFINED_CURVE_FONT('continuous');
#307=COLOUR_RGB('',0.0,1.0,1.0);
#308=EDGE_LOOP('',(#436));
#309=EDGE_LOOP('',(#437));
#310=AXIS2_PLACEMENT_3D('',#438,#439,#440);
#311=DRAUGHTING_PRE_DEFINED_CURVE_FONT('continuous');
#312=COLOUR_RGB('',0.0,1.0,1.0);
#313=CARTESIAN_POINT('',(-6.36816335556624E-015,15.0,104.0));
#314=AXIS2_PLACEMENT_3D('',#441,#442,#443);
#315=DRAUGHTING_PRE_DEFINED_CURVE_FONT('continuous');
#316=COLOUR_RGB('',0.0,1.0,1.0);
#317=CARTESIAN_POINT('',(-1.53080849893419E-015,15.0,25.0));
#318=AXIS2_PLACEMENT_3D('',#444,#445,#446);
#319=SURFACE_SIDE_STYLE('',(#447));
#320=DRAUGHTING_PRE_DEFINED_CURVE_FONT('continuous');
#321=COLOUR_RGB('',0.0,1.0,1.0);
#322=EDGE_LOOP('',(#448));
#323=EDGE_LOOP('',(#449));
#324=AXIS2_PLACEMENT_3D('',#450,#451,#452);
#325=SURFACE_SIDE_STYLE('',(#453));
#326=DRAUGHTING_PRE_DEFINED_CURVE_FONT('continuous');
#327=COLOUR_RGB('',0.0,1.0,1.0);
#328=EDGE_LOOP('',(#454));
#329=EDGE_LOOP('',(#455));
#330=AXIS2_PLACEMENT_3D('',#456,#457,#458);
#331=SURFACE_SIDE_STYLE('',(#459));
#332=DRAUGHTING_PRE_DEFINED_CURVE_FONT('continuous');
#333=COLOUR_RGB('',0.0,1.0,1.0);
#334=EDGE_LOOP('',(#460));
#335=AXIS2_PLACEMENT_3D('',#461,#462,#463);
#336=SURFACE_SIDE_STYLE('',(#464));
#337=DRAUGHTING_PRE_DEFINED_CURVE_FONT('continuous');
#338=COLOUR_RGB('',0.0,1.0,1.0);
#339=EDGE_LOOP('',(#465));
#340=EDGE_LOOP('',(#466));
#341=AXIS2_PLACEMENT_3D('',#467,#468,#469);
#342=SURFACE_SIDE_STYLE('',(#470));
#343=DRAUGHTING_PRE_DEFINED_CURVE_FONT('continuous');
#344=COLOUR_RGB('',0.0,1.0,1.0);
#345=EDGE_LOOP('',(#471));
#346=EDGE_LOOP('',(#472));
#347=AXIS2_PLACEMENT_3D('',#473,#474,#475);
#348=DRAUGHTING_PRE_DEFINED_CURVE_FONT('continuous');
#349=COLOUR_RGB('',0.0,1.0,1.0);
#350=CARTESIAN_POINT('',(0.0,15.0,0.0));
#351=AXIS2_PLACEMENT_3D('',#476,#477,#478);
#352=DRAUGHTING_PRE_DEFINED_CURVE_FONT('continuous');
#353=COLOUR_RGB('',0.0,1.0,1.0);
#354=CARTESIAN_POINT('',(-1.46957615897682E-015,11.7,24.0));
#355=AXIS2_PLACEMENT_3D('',#479,#480,#481);
#356=SURFACE_SIDE_STYLE('',(#482));
#357=DRAUGHTING_PRE_DEFINED_CURVE_FONT('continuous');
#358=COLOUR_RGB('',0.0,1.0,1.0);
#359=EDGE_LOOP('',(#483));
#360=EDGE_LOOP('',(#484));
#361=AXIS2_PLACEMENT_3D('',#485,#486,#487);
#362=DRAUGHTING_PRE_DEFINED_CURVE_FONT('continuous');
#363=COLOUR_RGB('',0.0,1.0,1.0);
#364=CARTESIAN_POINT('',(-2.06929969607787E-015,15.0,33.7942286301421));
#365=AXIS2_PLACEMENT_3D('',#488,#489,#490);
#366=SURFACE_SIDE_STYLE('',(#491));
#367=DRAUGHTING_PRE_DEFINED_CURVE_FONT('continuous');
#368=COLOUR_RGB('',0.0,1.0,1.0);
#369=EDGE_LOOP('',(#492));
#370=EDGE_LOOP('',(#493));
#371=AXIS2_PLACEMENT_3D('',#494,#495,#496);
#372=SURFACE_SIDE_STYLE('',(#497));
#373=DRAUGHTING_PRE_DEFINED_CURVE_FONT('continuous');
#374=COLOUR_RGB('',0.0,1.0,1.0);
#375=EDGE_LOOP('',(#498));
#376=AXIS2_PLACEMENT_3D('',#499,#500,#501);
#377=SURFACE_SIDE_STYLE('',(#502));
#378=DRAUGHTING_PRE_DEFINED_CURVE_FONT('continuous');
#379=COLOUR_RGB('',0.0,1.0,1.0);
#380=EDGE_LOOP('',(#503));
#381=EDGE_LOOP('',(#504));
#382=AXIS2_PLACEMENT_3D('',#505,#506,#507);
#383=DRAUGHTING_PRE_DEFINED_CURVE_FONT('continuous');
#384=COLOUR_RGB('',0.0,1.0,1.0);
#385=CARTESIAN_POINT('',(-2.60237444987047E-015,19.0,42.5000000274748));
#386=AXIS2_PLACEMENT_3D('',#508,#509,#510);
#387=DRAUGHTING_PRE_DEFINED_CURVE_FONT('continuous');
#388=COLOUR_RGB('',0.0,1.0,1.0);
#389=CARTESIAN_POINT('',(-2.96976848793233E-015,15.0,42.5000000274748));
#390=AXIS2_PLACEMENT_3D('',#511,#512,#513);
#392=SURFACE_STYLE_FILL_AREA(#514);
#393=ORIENTED_EDGE('',*,*,#103,.F.);
#394=ORIENTED_EDGE('',*,*,#62,.T.);
#395=CARTESIAN_POINT('',(-1.50019232895551E-015,-3.00038465791102E-015,24.5));
#396=DIRECTION('',(6.12323399573677E-017,1.22464679914735E-016,-1.0));
#397=DIRECTION('',(-1.23259516440783E-032,1.0,1.22464679914735E-016));
#398=SURFACE_STYLE_FILL_AREA(#515);
#399=ORIENTED_EDGE('',*,*,#71,.F.);
#400=ORIENTED_EDGE('',*,*,#119,.T.);
#401=CARTESIAN_POINT('',(-2.56031583087148E-015,-5.12063166174296E-015,41.8131306537374));
#402=DIRECTION('',(6.12323399573676E-017,1.22464679914735E-016,-1.0));
#403=DIRECTION('',(-1.23259516440783E-032,1.0,1.22464679914735E-016));
#404=CARTESIAN_POINT('',(-2.14313189833509E-015,-4.28626379667019E-015,34.9999999971784));
#405=DIRECTION('',(6.12323399573677E-017,1.22464679914735E-016,-1.0));
#406=DIRECTION('',(-1.23259516440783E-032,1.0,1.22464679914735E-016));
#407=CARTESIAN_POINT('',(-1.46957615897682E-015,-2.93915231795365E-015,24.0));
#408=DIRECTION('',(6.12323399573677E-017,1.22464679914735E-016,-1.0));
#409=DIRECTION('',(-1.23259516440783E-032,1.0,1.22464679914735E-016));
#410=CARTESIAN_POINT('',(-1.53080849893419E-015,-3.06161699786838E-015,25.0));
#411=DIRECTION('',(6.12323399573677E-017,1.22464679914735E-016,-1.0));
#412=DIRECTION('',(-1.23259516440783E-032,1.0,1.22464679914735E-016));
#413=CARTESIAN_POINT('',(-1.34711147906209E-015,-2.69422295812418E-015,22.0));
#414=DIRECTION('',(6.12323399573677E-017,1.22464679914735E-016,-1.0));
#415=DIRECTION('',(-1.23259516440783E-032,1.0,1.22464679914735E-016));
#416=SURFACE_STYLE_FILL_AREA(#516);
#417=ORIENTED_EDGE('',*,*,#64,.F.);
#418=ORIENTED_EDGE('',*,*,#60,.T.);
#419=CARTESIAN_POINT('',(-1.40834381901946E-015,-2.81668763803891E-015,23.0));
#420=DIRECTION('',(6.12323399573677E-017,1.22464679914735E-016,-1.0));
#421=DIRECTION('',(-1.23259516440783E-032,1.0,1.22464679914735E-016));
#422=CARTESIAN_POINT('',(-1.27363267111325E-015,-2.54726534222649E-015,20.8));
#423=DIRECTION('',(6.12323399573677E-017,1.22464679914735E-016,-1.0));
#424=DIRECTION('',(-1.23259516440783E-032,1.0,1.22464679914735E-016));
#425=CARTESIAN_POINT('',(-2.51825721187249E-015,-5.03651442374497E-015,41.12626128));
#426=DIRECTION('',(6.12323399573677E-017,1.22464679914735E-016,-1.0));
#427=DIRECTION('',(-1.23259516440783E-032,1.0,1.22464679914735E-016));
#428=SURFACE_STYLE_FILL_AREA(#517);
#429=ORIENTED_EDGE('',*,*,#84,.F.);
#430=ORIENTED_EDGE('',*,*,#108,.T.);
#431=CARTESIAN_POINT('',(-1.80005409750603E-015,-3.60010819501206E-015,29.3971143150711));
#432=DIRECTION('',(6.12323399573677E-017,1.22464679914735E-016,-1.0));
#433=DIRECTION('',(-1.23259516440783E-032,1.0,1.22464679914735E-016));
#434=SURFACE_STYLE_FILL_AREA(#518);
#435=SURFACE_STYLE_FILL_AREA(#519);
#436=ORIENTED_EDGE('',*,*,#84,.T.);
#437=ORIENTED_EDGE('',*,*,#62,.F.);
#438=CARTESIAN_POINT('',(-1.53080849893419E-015,13.35,25.0));
#439=DIRECTION('',(6.12323399573677E-017,1.22464679914735E-016,-1.0));
#440=DIRECTION('',(-1.0,0.0,-6.12323399573677E-017));
#441=CARTESIAN_POINT('',(-6.36816335556624E-015,-1.27363267111325E-014,104.0));
#442=DIRECTION('',(6.12323399573677E-017,1.22464679914735E-016,-1.0));
#443=DIRECTION('',(-1.23259516440783E-032,1.0,1.22464679914735E-016));
#444=CARTESIAN_POINT('',(-1.53080849893419E-015,-3.06161699786838E-015,25.0));
#445=DIRECTION('',(6.12323399573677E-017,1.22464679914735E-016,-1.0));
#446=DIRECTION('',(-1.23259516440783E-032,1.0,1.22464679914735E-016));
#447=SURFACE_STYLE_FILL_AREA(#520);
#448=ORIENTED_EDGE('',*,*,#121,.F.);
#449=ORIENTED_EDGE('',*,*,#82,.T.);
#450=CARTESIAN_POINT('',(-4.66896592174928E-015,-9.33793184349857E-015,76.25));
#451=DIRECTION('',(6.12323399573677E-017,1.22464679914735E-016,-1.0));
#452=DIRECTION('',(-1.23259516440783E-032,1.0,1.22464679914735E-016));
#453=SURFACE_STYLE_FILL_AREA(#521);
#454=ORIENTED_EDGE('',*,*,#58,.F.);
#455=ORIENTED_EDGE('',*,*,#71,.T.);
#456=CARTESIAN_POINT('',(-2.33069455510379E-015,-4.66138911020758E-015,38.0631306385892));
#457=DIRECTION('',(6.12323399573677E-017,1.22464679914735E-016,-1.0));
#458=DIRECTION('',(-1.23259516440783E-032,1.0,1.22464679914735E-016));
#459=SURFACE_STYLE_FILL_AREA(#522);
#460=ORIENTED_EDGE('',*,*,#101,.T.);
#461=CARTESIAN_POINT('',(0.0,7.5,0.0));
#462=DIRECTION('',(6.12323399573677E-017,1.22464679914735E-016,-1.0));
#463=DIRECTION('',(-1.0,0.0,-6.12323399573677E-017));
#464=SURFACE_STYLE_FILL_AREA(#523);
#465=ORIENTED_EDGE('',*,*,#69,.F.);
#466=ORIENTED_EDGE('',*,*,#64,.T.);
#467=CARTESIAN_POINT('',(-1.31037207508767E-015,-2.62074415017534E-015,21.4));
#468=DIRECTION('',(-6.12323399573677E-017,-1.22464679914735E-016,1.0));
#469=DIRECTION('',(-1.23259516440783E-032,1.0,1.22464679914735E-016));
#470=SURFACE_STYLE_FILL_AREA(#524);
#471=ORIENTED_EDGE('',*,*,#60,.F.);
#472=ORIENTED_EDGE('',*,*,#103,.T.);
#473=CARTESIAN_POINT('',(-1.46957615897682E-015,13.425,24.0));
#474=DIRECTION('',(7.49879891330927E-033,-1.22464679914735E-016,1.0));
#475=DIRECTION('',(1.0,6.12323399573677E-017,0.0));
#476=CARTESIAN_POINT('',(0.0,0.0,0.0));
#477=DIRECTION('',(6.12323399573677E-017,1.22464679914735E-016,-1.0));
#478=DIRECTION('',(-1.23259516440783E-032,1.0,1.22464679914735E-016));
#479=CARTESIAN_POINT('',(-1.46957615897682E-015,-2.93915231795365E-015,24.0));
#480=DIRECTION('',(6.12323399573677E-017,1.22464679914735E-016,-1.0));
#481=DIRECTION('',(-1.23259516440783E-032,1.0,1.22464679914735E-016));
#482=SURFACE_STYLE_FILL_AREA(#525);
#483=ORIENTED_EDGE('',*,*,#101,.F.);
#484=ORIENTED_EDGE('',*,*,#69,.T.);
#485=CARTESIAN_POINT('',(-6.36816335556624E-016,-1.27363267111325E-015,10.4));
#486=DIRECTION('',(6.12323399573677E-017,1.22464679914735E-016,-1.0));
#487=DIRECTION('',(-1.23259516440783E-032,1.0,1.22464679914735E-016));
#488=CARTESIAN_POINT('',(-2.06929969607787E-015,-4.13859939215574E-015,33.7942286301421));
#489=DIRECTION('',(6.12323399573677E-017,1.22464679914735E-016,-1.0));
#490=DIRECTION('',(-1.23259516440783E-032,1.0,1.22464679914735E-016));
#491=SURFACE_STYLE_FILL_AREA(#526);
#492=ORIENTED_EDGE('',*,*,#108,.F.);
#493=ORIENTED_EDGE('',*,*,#58,.T.);
#494=CARTESIAN_POINT('',(-2.10621579720648E-015,-4.21243159441296E-015,34.3971143136603));
#495=DIRECTION('',(-6.12323399573677E-017,-1.22464679914735E-016,1.0));
#496=DIRECTION('',(-1.23259516440783E-032,1.0,1.22464679914735E-016));
#497=SURFACE_STYLE_FILL_AREA(#527);
#498=ORIENTED_EDGE('',*,*,#82,.F.);
#499=CARTESIAN_POINT('',(-6.36816335556624E-015,7.49999999999999,104.0));
#500=DIRECTION('',(7.49879891330927E-033,-1.22464679914735E-016,1.0));
#501=DIRECTION('',(1.0,6.12323399573677E-017,0.0));
#502=SURFACE_STYLE_FILL_AREA(#528);
#503=ORIENTED_EDGE('',*,*,#119,.F.);
#504=ORIENTED_EDGE('',*,*,#121,.T.);
#505=CARTESIAN_POINT('',(-14.7627727571536,2.65716776298424,42.5000000274748));
#506=DIRECTION('',(0.0,0.0,1.0));
#507=DIRECTION('',(-1.0,0.0,0.0));
#508=CARTESIAN_POINT('',(-2.60237444987047E-015,-5.20474889974094E-015,42.5000000274748));
#509=DIRECTION('',(6.12323399573677E-017,1.22464679914735E-016,-1.0));
#510=DIRECTION('',(-1.23259516440783E-032,1.0,1.22464679914735E-016));
#511=CARTESIAN_POINT('',(-2.96976848793233E-015,-5.93953697586466E-015,42.5000000274748));
#512=DIRECTION('',(6.12323399573677E-017,1.22464679914735E-016,-1.0));
#513=DIRECTION('',(-1.23259516440783E-032,1.0,1.22464679914735E-016));
#514=FILL_AREA_STYLE('',(#529));
#515=FILL_AREA_STYLE('',(#530));
#516=FILL_AREA_STYLE('',(#531));
#517=FILL_AREA_STYLE('',(#532));
#518=FILL_AREA_STYLE('',(#533));
#519=FILL_AREA_STYLE('',(#534));
#520=FILL_AREA_STYLE('',(#535));
#521=FILL_AREA_STYLE('',(#536));
#522=FILL_AREA_STYLE('',(#537));
#523=FILL_AREA_STYLE('',(#538));
#524=FILL_AREA_STYLE('',(#539));
#525=FILL_AREA_STYLE('',(#540));
#526=FILL_AREA_STYLE('',(#541));
#527=FILL_AREA_STYLE('',(#542));
#528=FILL_AREA_STYLE('',(#543));
#529=FILL_AREA_STYLE_COLOUR('',#544);
#530=FILL_AREA_STYLE_COLOUR('',#545);
#531=FILL_AREA_STYLE_COLOUR('',#546);
#532=FILL_AREA_STYLE_COLOUR('',#547);
#533=FILL_AREA_STYLE_COLOUR('',#548);
#534=FILL_AREA_STYLE_COLOUR('',#549);
#535=FILL_AREA_STYLE_COLOUR('',#550);
#536=FILL_AREA_STYLE_COLOUR('',#551);
#537=FILL_AREA_STYLE_COLOUR('',#552);
#538=FILL_AREA_STYLE_COLOUR('',#553);
#539=FILL_AREA_STYLE_COLOUR('',#554);
#540=FILL_AREA_STYLE_COLOUR('',#555);
#541=FILL_AREA_STYLE_COLOUR('',#556);
#542=FILL_AREA_STYLE_COLOUR('',#557);
#543=FILL_AREA_STYLE_COLOUR('',#558);
#544=COLOUR_RGB('',0.0,1.0,1.0);
#545=COLOUR_RGB('',0.0,1.0,1.0);
#546=COLOUR_RGB('',0.0,1.0,1.0);
#547=COLOUR_RGB('',0.0,1.0,1.0);
#548=COLOUR_RGB('',0.0,1.0,1.0);
#549=COLOUR_RGB('',0.0,1.0,1.0);
#550=COLOUR_RGB('',0.0,1.0,1.0);
#551=COLOUR_RGB('',0.0,1.0,1.0);
#552=COLOUR_RGB('',0.0,1.0,1.0);
#553=COLOUR_RGB('',0.0,1.0,1.0);
#554=COLOUR_RGB('',0.0,1.0,1.0);
#555=COLOUR_RGB('',0.0,1.0,1.0);
#556=COLOUR_RGB('',0.0,1.0,1.0);
#557=COLOUR_RGB('',0.0,1.0,1.0);
#558=COLOUR_RGB('',0.0,1.0,1.0);
ENDSEC;
END-ISO-10303-21;
