ISO-10303-21;
HEADER;
FILE_DESCRIPTION((''),'1');
FILE_NAME('T:/02_3D_Field-HP\X2\FF71FF6FFF8CFF9F5916\X0\2013/02_Step_Field-HP\X2\FF71FF6FFF8CFF9F5916\X0\2013/MGT20-d-35_090071-160120.stp','2017-02-08T07:54:56',(''),(''),'Spatial Interop R21 SP3','Kubotek KeyCreator 2011 V10.0.2 (22737)',' ');
FILE_SCHEMA(('automotive_design'));
ENDSEC;
DATA;
#1=MECHANICAL_DESIGN_GEOMETRIC_PRESENTATION_REPRESENTATION(' ',(#10,#11,#12,#13,#14,#15,#16,#17,#18,#19,#20,#21,#22,#23,#24,#25,#26,#27,#28,#29,#30,#31,#32,#33,#34,#35,#36,#37),#6);
#2=PRODUCT_DEFINITION_CONTEXT('',#38,'design');
#3=APPLICATION_PROTOCOL_DEFINITION('INTERNATIONAL STANDARD','automotive_design',1994,#38);
#4=PRODUCT_CATEGORY_RELATIONSHIP('NONE','NONE',#39,#40);
#5=SHAPE_DEFINITION_REPRESENTATION(#41,#42);
#6= (GEOMETRIC_REPRESENTATION_CONTEXT(3)GLOBAL_UNCERTAINTY_ASSIGNED_CONTEXT((#45))GLOBAL_UNIT_ASSIGNED_CONTEXT((#47,#48,#49))REPRESENTATION_CONTEXT('NONE','WORKSPACE'));
#10=STYLED_ITEM('',(#51,#52),#53);
#11=STYLED_ITEM('',(#54,#55),#56);
#12=STYLED_ITEM('',(#57),#58);
#13=STYLED_ITEM('',(#59),#60);
#14=STYLED_ITEM('',(#61),#62);
#15=STYLED_ITEM('',(#63,#64),#65);
#16=STYLED_ITEM('',(#66,#67),#68);
#17=STYLED_ITEM('',(#69,#70),#71);
#18=STYLED_ITEM('',(#72,#73),#74);
#19=STYLED_ITEM('',(#75,#76),#77);
#20=STYLED_ITEM('',(#78,#79),#80);
#21=STYLED_ITEM('',(#81,#82),#83);
#22=STYLED_ITEM('',(#84),#85);
#23=STYLED_ITEM('',(#86),#87);
#24=STYLED_ITEM('',(#88,#89),#90);
#25=STYLED_ITEM('',(#91),#92);
#26=STYLED_ITEM('',(#93),#94);
#27=STYLED_ITEM('',(#95,#96),#97);
#28=STYLED_ITEM('',(#98),#99);
#29=STYLED_ITEM('',(#100),#101);
#30=STYLED_ITEM('',(#102,#103),#104);
#31=STYLED_ITEM('',(#105,#106),#107);
#32=STYLED_ITEM('',(#108,#109),#110);
#33=STYLED_ITEM('',(#111),#112);
#34=STYLED_ITEM('',(#113),#114);
#35=STYLED_ITEM('',(#115),#116);
#36=STYLED_ITEM('',(#117,#118),#119);
#37=STYLED_ITEM('',(#120),#121);
#38=APPLICATION_CONTEXT(' ');
#39=PRODUCT_CATEGORY('part','NONE');
#40=PRODUCT_RELATED_PRODUCT_CATEGORY('detail',' ',(#122));
#41=PRODUCT_DEFINITION_SHAPE('NONE','NONE',#123);
#42=ADVANCED_BREP_SHAPE_REPRESENTATION('240[2]',(#97,#124),#6);
#45=UNCERTAINTY_MEASURE_WITH_UNIT(LENGTH_MEASURE(1.0E-006),#47,'','');
#47= (CONVERSION_BASED_UNIT('MILLIMETRE',#127)LENGTH_UNIT()NAMED_UNIT(#130));
#48= (NAMED_UNIT(#132)PLANE_ANGLE_UNIT()SI_UNIT($,.RADIAN.));
#49= (NAMED_UNIT(#132)SOLID_ANGLE_UNIT()SI_UNIT($,.STERADIAN.));
#51=PRESENTATION_STYLE_ASSIGNMENT((#138));
#52=PRESENTATION_STYLE_ASSIGNMENT((#139));
#53=ADVANCED_FACE('240[2]',(#140,#141),#142,.T.);
#54=PRESENTATION_STYLE_ASSIGNMENT((#143));
#55=PRESENTATION_STYLE_ASSIGNMENT((#144));
#56=ADVANCED_FACE('240[2]',(#145,#146),#147,.T.);
#57=PRESENTATION_STYLE_ASSIGNMENT((#148));
#58=EDGE_CURVE('240[2]',#149,#149,#150,.T.);
#59=PRESENTATION_STYLE_ASSIGNMENT((#151));
#60=EDGE_CURVE('240[2]',#152,#152,#153,.T.);
#61=PRESENTATION_STYLE_ASSIGNMENT((#154));
#62=EDGE_CURVE('240[2]',#155,#155,#156,.T.);
#63=PRESENTATION_STYLE_ASSIGNMENT((#157));
#64=PRESENTATION_STYLE_ASSIGNMENT((#158));
#65=ADVANCED_FACE('240[2]',(#159,#160),#161,.T.);
#66=PRESENTATION_STYLE_ASSIGNMENT((#162));
#67=PRESENTATION_STYLE_ASSIGNMENT((#163));
#68=ADVANCED_FACE('240[2]',(#164),#165,.T.);
#69=PRESENTATION_STYLE_ASSIGNMENT((#166));
#70=PRESENTATION_STYLE_ASSIGNMENT((#167));
#71=ADVANCED_FACE('240[2]',(#168,#169),#170,.T.);
#72=PRESENTATION_STYLE_ASSIGNMENT((#171));
#73=PRESENTATION_STYLE_ASSIGNMENT((#172));
#74=ADVANCED_FACE('240[2]',(#173,#174),#175,.T.);
#75=PRESENTATION_STYLE_ASSIGNMENT((#176));
#76=PRESENTATION_STYLE_ASSIGNMENT((#177));
#77=ADVANCED_FACE('240[2]',(#178,#179),#180,.T.);
#78=PRESENTATION_STYLE_ASSIGNMENT((#181));
#79=PRESENTATION_STYLE_ASSIGNMENT((#182));
#80=ADVANCED_FACE('240[2]',(#183,#184),#185,.T.);
#81=PRESENTATION_STYLE_ASSIGNMENT((#186));
#82=PRESENTATION_STYLE_ASSIGNMENT((#187));
#83=ADVANCED_FACE('240[2]',(#188,#189),#190,.T.);
#84=PRESENTATION_STYLE_ASSIGNMENT((#191));
#85=EDGE_CURVE('240[2]',#192,#192,#193,.T.);
#86=PRESENTATION_STYLE_ASSIGNMENT((#194));
#87=EDGE_CURVE('240[2]',#195,#195,#196,.T.);
#88=PRESENTATION_STYLE_ASSIGNMENT((#197));
#89=PRESENTATION_STYLE_ASSIGNMENT((#198));
#90=ADVANCED_FACE('240[2]',(#199,#200),#201,.T.);
#91=PRESENTATION_STYLE_ASSIGNMENT((#202));
#92=EDGE_CURVE('240[2]',#203,#203,#204,.T.);
#93=PRESENTATION_STYLE_ASSIGNMENT((#205));
#94=EDGE_CURVE('240[2]',#206,#206,#207,.T.);
#95=PRESENTATION_STYLE_ASSIGNMENT((#208));
#96=PRESENTATION_STYLE_ASSIGNMENT((#209));
#97=MANIFOLD_SOLID_BREP('240[2]',#210);
#98=PRESENTATION_STYLE_ASSIGNMENT((#211));
#99=EDGE_CURVE('240[2]',#212,#212,#213,.T.);
#100=PRESENTATION_STYLE_ASSIGNMENT((#214));
#101=EDGE_CURVE('240[2]',#215,#215,#216,.T.);
#102=PRESENTATION_STYLE_ASSIGNMENT((#217));
#103=PRESENTATION_STYLE_ASSIGNMENT((#218));
#104=ADVANCED_FACE('240[2]',(#219,#220),#221,.T.);
#105=PRESENTATION_STYLE_ASSIGNMENT((#222));
#106=PRESENTATION_STYLE_ASSIGNMENT((#223));
#107=ADVANCED_FACE('240[2]',(#224,#225),#226,.T.);
#108=PRESENTATION_STYLE_ASSIGNMENT((#227));
#109=PRESENTATION_STYLE_ASSIGNMENT((#228));
#110=ADVANCED_FACE('240[2]',(#229,#230),#231,.T.);
#111=PRESENTATION_STYLE_ASSIGNMENT((#232));
#112=EDGE_CURVE('240[2]',#233,#233,#234,.T.);
#113=PRESENTATION_STYLE_ASSIGNMENT((#235));
#114=EDGE_CURVE('240[2]',#236,#236,#237,.T.);
#115=PRESENTATION_STYLE_ASSIGNMENT((#238));
#116=EDGE_CURVE('240[2]',#239,#239,#240,.T.);
#117=PRESENTATION_STYLE_ASSIGNMENT((#241));
#118=PRESENTATION_STYLE_ASSIGNMENT((#242));
#119=ADVANCED_FACE('240[2]',(#243),#244,.T.);
#120=PRESENTATION_STYLE_ASSIGNMENT((#245));
#121=EDGE_CURVE('240[2]',#246,#246,#247,.T.);
#122=PRODUCT('240[2]','240[2]','PART-240[2]-DESC',(#248));
#123=PRODUCT_DEFINITION('NONE','NONE',#249,#2);
#124=AXIS2_PLACEMENT_3D('',#250,#251,#252);
#127=LENGTH_MEASURE_WITH_UNIT(LENGTH_MEASURE(1.0),#253);
#130=DIMENSIONAL_EXPONENTS(1.0,0.0,0.0,0.0,0.0,0.0,0.0);
#132=DIMENSIONAL_EXPONENTS(0.0,0.0,0.0,0.0,0.0,0.0,0.0);
#138=SURFACE_STYLE_USAGE(.BOTH.,#254);
#139=CURVE_STYLE('',#255,POSITIVE_LENGTH_MEASURE(1000.0),#256);
#140=FACE_BOUND('',#257,.T.);
#141=FACE_BOUND('',#258,.T.);
#142=CONICAL_SURFACE('',#259,15.075,0.124354994546764);
#143=SURFACE_STYLE_USAGE(.BOTH.,#260);
#144=CURVE_STYLE('',#261,POSITIVE_LENGTH_MEASURE(1000.0),#262);
#145=FACE_OUTER_BOUND('',#263,.T.);
#146=FACE_BOUND('',#264,.T.);
#147=PLANE('',#265);
#148=CURVE_STYLE('',#266,POSITIVE_LENGTH_MEASURE(1000.0),#267);
#149=VERTEX_POINT('',#268);
#150=CIRCLE('',#269,15.0);
#151=CURVE_STYLE('',#270,POSITIVE_LENGTH_MEASURE(1000.0),#271);
#152=VERTEX_POINT('',#272);
#153=CIRCLE('',#273,11.7);
#154=CURVE_STYLE('',#274,POSITIVE_LENGTH_MEASURE(1000.0),#275);
#155=VERTEX_POINT('',#276);
#156=CIRCLE('',#277,15.0);
#157=SURFACE_STYLE_USAGE(.BOTH.,#278);
#158=CURVE_STYLE('',#279,POSITIVE_LENGTH_MEASURE(1000.0),#280);
#159=FACE_BOUND('',#281,.T.);
#160=FACE_BOUND('',#282,.T.);
#161=CYLINDRICAL_SURFACE('',#283,11.7);
#162=SURFACE_STYLE_USAGE(.BOTH.,#284);
#163=CURVE_STYLE('',#285,POSITIVE_LENGTH_MEASURE(1000.0),#286);
#164=FACE_OUTER_BOUND('',#287,.T.);
#165=PLANE('',#288);
#166=SURFACE_STYLE_USAGE(.BOTH.,#289);
#167=CURVE_STYLE('',#290,POSITIVE_LENGTH_MEASURE(1000.0),#291);
#168=FACE_BOUND('',#292,.T.);
#169=FACE_BOUND('',#293,.T.);
#170=CYLINDRICAL_SURFACE('',#294,15.0);
#171=SURFACE_STYLE_USAGE(.BOTH.,#295);
#172=CURVE_STYLE('',#296,POSITIVE_LENGTH_MEASURE(1000.0),#297);
#173=FACE_BOUND('',#298,.T.);
#174=FACE_BOUND('',#299,.T.);
#175=CYLINDRICAL_SURFACE('',#300,15.0);
#176=SURFACE_STYLE_USAGE(.BOTH.,#301);
#177=CURVE_STYLE('',#302,POSITIVE_LENGTH_MEASURE(1000.0),#303);
#178=FACE_BOUND('',#304,.T.);
#179=FACE_BOUND('',#305,.T.);
#180=CYLINDRICAL_SURFACE('',#306,15.0);
#181=SURFACE_STYLE_USAGE(.BOTH.,#307);
#182=CURVE_STYLE('',#308,POSITIVE_LENGTH_MEASURE(1000.0),#309);
#183=FACE_BOUND('',#310,.T.);
#184=FACE_BOUND('',#311,.T.);
#185=CYLINDRICAL_SURFACE('',#312,19.5);
#186=SURFACE_STYLE_USAGE(.BOTH.,#313);
#187=CURVE_STYLE('',#314,POSITIVE_LENGTH_MEASURE(1000.0),#315);
#188=FACE_BOUND('',#316,.T.);
#189=FACE_BOUND('',#317,.T.);
#190=CONICAL_SURFACE('',#318,17.25,1.30899693876846);
#191=CURVE_STYLE('',#319,POSITIVE_LENGTH_MEASURE(1000.0),#320);
#192=VERTEX_POINT('',#321);
#193=CIRCLE('',#322,15.0);
#194=CURVE_STYLE('',#323,POSITIVE_LENGTH_MEASURE(1000.0),#324);
#195=VERTEX_POINT('',#325);
#196=CIRCLE('',#326,15.15);
#197=SURFACE_STYLE_USAGE(.BOTH.,#327);
#198=CURVE_STYLE('',#328,POSITIVE_LENGTH_MEASURE(1000.0),#329);
#199=FACE_OUTER_BOUND('',#330,.T.);
#200=FACE_BOUND('',#331,.T.);
#201=PLANE('',#332);
#202=CURVE_STYLE('',#333,POSITIVE_LENGTH_MEASURE(1000.0),#334);
#203=VERTEX_POINT('',#335);
#204=CIRCLE('',#336,15.15);
#205=CURVE_STYLE('',#337,POSITIVE_LENGTH_MEASURE(1000.0),#338);
#206=VERTEX_POINT('',#339);
#207=CIRCLE('',#340,19.0);
#208=SURFACE_STYLE_USAGE(.BOTH.,#341);
#209=CURVE_STYLE('',#342,POSITIVE_LENGTH_MEASURE(1000.0),#343);
#210=CLOSED_SHELL('',(#56,#68,#77,#110,#80,#83,#71,#90,#65,#104,#107,#53,#74,#119));
#211=CURVE_STYLE('',#344,POSITIVE_LENGTH_MEASURE(1000.0),#345);
#212=VERTEX_POINT('',#346);
#213=CIRCLE('',#347,15.0);
#214=CURVE_STYLE('',#348,POSITIVE_LENGTH_MEASURE(1000.0),#349);
#215=VERTEX_POINT('',#350);
#216=CIRCLE('',#351,19.5);
#217=SURFACE_STYLE_USAGE(.BOTH.,#352);
#218=CURVE_STYLE('',#353,POSITIVE_LENGTH_MEASURE(1000.0),#354);
#219=FACE_OUTER_BOUND('',#355,.T.);
#220=FACE_BOUND('',#356,.T.);
#221=PLANE('',#357);
#222=SURFACE_STYLE_USAGE(.BOTH.,#358);
#223=CURVE_STYLE('',#359,POSITIVE_LENGTH_MEASURE(1000.0),#360);
#224=FACE_BOUND('',#361,.T.);
#225=FACE_BOUND('',#362,.T.);
#226=CYLINDRICAL_SURFACE('',#363,15.15);
#227=SURFACE_STYLE_USAGE(.BOTH.,#364);
#228=CURVE_STYLE('',#365,POSITIVE_LENGTH_MEASURE(1000.0),#366);
#229=FACE_BOUND('',#367,.T.);
#230=FACE_BOUND('',#368,.T.);
#231=CONICAL_SURFACE('',#369,19.25,0.349065841567637);
#232=CURVE_STYLE('',#370,POSITIVE_LENGTH_MEASURE(1000.0),#371);
#233=VERTEX_POINT('',#372);
#234=CIRCLE('',#373,11.7);
#235=CURVE_STYLE('',#374,POSITIVE_LENGTH_MEASURE(1000.0),#375);
#236=VERTEX_POINT('',#376);
#237=CIRCLE('',#377,15.0);
#238=CURVE_STYLE('',#378,POSITIVE_LENGTH_MEASURE(1000.0),#379);
#239=VERTEX_POINT('',#380);
#240=CIRCLE('',#381,15.0);
#241=SURFACE_STYLE_USAGE(.BOTH.,#382);
#242=CURVE_STYLE('',#383,POSITIVE_LENGTH_MEASURE(1000.0),#384);
#243=FACE_OUTER_BOUND('',#385,.T.);
#244=PLANE('',#386);
#245=CURVE_STYLE('',#387,POSITIVE_LENGTH_MEASURE(1000.0),#388);
#246=VERTEX_POINT('',#389);
#247=CIRCLE('',#390,19.5);
#248=PRODUCT_CONTEXT('',#38,'mechanical');
#249=PRODUCT_DEFINITION_FORMATION_WITH_SPECIFIED_SOURCE(' ','NONE',#122,.NOT_KNOWN.);
#250=CARTESIAN_POINT('',(0.0,0.0,0.0));
#251=DIRECTION('',(0.0,0.0,1.0));
#252=DIRECTION('',(1.0,0.0,0.0));
#253= (NAMED_UNIT(#130)LENGTH_UNIT()SI_UNIT(.MILLI.,.METRE.));
#254=SURFACE_SIDE_STYLE('',(#392));
#255=DRAUGHTING_PRE_DEFINED_CURVE_FONT('continuous');
#256=COLOUR_RGB('',0.0,1.0,1.0);
#257=EDGE_LOOP('',(#393));
#258=EDGE_LOOP('',(#394));
#259=AXIS2_PLACEMENT_3D('',#395,#396,#397);
#260=SURFACE_SIDE_STYLE('',(#398));
#261=DRAUGHTING_PRE_DEFINED_CURVE_FONT('continuous');
#262=COLOUR_RGB('',0.0,1.0,1.0);
#263=EDGE_LOOP('',(#399));
#264=EDGE_LOOP('',(#400));
#265=AXIS2_PLACEMENT_3D('',#401,#402,#403);
#266=DRAUGHTING_PRE_DEFINED_CURVE_FONT('continuous');
#267=COLOUR_RGB('',0.0,1.0,1.0);
#268=CARTESIAN_POINT('',(-2.96976848793233E-015,15.0,42.5000000274748));
#269=AXIS2_PLACEMENT_3D('',#404,#405,#406);
#270=DRAUGHTING_PRE_DEFINED_CURVE_FONT('continuous');
#271=COLOUR_RGB('',0.0,1.0,1.0);
#272=CARTESIAN_POINT('',(-1.46957615897682E-015,11.7,24.0));
#273=AXIS2_PLACEMENT_3D('',#407,#408,#409);
#274=DRAUGHTING_PRE_DEFINED_CURVE_FONT('continuous');
#275=COLOUR_RGB('',0.0,1.0,1.0);
#276=CARTESIAN_POINT('',(-6.36816335556624E-015,15.0,104.0));
#277=AXIS2_PLACEMENT_3D('',#410,#411,#412);
#278=SURFACE_SIDE_STYLE('',(#413));
#279=DRAUGHTING_PRE_DEFINED_CURVE_FONT('continuous');
#280=COLOUR_RGB('',0.0,1.0,1.0);
#281=EDGE_LOOP('',(#414));
#282=EDGE_LOOP('',(#415));
#283=AXIS2_PLACEMENT_3D('',#416,#417,#418);
#284=SURFACE_SIDE_STYLE('',(#419));
#285=DRAUGHTING_PRE_DEFINED_CURVE_FONT('continuous');
#286=COLOUR_RGB('',0.0,1.0,1.0);
#287=EDGE_LOOP('',(#420));
#288=AXIS2_PLACEMENT_3D('',#421,#422,#423);
#289=SURFACE_SIDE_STYLE('',(#424));
#290=DRAUGHTING_PRE_DEFINED_CURVE_FONT('continuous');
#291=COLOUR_RGB('',0.0,1.0,1.0);
#292=EDGE_LOOP('',(#425));
#293=EDGE_LOOP('',(#426));
#294=AXIS2_PLACEMENT_3D('',#427,#428,#429);
#295=SURFACE_SIDE_STYLE('',(#430));
#296=DRAUGHTING_PRE_DEFINED_CURVE_FONT('continuous');
#297=COLOUR_RGB('',0.0,1.0,1.0);
#298=EDGE_LOOP('',(#431));
#299=EDGE_LOOP('',(#432));
#300=AXIS2_PLACEMENT_3D('',#433,#434,#435);
#301=SURFACE_SIDE_STYLE('',(#436));
#302=DRAUGHTING_PRE_DEFINED_CURVE_FONT('continuous');
#303=COLOUR_RGB('',0.0,1.0,1.0);
#304=EDGE_LOOP('',(#437));
#305=EDGE_LOOP('',(#438));
#306=AXIS2_PLACEMENT_3D('',#439,#440,#441);
#307=SURFACE_SIDE_STYLE('',(#442));
#308=DRAUGHTING_PRE_DEFINED_CURVE_FONT('continuous');
#309=COLOUR_RGB('',0.0,1.0,1.0);
#310=EDGE_LOOP('',(#443));
#311=EDGE_LOOP('',(#444));
#312=AXIS2_PLACEMENT_3D('',#445,#446,#447);
#313=SURFACE_SIDE_STYLE('',(#448));
#314=DRAUGHTING_PRE_DEFINED_CURVE_FONT('continuous');
#315=COLOUR_RGB('',0.0,1.0,1.0);
#316=EDGE_LOOP('',(#449));
#317=EDGE_LOOP('',(#450));
#318=AXIS2_PLACEMENT_3D('',#451,#452,#453);
#319=DRAUGHTING_PRE_DEFINED_CURVE_FONT('continuous');
#320=COLOUR_RGB('',0.0,1.0,1.0);
#321=CARTESIAN_POINT('',(-2.06929969607787E-015,15.0,33.7942286301421));
#322=AXIS2_PLACEMENT_3D('',#454,#455,#456);
#323=DRAUGHTING_PRE_DEFINED_CURVE_FONT('continuous');
#324=COLOUR_RGB('',0.0,1.0,1.0);
#325=CARTESIAN_POINT('',(-1.46957615897682E-015,15.15,24.0));
#326=AXIS2_PLACEMENT_3D('',#457,#458,#459);
#327=SURFACE_SIDE_STYLE('',(#460));
#328=DRAUGHTING_PRE_DEFINED_CURVE_FONT('continuous');
#329=COLOUR_RGB('',0.0,1.0,1.0);
#330=EDGE_LOOP('',(#461));
#331=EDGE_LOOP('',(#462));
#332=AXIS2_PLACEMENT_3D('',#463,#464,#465);
#333=DRAUGHTING_PRE_DEFINED_CURVE_FONT('continuous');
#334=COLOUR_RGB('',0.0,1.0,1.0);
#335=CARTESIAN_POINT('',(-1.34711147906209E-015,15.15,22.0));
#336=AXIS2_PLACEMENT_3D('',#466,#467,#468);
#337=DRAUGHTING_PRE_DEFINED_CURVE_FONT('continuous');
#338=COLOUR_RGB('',0.0,1.0,1.0);
#339=CARTESIAN_POINT('',(-2.60237444987047E-015,19.0,42.5000000274748));
#340=AXIS2_PLACEMENT_3D('',#469,#470,#471);
#341=SURFACE_SIDE_STYLE('',(#472));
#342=DRAUGHTING_PRE_DEFINED_CURVE_FONT('continuous');
#343=COLOUR_RGB('',0.0,1.0,1.0);
#344=DRAUGHTING_PRE_DEFINED_CURVE_FONT('continuous');
#345=COLOUR_RGB('',0.0,1.0,1.0);
#346=CARTESIAN_POINT('',(-1.27363267111325E-015,15.0,20.8));
#347=AXIS2_PLACEMENT_3D('',#473,#474,#475);
#348=DRAUGHTING_PRE_DEFINED_CURVE_FONT('continuous');
#349=COLOUR_RGB('',0.0,1.0,1.0);
#350=CARTESIAN_POINT('',(-2.51825721187249E-015,19.5,41.12626128));
#351=AXIS2_PLACEMENT_3D('',#476,#477,#478);
#352=SURFACE_SIDE_STYLE('',(#479));
#353=DRAUGHTING_PRE_DEFINED_CURVE_FONT('continuous');
#354=COLOUR_RGB('',0.0,1.0,1.0);
#355=EDGE_LOOP('',(#480));
#356=EDGE_LOOP('',(#481));
#357=AXIS2_PLACEMENT_3D('',#482,#483,#484);
#358=SURFACE_SIDE_STYLE('',(#485));
#359=DRAUGHTING_PRE_DEFINED_CURVE_FONT('continuous');
#360=COLOUR_RGB('',0.0,1.0,1.0);
#361=EDGE_LOOP('',(#486));
#362=EDGE_LOOP('',(#487));
#363=AXIS2_PLACEMENT_3D('',#488,#489,#490);
#364=SURFACE_SIDE_STYLE('',(#491));
#365=DRAUGHTING_PRE_DEFINED_CURVE_FONT('continuous');
#366=COLOUR_RGB('',0.0,1.0,1.0);
#367=EDGE_LOOP('',(#492));
#368=EDGE_LOOP('',(#493));
#369=AXIS2_PLACEMENT_3D('',#494,#495,#496);
#370=DRAUGHTING_PRE_DEFINED_CURVE_FONT('continuous');
#371=COLOUR_RGB('',0.0,1.0,1.0);
#372=CARTESIAN_POINT('',(-1.53080849893419E-015,11.7,25.0));
#373=AXIS2_PLACEMENT_3D('',#497,#498,#499);
#374=DRAUGHTING_PRE_DEFINED_CURVE_FONT('continuous');
#375=COLOUR_RGB('',0.0,1.0,1.0);
#376=CARTESIAN_POINT('',(-1.53080849893419E-015,15.0,25.0));
#377=AXIS2_PLACEMENT_3D('',#500,#501,#502);
#378=DRAUGHTING_PRE_DEFINED_CURVE_FONT('continuous');
#379=COLOUR_RGB('',0.0,1.0,1.0);
#380=CARTESIAN_POINT('',(0.0,15.0,0.0));
#381=AXIS2_PLACEMENT_3D('',#503,#504,#505);
#382=SURFACE_SIDE_STYLE('',(#506));
#383=DRAUGHTING_PRE_DEFINED_CURVE_FONT('continuous');
#384=COLOUR_RGB('',0.0,1.0,1.0);
#385=EDGE_LOOP('',(#507));
#386=AXIS2_PLACEMENT_3D('',#508,#509,#510);
#387=DRAUGHTING_PRE_DEFINED_CURVE_FONT('continuous');
#388=COLOUR_RGB('',0.0,1.0,1.0);
#389=CARTESIAN_POINT('',(-2.14313189833509E-015,19.5,34.9999999971784));
#390=AXIS2_PLACEMENT_3D('',#511,#512,#513);
#392=SURFACE_STYLE_FILL_AREA(#514);
#393=ORIENTED_EDGE('',*,*,#99,.F.);
#394=ORIENTED_EDGE('',*,*,#92,.T.);
#395=CARTESIAN_POINT('',(-1.31037207508767E-015,-2.62074415017534E-015,21.4));
#396=DIRECTION('',(-6.12323399573677E-017,-1.22464679914735E-016,1.0));
#397=DIRECTION('',(-1.23259516440783E-032,1.0,1.22464679914735E-016));
#398=SURFACE_STYLE_FILL_AREA(#515);
#399=ORIENTED_EDGE('',*,*,#94,.F.);
#400=ORIENTED_EDGE('',*,*,#58,.T.);
#401=CARTESIAN_POINT('',(-14.7627727571536,2.65716776298424,42.5000000274748));
#402=DIRECTION('',(0.0,0.0,1.0));
#403=DIRECTION('',(1.0,-0.0,0.0));
#404=CARTESIAN_POINT('',(-2.96976848793233E-015,-5.93953697586466E-015,42.5000000274748));
#405=DIRECTION('',(6.12323399573677E-017,1.22464679914735E-016,-1.0));
#406=DIRECTION('',(-1.23259516440783E-032,1.0,1.22464679914735E-016));
#407=CARTESIAN_POINT('',(-1.46957615897682E-015,-2.93915231795365E-015,24.0));
#408=DIRECTION('',(6.12323399573677E-017,1.22464679914735E-016,-1.0));
#409=DIRECTION('',(-1.23259516440783E-032,1.0,1.22464679914735E-016));
#410=CARTESIAN_POINT('',(-6.36816335556624E-015,-1.27363267111325E-014,104.0));
#411=DIRECTION('',(6.12323399573677E-017,1.22464679914735E-016,-1.0));
#412=DIRECTION('',(-1.23259516440783E-032,1.0,1.22464679914735E-016));
#413=SURFACE_STYLE_FILL_AREA(#516);
#414=ORIENTED_EDGE('',*,*,#60,.F.);
#415=ORIENTED_EDGE('',*,*,#112,.T.);
#416=CARTESIAN_POINT('',(-1.50019232895551E-015,-3.00038465791102E-015,24.5));
#417=DIRECTION('',(-6.12323399573677E-017,-1.22464679914735E-016,1.0));
#418=DIRECTION('',(-1.23259516440783E-032,1.0,1.22464679914735E-016));
#419=SURFACE_STYLE_FILL_AREA(#517);
#420=ORIENTED_EDGE('',*,*,#62,.F.);
#421=CARTESIAN_POINT('',(-6.36816335556624E-015,7.49999999999999,104.0));
#422=DIRECTION('',(-9.18338008663382E-049,-1.22464679914735E-016,1.0));
#423=DIRECTION('',(1.0,-7.49879891330927E-033,0.0));
#424=SURFACE_STYLE_FILL_AREA(#518);
#425=ORIENTED_EDGE('',*,*,#114,.F.);
#426=ORIENTED_EDGE('',*,*,#85,.T.);
#427=CARTESIAN_POINT('',(-1.80005409750603E-015,-3.60010819501206E-015,29.3971143150711));
#428=DIRECTION('',(-6.12323399573677E-017,-1.22464679914735E-016,1.0));
#429=DIRECTION('',(-1.23259516440783E-032,1.0,1.22464679914735E-016));
#430=SURFACE_STYLE_FILL_AREA(#519);
#431=ORIENTED_EDGE('',*,*,#116,.F.);
#432=ORIENTED_EDGE('',*,*,#99,.T.);
#433=CARTESIAN_POINT('',(-6.36816335556624E-016,-1.27363267111325E-015,10.4));
#434=DIRECTION('',(-6.12323399573677E-017,-1.22464679914735E-016,1.0));
#435=DIRECTION('',(-1.23259516440783E-032,1.0,1.22464679914735E-016));
#436=SURFACE_STYLE_FILL_AREA(#520);
#437=ORIENTED_EDGE('',*,*,#58,.F.);
#438=ORIENTED_EDGE('',*,*,#62,.T.);
#439=CARTESIAN_POINT('',(-4.66896592174928E-015,-9.33793184349857E-015,76.25));
#440=DIRECTION('',(-6.12323399573677E-017,-1.22464679914735E-016,1.0));
#441=DIRECTION('',(-1.23259516440783E-032,1.0,1.22464679914735E-016));
#442=SURFACE_STYLE_FILL_AREA(#521);
#443=ORIENTED_EDGE('',*,*,#121,.F.);
#444=ORIENTED_EDGE('',*,*,#101,.T.);
#445=CARTESIAN_POINT('',(-2.33069455510379E-015,-4.66138911020758E-015,38.0631306385892));
#446=DIRECTION('',(-6.12323399573677E-017,-1.22464679914735E-016,1.0));
#447=DIRECTION('',(-1.23259516440783E-032,1.0,1.22464679914735E-016));
#448=SURFACE_STYLE_FILL_AREA(#522);
#449=ORIENTED_EDGE('',*,*,#85,.F.);
#450=ORIENTED_EDGE('',*,*,#121,.T.);
#451=CARTESIAN_POINT('',(-2.10621579720648E-015,-4.21243159441296E-015,34.3971143136603));
#452=DIRECTION('',(-6.12323399573677E-017,-1.22464679914735E-016,1.0));
#453=DIRECTION('',(-1.23259516440783E-032,1.0,1.22464679914735E-016));
#454=CARTESIAN_POINT('',(-2.06929969607787E-015,-4.13859939215574E-015,33.7942286301421));
#455=DIRECTION('',(6.12323399573677E-017,1.22464679914735E-016,-1.0));
#456=DIRECTION('',(-1.23259516440783E-032,1.0,1.22464679914735E-016));
#457=CARTESIAN_POINT('',(-1.46957615897682E-015,-2.93915231795365E-015,24.0));
#458=DIRECTION('',(6.12323399573677E-017,1.22464679914735E-016,-1.0));
#459=DIRECTION('',(-1.23259516440783E-032,1.0,1.22464679914735E-016));
#460=SURFACE_STYLE_FILL_AREA(#523);
#461=ORIENTED_EDGE('',*,*,#114,.T.);
#462=ORIENTED_EDGE('',*,*,#112,.F.);
#463=CARTESIAN_POINT('',(-1.53080849893419E-015,13.35,25.0));
#464=DIRECTION('',(6.12323399573677E-017,1.22464679914735E-016,-1.0));
#465=DIRECTION('',(-1.0,0.0,-6.12323399573677E-017));
#466=CARTESIAN_POINT('',(-1.34711147906209E-015,-2.69422295812418E-015,22.0));
#467=DIRECTION('',(6.12323399573677E-017,1.22464679914735E-016,-1.0));
#468=DIRECTION('',(-1.23259516440783E-032,1.0,1.22464679914735E-016));
#469=CARTESIAN_POINT('',(-2.60237444987047E-015,-5.20474889974094E-015,42.5000000274748));
#470=DIRECTION('',(6.12323399573677E-017,1.22464679914735E-016,-1.0));
#471=DIRECTION('',(-1.23259516440783E-032,1.0,1.22464679914735E-016));
#472=SURFACE_STYLE_FILL_AREA(#524);
#473=CARTESIAN_POINT('',(-1.27363267111325E-015,-2.54726534222649E-015,20.8));
#474=DIRECTION('',(6.12323399573677E-017,1.22464679914735E-016,-1.0));
#475=DIRECTION('',(-1.23259516440783E-032,1.0,1.22464679914735E-016));
#476=CARTESIAN_POINT('',(-2.51825721187249E-015,-5.03651442374497E-015,41.12626128));
#477=DIRECTION('',(6.12323399573677E-017,1.22464679914735E-016,-1.0));
#478=DIRECTION('',(-1.23259516440783E-032,1.0,1.22464679914735E-016));
#479=SURFACE_STYLE_FILL_AREA(#525);
#480=ORIENTED_EDGE('',*,*,#87,.F.);
#481=ORIENTED_EDGE('',*,*,#60,.T.);
#482=CARTESIAN_POINT('',(-1.46957615897682E-015,13.425,24.0));
#483=DIRECTION('',(-9.18338008663382E-049,-1.22464679914735E-016,1.0));
#484=DIRECTION('',(1.0,-7.49879891330927E-033,0.0));
#485=SURFACE_STYLE_FILL_AREA(#526);
#486=ORIENTED_EDGE('',*,*,#92,.F.);
#487=ORIENTED_EDGE('',*,*,#87,.T.);
#488=CARTESIAN_POINT('',(-1.40834381901946E-015,-2.81668763803891E-015,23.0));
#489=DIRECTION('',(-6.12323399573677E-017,-1.22464679914735E-016,1.0));
#490=DIRECTION('',(-1.23259516440783E-032,1.0,1.22464679914735E-016));
#491=SURFACE_STYLE_FILL_AREA(#527);
#492=ORIENTED_EDGE('',*,*,#101,.F.);
#493=ORIENTED_EDGE('',*,*,#94,.T.);
#494=CARTESIAN_POINT('',(-2.56031583087148E-015,-5.12063166174296E-015,41.8131306537374));
#495=DIRECTION('',(6.12323399573676E-017,1.22464679914735E-016,-1.0));
#496=DIRECTION('',(-1.23259516440783E-032,1.0,1.22464679914735E-016));
#497=CARTESIAN_POINT('',(-1.53080849893419E-015,-3.06161699786838E-015,25.0));
#498=DIRECTION('',(6.12323399573677E-017,1.22464679914735E-016,-1.0));
#499=DIRECTION('',(-1.23259516440783E-032,1.0,1.22464679914735E-016));
#500=CARTESIAN_POINT('',(-1.53080849893419E-015,-3.06161699786838E-015,25.0));
#501=DIRECTION('',(6.12323399573677E-017,1.22464679914735E-016,-1.0));
#502=DIRECTION('',(-1.23259516440783E-032,1.0,1.22464679914735E-016));
#503=CARTESIAN_POINT('',(0.0,0.0,0.0));
#504=DIRECTION('',(6.12323399573677E-017,1.22464679914735E-016,-1.0));
#505=DIRECTION('',(-1.23259516440783E-032,1.0,1.22464679914735E-016));
#506=SURFACE_STYLE_FILL_AREA(#528);
#507=ORIENTED_EDGE('',*,*,#116,.T.);
#508=CARTESIAN_POINT('',(0.0,7.5,0.0));
#509=DIRECTION('',(6.12323399573677E-017,1.22464679914735E-016,-1.0));
#510=DIRECTION('',(-1.0,0.0,-6.12323399573677E-017));
#511=CARTESIAN_POINT('',(-2.14313189833509E-015,-4.28626379667019E-015,34.9999999971784));
#512=DIRECTION('',(6.12323399573677E-017,1.22464679914735E-016,-1.0));
#513=DIRECTION('',(-1.23259516440783E-032,1.0,1.22464679914735E-016));
#514=FILL_AREA_STYLE('',(#529));
#515=FILL_AREA_STYLE('',(#530));
#516=FILL_AREA_STYLE('',(#531));
#517=FILL_AREA_STYLE('',(#532));
#518=FILL_AREA_STYLE('',(#533));
#519=FILL_AREA_STYLE('',(#534));
#520=FILL_AREA_STYLE('',(#535));
#521=FILL_AREA_STYLE('',(#536));
#522=FILL_AREA_STYLE('',(#537));
#523=FILL_AREA_STYLE('',(#538));
#524=FILL_AREA_STYLE('',(#539));
#525=FILL_AREA_STYLE('',(#540));
#526=FILL_AREA_STYLE('',(#541));
#527=FILL_AREA_STYLE('',(#542));
#528=FILL_AREA_STYLE('',(#543));
#529=FILL_AREA_STYLE_COLOUR('',#544);
#530=FILL_AREA_STYLE_COLOUR('',#545);
#531=FILL_AREA_STYLE_COLOUR('',#546);
#532=FILL_AREA_STYLE_COLOUR('',#547);
#533=FILL_AREA_STYLE_COLOUR('',#548);
#534=FILL_AREA_STYLE_COLOUR('',#549);
#535=FILL_AREA_STYLE_COLOUR('',#550);
#536=FILL_AREA_STYLE_COLOUR('',#551);
#537=FILL_AREA_STYLE_COLOUR('',#552);
#538=FILL_AREA_STYLE_COLOUR('',#553);
#539=FILL_AREA_STYLE_COLOUR('',#554);
#540=FILL_AREA_STYLE_COLOUR('',#555);
#541=FILL_AREA_STYLE_COLOUR('',#556);
#542=FILL_AREA_STYLE_COLOUR('',#557);
#543=FILL_AREA_STYLE_COLOUR('',#558);
#544=COLOUR_RGB('',0.0,1.0,1.0);
#545=COLOUR_RGB('',0.0,1.0,1.0);
#546=COLOUR_RGB('',0.0,1.0,1.0);
#547=COLOUR_RGB('',0.0,1.0,1.0);
#548=COLOUR_RGB('',0.0,1.0,1.0);
#549=COLOUR_RGB('',0.0,1.0,1.0);
#550=COLOUR_RGB('',0.0,1.0,1.0);
#551=COLOUR_RGB('',0.0,1.0,1.0);
#552=COLOUR_RGB('',0.0,1.0,1.0);
#553=COLOUR_RGB('',0.0,1.0,1.0);
#554=COLOUR_RGB('',0.0,1.0,1.0);
#555=COLOUR_RGB('',0.0,1.0,1.0);
#556=COLOUR_RGB('',0.0,1.0,1.0);
#557=COLOUR_RGB('',0.0,1.0,1.0);
#558=COLOUR_RGB('',0.0,1.0,1.0);
ENDSEC;
END-ISO-10303-21;
