ISO-10303-21;
HEADER;
FILE_DESCRIPTION((''),'1');
FILE_NAME('T:/02_3D_Field-HP\X2\FF71FF6FFF8CFF9F5916\X0\2013/02_Step_Field-HP\X2\FF71FF6FFF8CFF9F5916\X0\2013/MGT20-d-150_M12-20.stp','2017-02-08T06:20:45',(''),(''),'Spatial Interop R21 SP3','Kubotek KeyCreator 2011 V10.0.2 (22737)',' ');
FILE_SCHEMA(('automotive_design'));
ENDSEC;
DATA;
#1=MECHANICAL_DESIGN_GEOMETRIC_PRESENTATION_REPRESENTATION(' ',(#10,#11,#12,#13,#14,#15,#16,#17,#18,#19,#20,#21,#22,#23,#24,#25,#26,#27,#28,#29,#30,#31,#32,#33,#34,#35,#36,#37),#6);
#2=PRODUCT_DEFINITION_CONTEXT('',#38,'design');
#3=APPLICATION_PROTOCOL_DEFINITION('INTERNATIONAL STANDARD','automotive_design',1994,#38);
#4=PRODUCT_CATEGORY_RELATIONSHIP('NONE','NONE',#39,#40);
#5=SHAPE_DEFINITION_REPRESENTATION(#41,#42);
#6= (GEOMETRIC_REPRESENTATION_CONTEXT(3)GLOBAL_UNCERTAINTY_ASSIGNED_CONTEXT((#45))GLOBAL_UNIT_ASSIGNED_CONTEXT((#47,#48,#49))REPRESENTATION_CONTEXT('NONE','WORKSPACE'));
#10=STYLED_ITEM('',(#51),#52);
#11=STYLED_ITEM('',(#53,#54),#55);
#12=STYLED_ITEM('',(#56,#57),#58);
#13=STYLED_ITEM('',(#59,#60),#61);
#14=STYLED_ITEM('',(#62),#63);
#15=STYLED_ITEM('',(#64),#65);
#16=STYLED_ITEM('',(#66,#67),#68);
#17=STYLED_ITEM('',(#69),#70);
#18=STYLED_ITEM('',(#71,#72),#73);
#19=STYLED_ITEM('',(#74,#75),#76);
#20=STYLED_ITEM('',(#77),#78);
#21=STYLED_ITEM('',(#79,#80),#81);
#22=STYLED_ITEM('',(#82,#83),#84);
#23=STYLED_ITEM('',(#85,#86),#87);
#24=STYLED_ITEM('',(#88,#89),#90);
#25=STYLED_ITEM('',(#91,#92),#93);
#26=STYLED_ITEM('',(#94,#95),#96);
#27=STYLED_ITEM('',(#97,#98),#99);
#28=STYLED_ITEM('',(#100),#101);
#29=STYLED_ITEM('',(#102),#103);
#30=STYLED_ITEM('',(#104,#105),#106);
#31=STYLED_ITEM('',(#107),#108);
#32=STYLED_ITEM('',(#109,#110),#111);
#33=STYLED_ITEM('',(#112),#113);
#34=STYLED_ITEM('',(#114),#115);
#35=STYLED_ITEM('',(#116),#117);
#36=STYLED_ITEM('',(#118),#119);
#37=STYLED_ITEM('',(#120),#121);
#38=APPLICATION_CONTEXT(' ');
#39=PRODUCT_CATEGORY('part','NONE');
#40=PRODUCT_RELATED_PRODUCT_CATEGORY('detail',' ',(#122));
#41=PRODUCT_DEFINITION_SHAPE('NONE','NONE',#123);
#42=ADVANCED_BREP_SHAPE_REPRESENTATION('240[2]',(#90,#124),#6);
#45=UNCERTAINTY_MEASURE_WITH_UNIT(LENGTH_MEASURE(1.0E-006),#47,'','');
#47= (CONVERSION_BASED_UNIT('MILLIMETRE',#127)LENGTH_UNIT()NAMED_UNIT(#130));
#48= (NAMED_UNIT(#132)PLANE_ANGLE_UNIT()SI_UNIT($,.RADIAN.));
#49= (NAMED_UNIT(#132)SOLID_ANGLE_UNIT()SI_UNIT($,.STERADIAN.));
#51=PRESENTATION_STYLE_ASSIGNMENT((#138));
#52=EDGE_CURVE('240[2]',#139,#139,#140,.T.);
#53=PRESENTATION_STYLE_ASSIGNMENT((#141));
#54=PRESENTATION_STYLE_ASSIGNMENT((#142));
#55=ADVANCED_FACE('240[2]',(#143,#144),#145,.T.);
#56=PRESENTATION_STYLE_ASSIGNMENT((#146));
#57=PRESENTATION_STYLE_ASSIGNMENT((#147));
#58=ADVANCED_FACE('240[2]',(#148),#149,.T.);
#59=PRESENTATION_STYLE_ASSIGNMENT((#150));
#60=PRESENTATION_STYLE_ASSIGNMENT((#151));
#61=ADVANCED_FACE('240[2]',(#152,#153),#154,.T.);
#62=PRESENTATION_STYLE_ASSIGNMENT((#155));
#63=EDGE_CURVE('240[2]',#156,#156,#157,.T.);
#64=PRESENTATION_STYLE_ASSIGNMENT((#158));
#65=EDGE_CURVE('240[2]',#159,#159,#160,.T.);
#66=PRESENTATION_STYLE_ASSIGNMENT((#161));
#67=PRESENTATION_STYLE_ASSIGNMENT((#162));
#68=ADVANCED_FACE('240[2]',(#163,#164),#165,.T.);
#69=PRESENTATION_STYLE_ASSIGNMENT((#166));
#70=EDGE_CURVE('240[2]',#167,#167,#168,.T.);
#71=PRESENTATION_STYLE_ASSIGNMENT((#169));
#72=PRESENTATION_STYLE_ASSIGNMENT((#170));
#73=ADVANCED_FACE('240[2]',(#171,#172),#173,.F.);
#74=PRESENTATION_STYLE_ASSIGNMENT((#174));
#75=PRESENTATION_STYLE_ASSIGNMENT((#175));
#76=ADVANCED_FACE('240[2]',(#176,#177),#178,.T.);
#77=PRESENTATION_STYLE_ASSIGNMENT((#179));
#78=EDGE_CURVE('240[2]',#180,#180,#181,.T.);
#79=PRESENTATION_STYLE_ASSIGNMENT((#182));
#80=PRESENTATION_STYLE_ASSIGNMENT((#183));
#81=ADVANCED_FACE('240[2]',(#184,#185),#186,.T.);
#82=PRESENTATION_STYLE_ASSIGNMENT((#187));
#83=PRESENTATION_STYLE_ASSIGNMENT((#188));
#84=ADVANCED_FACE('240[2]',(#189,#190),#191,.T.);
#85=PRESENTATION_STYLE_ASSIGNMENT((#192));
#86=PRESENTATION_STYLE_ASSIGNMENT((#193));
#87=ADVANCED_FACE('240[2]',(#194,#195),#196,.T.);
#88=PRESENTATION_STYLE_ASSIGNMENT((#197));
#89=PRESENTATION_STYLE_ASSIGNMENT((#198));
#90=MANIFOLD_SOLID_BREP('240[2]',#199);
#91=PRESENTATION_STYLE_ASSIGNMENT((#200));
#92=PRESENTATION_STYLE_ASSIGNMENT((#201));
#93=ADVANCED_FACE('240[2]',(#202,#203),#204,.T.);
#94=PRESENTATION_STYLE_ASSIGNMENT((#205));
#95=PRESENTATION_STYLE_ASSIGNMENT((#206));
#96=ADVANCED_FACE('240[2]',(#207),#208,.T.);
#97=PRESENTATION_STYLE_ASSIGNMENT((#209));
#98=PRESENTATION_STYLE_ASSIGNMENT((#210));
#99=ADVANCED_FACE('240[2]',(#211,#212),#213,.T.);
#100=PRESENTATION_STYLE_ASSIGNMENT((#214));
#101=EDGE_CURVE('240[2]',#215,#215,#216,.T.);
#102=PRESENTATION_STYLE_ASSIGNMENT((#217));
#103=EDGE_CURVE('240[2]',#218,#218,#219,.T.);
#104=PRESENTATION_STYLE_ASSIGNMENT((#220));
#105=PRESENTATION_STYLE_ASSIGNMENT((#221));
#106=ADVANCED_FACE('240[2]',(#222,#223),#224,.T.);
#107=PRESENTATION_STYLE_ASSIGNMENT((#225));
#108=EDGE_CURVE('240[2]',#226,#226,#227,.T.);
#109=PRESENTATION_STYLE_ASSIGNMENT((#228));
#110=PRESENTATION_STYLE_ASSIGNMENT((#229));
#111=ADVANCED_FACE('240[2]',(#230,#231),#232,.T.);
#112=PRESENTATION_STYLE_ASSIGNMENT((#233));
#113=EDGE_CURVE('240[2]',#234,#234,#235,.T.);
#114=PRESENTATION_STYLE_ASSIGNMENT((#236));
#115=EDGE_CURVE('240[2]',#237,#237,#238,.T.);
#116=PRESENTATION_STYLE_ASSIGNMENT((#239));
#117=EDGE_CURVE('240[2]',#240,#240,#241,.T.);
#118=PRESENTATION_STYLE_ASSIGNMENT((#242));
#119=EDGE_CURVE('240[2]',#243,#243,#244,.T.);
#120=PRESENTATION_STYLE_ASSIGNMENT((#245));
#121=EDGE_CURVE('240[2]',#246,#246,#247,.T.);
#122=PRODUCT('240[2]','240[2]','PART-240[2]-DESC',(#248));
#123=PRODUCT_DEFINITION('NONE','NONE',#249,#2);
#124=AXIS2_PLACEMENT_3D('',#250,#251,#252);
#127=LENGTH_MEASURE_WITH_UNIT(LENGTH_MEASURE(1.0),#253);
#130=DIMENSIONAL_EXPONENTS(1.0,0.0,0.0,0.0,0.0,0.0,0.0);
#132=DIMENSIONAL_EXPONENTS(0.0,0.0,0.0,0.0,0.0,0.0,0.0);
#138=CURVE_STYLE('',#254,POSITIVE_LENGTH_MEASURE(1000.0),#255);
#139=VERTEX_POINT('',#256);
#140=CIRCLE('',#257,19.0);
#141=SURFACE_STYLE_USAGE(.BOTH.,#258);
#142=CURVE_STYLE('',#259,POSITIVE_LENGTH_MEASURE(1000.0),#260);
#143=FACE_BOUND('',#261,.T.);
#144=FACE_BOUND('',#262,.T.);
#145=CYLINDRICAL_SURFACE('',#263,15.15);
#146=SURFACE_STYLE_USAGE(.BOTH.,#264);
#147=CURVE_STYLE('',#265,POSITIVE_LENGTH_MEASURE(1000.0),#266);
#148=FACE_OUTER_BOUND('',#267,.T.);
#149=PLANE('',#268);
#150=SURFACE_STYLE_USAGE(.BOTH.,#269);
#151=CURVE_STYLE('',#270,POSITIVE_LENGTH_MEASURE(1000.0),#271);
#152=FACE_OUTER_BOUND('',#272,.T.);
#153=FACE_BOUND('',#273,.T.);
#154=PLANE('',#274);
#155=CURVE_STYLE('',#275,POSITIVE_LENGTH_MEASURE(1000.0),#276);
#156=VERTEX_POINT('',#277);
#157=CIRCLE('',#278,15.0);
#158=CURVE_STYLE('',#279,POSITIVE_LENGTH_MEASURE(1000.0),#280);
#159=VERTEX_POINT('',#281);
#160=CIRCLE('',#282,15.15);
#161=SURFACE_STYLE_USAGE(.BOTH.,#283);
#162=CURVE_STYLE('',#284,POSITIVE_LENGTH_MEASURE(1000.0),#285);
#163=FACE_OUTER_BOUND('',#286,.T.);
#164=FACE_BOUND('',#287,.T.);
#165=PLANE('',#288);
#166=CURVE_STYLE('',#289,POSITIVE_LENGTH_MEASURE(1000.0),#290);
#167=VERTEX_POINT('',#291);
#168=CIRCLE('',#292,15.15);
#169=SURFACE_STYLE_USAGE(.BOTH.,#293);
#170=CURVE_STYLE('',#294,POSITIVE_LENGTH_MEASURE(1000.0),#295);
#171=FACE_OUTER_BOUND('',#296,.T.);
#172=FACE_BOUND('',#297,.T.);
#173=PLANE('',#298);
#174=SURFACE_STYLE_USAGE(.BOTH.,#299);
#175=CURVE_STYLE('',#300,POSITIVE_LENGTH_MEASURE(1000.0),#301);
#176=FACE_BOUND('',#302,.T.);
#177=FACE_BOUND('',#303,.T.);
#178=CONICAL_SURFACE('',#304,15.075,0.124354994546764);
#179=CURVE_STYLE('',#305,POSITIVE_LENGTH_MEASURE(1000.0),#306);
#180=VERTEX_POINT('',#307);
#181=CIRCLE('',#308,15.0);
#182=SURFACE_STYLE_USAGE(.BOTH.,#309);
#183=CURVE_STYLE('',#310,POSITIVE_LENGTH_MEASURE(1000.0),#311);
#184=FACE_BOUND('',#312,.T.);
#185=FACE_BOUND('',#313,.T.);
#186=CYLINDRICAL_SURFACE('',#314,15.0);
#187=SURFACE_STYLE_USAGE(.BOTH.,#315);
#188=CURVE_STYLE('',#316,POSITIVE_LENGTH_MEASURE(1000.0),#317);
#189=FACE_BOUND('',#318,.T.);
#190=FACE_BOUND('',#319,.T.);
#191=CYLINDRICAL_SURFACE('',#320,19.5);
#192=SURFACE_STYLE_USAGE(.BOTH.,#321);
#193=CURVE_STYLE('',#322,POSITIVE_LENGTH_MEASURE(1000.0),#323);
#194=FACE_BOUND('',#324,.T.);
#195=FACE_BOUND('',#325,.T.);
#196=CYLINDRICAL_SURFACE('',#326,11.7);
#197=SURFACE_STYLE_USAGE(.BOTH.,#327);
#198=CURVE_STYLE('',#328,POSITIVE_LENGTH_MEASURE(1000.0),#329);
#199=CLOSED_SHELL('',(#73,#58,#81,#106,#84,#93,#111,#61,#87,#68,#55,#76,#99,#96));
#200=SURFACE_STYLE_USAGE(.BOTH.,#330);
#201=CURVE_STYLE('',#331,POSITIVE_LENGTH_MEASURE(1000.0),#332);
#202=FACE_BOUND('',#333,.T.);
#203=FACE_BOUND('',#334,.T.);
#204=CONICAL_SURFACE('',#335,17.25,1.30899693876846);
#205=SURFACE_STYLE_USAGE(.BOTH.,#336);
#206=CURVE_STYLE('',#337,POSITIVE_LENGTH_MEASURE(1000.0),#338);
#207=FACE_OUTER_BOUND('',#339,.T.);
#208=PLANE('',#340);
#209=SURFACE_STYLE_USAGE(.BOTH.,#341);
#210=CURVE_STYLE('',#342,POSITIVE_LENGTH_MEASURE(1000.0),#343);
#211=FACE_BOUND('',#344,.T.);
#212=FACE_BOUND('',#345,.T.);
#213=CYLINDRICAL_SURFACE('',#346,15.0);
#214=CURVE_STYLE('',#347,POSITIVE_LENGTH_MEASURE(1000.0),#348);
#215=VERTEX_POINT('',#349);
#216=CIRCLE('',#350,19.5);
#217=CURVE_STYLE('',#351,POSITIVE_LENGTH_MEASURE(1000.0),#352);
#218=VERTEX_POINT('',#353);
#219=CIRCLE('',#354,11.7);
#220=SURFACE_STYLE_USAGE(.BOTH.,#355);
#221=CURVE_STYLE('',#356,POSITIVE_LENGTH_MEASURE(1000.0),#357);
#222=FACE_BOUND('',#358,.T.);
#223=FACE_BOUND('',#359,.T.);
#224=CONICAL_SURFACE('',#360,19.25,0.349065841567637);
#225=CURVE_STYLE('',#361,POSITIVE_LENGTH_MEASURE(1000.0),#362);
#226=VERTEX_POINT('',#363);
#227=CIRCLE('',#364,19.5);
#228=SURFACE_STYLE_USAGE(.BOTH.,#365);
#229=CURVE_STYLE('',#366,POSITIVE_LENGTH_MEASURE(1000.0),#367);
#230=FACE_BOUND('',#368,.T.);
#231=FACE_BOUND('',#369,.T.);
#232=CYLINDRICAL_SURFACE('',#370,15.0);
#233=CURVE_STYLE('',#371,POSITIVE_LENGTH_MEASURE(1000.0),#372);
#234=VERTEX_POINT('',#373);
#235=CIRCLE('',#374,15.0);
#236=CURVE_STYLE('',#375,POSITIVE_LENGTH_MEASURE(1000.0),#376);
#237=VERTEX_POINT('',#377);
#238=CIRCLE('',#378,11.7);
#239=CURVE_STYLE('',#379,POSITIVE_LENGTH_MEASURE(1000.0),#380);
#240=VERTEX_POINT('',#381);
#241=CIRCLE('',#382,15.0);
#242=CURVE_STYLE('',#383,POSITIVE_LENGTH_MEASURE(1000.0),#384);
#243=VERTEX_POINT('',#385);
#244=CIRCLE('',#386,15.0);
#245=CURVE_STYLE('',#387,POSITIVE_LENGTH_MEASURE(1000.0),#388);
#246=VERTEX_POINT('',#389);
#247=CIRCLE('',#390,15.0);
#248=PRODUCT_CONTEXT('',#38,'mechanical');
#249=PRODUCT_DEFINITION_FORMATION_WITH_SPECIFIED_SOURCE(' ','NONE',#122,.NOT_KNOWN.);
#250=CARTESIAN_POINT('',(0.0,0.0,0.0));
#251=DIRECTION('',(0.0,0.0,1.0));
#252=DIRECTION('',(1.0,0.0,0.0));
#253= (NAMED_UNIT(#130)LENGTH_UNIT()SI_UNIT(.MILLI.,.METRE.));
#254=DRAUGHTING_PRE_DEFINED_CURVE_FONT('continuous');
#255=COLOUR_RGB('',0.0,1.0,1.0);
#256=CARTESIAN_POINT('',(-9.64409354496775E-015,19.0,157.500000027475));
#257=AXIS2_PLACEMENT_3D('',#392,#393,#394);
#258=SURFACE_SIDE_STYLE('',(#395));
#259=DRAUGHTING_PRE_DEFINED_CURVE_FONT('continuous');
#260=COLOUR_RGB('',0.0,1.0,1.0);
#261=EDGE_LOOP('',(#396));
#262=EDGE_LOOP('',(#397));
#263=AXIS2_PLACEMENT_3D('',#398,#399,#400);
#264=SURFACE_SIDE_STYLE('',(#401));
#265=DRAUGHTING_PRE_DEFINED_CURVE_FONT('continuous');
#266=COLOUR_RGB('',0.0,1.0,1.0);
#267=EDGE_LOOP('',(#402));
#268=AXIS2_PLACEMENT_3D('',#403,#404,#405);
#269=SURFACE_SIDE_STYLE('',(#406));
#270=DRAUGHTING_PRE_DEFINED_CURVE_FONT('continuous');
#271=COLOUR_RGB('',0.0,1.0,1.0);
#272=EDGE_LOOP('',(#407));
#273=EDGE_LOOP('',(#408));
#274=AXIS2_PLACEMENT_3D('',#409,#410,#411);
#275=DRAUGHTING_PRE_DEFINED_CURVE_FONT('continuous');
#276=COLOUR_RGB('',0.0,1.0,1.0);
#277=CARTESIAN_POINT('',(-1.00114875830296E-014,15.0,157.500000027475));
#278=AXIS2_PLACEMENT_3D('',#412,#413,#414);
#279=DRAUGHTING_PRE_DEFINED_CURVE_FONT('continuous');
#280=COLOUR_RGB('',0.0,1.0,1.0);
#281=CARTESIAN_POINT('',(-1.34711147906209E-015,15.15,22.0));
#282=AXIS2_PLACEMENT_3D('',#415,#416,#417);
#283=SURFACE_SIDE_STYLE('',(#418));
#284=DRAUGHTING_PRE_DEFINED_CURVE_FONT('continuous');
#285=COLOUR_RGB('',0.0,1.0,1.0);
#286=EDGE_LOOP('',(#419));
#287=EDGE_LOOP('',(#420));
#288=AXIS2_PLACEMENT_3D('',#421,#422,#423);
#289=DRAUGHTING_PRE_DEFINED_CURVE_FONT('continuous');
#290=COLOUR_RGB('',0.0,1.0,1.0);
#291=CARTESIAN_POINT('',(-1.46957615897682E-015,15.15,24.0));
#292=AXIS2_PLACEMENT_3D('',#424,#425,#426);
#293=SURFACE_SIDE_STYLE('',(#427));
#294=DRAUGHTING_PRE_DEFINED_CURVE_FONT('continuous');
#295=COLOUR_RGB('',0.0,1.0,1.0);
#296=EDGE_LOOP('',(#428));
#297=EDGE_LOOP('',(#429));
#298=AXIS2_PLACEMENT_3D('',#430,#431,#432);
#299=SURFACE_SIDE_STYLE('',(#433));
#300=DRAUGHTING_PRE_DEFINED_CURVE_FONT('continuous');
#301=COLOUR_RGB('',0.0,1.0,1.0);
#302=EDGE_LOOP('',(#434));
#303=EDGE_LOOP('',(#435));
#304=AXIS2_PLACEMENT_3D('',#436,#437,#438);
#305=DRAUGHTING_PRE_DEFINED_CURVE_FONT('continuous');
#306=COLOUR_RGB('',0.0,1.0,1.0);
#307=CARTESIAN_POINT('',(-1.53080849893419E-015,15.0,25.0));
#308=AXIS2_PLACEMENT_3D('',#439,#440,#441);
#309=SURFACE_SIDE_STYLE('',(#442));
#310=DRAUGHTING_PRE_DEFINED_CURVE_FONT('continuous');
#311=COLOUR_RGB('',0.0,1.0,1.0);
#312=EDGE_LOOP('',(#443));
#313=EDGE_LOOP('',(#444));
#314=AXIS2_PLACEMENT_3D('',#445,#446,#447);
#315=SURFACE_SIDE_STYLE('',(#448));
#316=DRAUGHTING_PRE_DEFINED_CURVE_FONT('continuous');
#317=COLOUR_RGB('',0.0,1.0,1.0);
#318=EDGE_LOOP('',(#449));
#319=EDGE_LOOP('',(#450));
#320=AXIS2_PLACEMENT_3D('',#451,#452,#453);
#321=SURFACE_SIDE_STYLE('',(#454));
#322=DRAUGHTING_PRE_DEFINED_CURVE_FONT('continuous');
#323=COLOUR_RGB('',0.0,1.0,1.0);
#324=EDGE_LOOP('',(#455));
#325=EDGE_LOOP('',(#456));
#326=AXIS2_PLACEMENT_3D('',#457,#458,#459);
#327=SURFACE_SIDE_STYLE('',(#460));
#328=DRAUGHTING_PRE_DEFINED_CURVE_FONT('continuous');
#329=COLOUR_RGB('',0.0,1.0,1.0);
#330=SURFACE_SIDE_STYLE('',(#461));
#331=DRAUGHTING_PRE_DEFINED_CURVE_FONT('continuous');
#332=COLOUR_RGB('',0.0,1.0,1.0);
#333=EDGE_LOOP('',(#462));
#334=EDGE_LOOP('',(#463));
#335=AXIS2_PLACEMENT_3D('',#464,#465,#466);
#336=SURFACE_SIDE_STYLE('',(#467));
#337=DRAUGHTING_PRE_DEFINED_CURVE_FONT('continuous');
#338=COLOUR_RGB('',0.0,1.0,1.0);
#339=EDGE_LOOP('',(#468));
#340=AXIS2_PLACEMENT_3D('',#469,#470,#471);
#341=SURFACE_SIDE_STYLE('',(#472));
#342=DRAUGHTING_PRE_DEFINED_CURVE_FONT('continuous');
#343=COLOUR_RGB('',0.0,1.0,1.0);
#344=EDGE_LOOP('',(#473));
#345=EDGE_LOOP('',(#474));
#346=AXIS2_PLACEMENT_3D('',#475,#476,#477);
#347=DRAUGHTING_PRE_DEFINED_CURVE_FONT('continuous');
#348=COLOUR_RGB('',0.0,1.0,1.0);
#349=CARTESIAN_POINT('',(-9.18485099343238E-015,19.5,149.999999997178));
#350=AXIS2_PLACEMENT_3D('',#478,#479,#480);
#351=DRAUGHTING_PRE_DEFINED_CURVE_FONT('continuous');
#352=COLOUR_RGB('',0.0,1.0,1.0);
#353=CARTESIAN_POINT('',(-1.46957615897682E-015,11.7,24.0));
#354=AXIS2_PLACEMENT_3D('',#481,#482,#483);
#355=SURFACE_SIDE_STYLE('',(#484));
#356=DRAUGHTING_PRE_DEFINED_CURVE_FONT('continuous');
#357=COLOUR_RGB('',0.0,1.0,1.0);
#358=EDGE_LOOP('',(#485));
#359=EDGE_LOOP('',(#486));
#360=AXIS2_PLACEMENT_3D('',#487,#488,#489);
#361=DRAUGHTING_PRE_DEFINED_CURVE_FONT('continuous');
#362=COLOUR_RGB('',0.0,1.0,1.0);
#363=CARTESIAN_POINT('',(-9.55997630696977E-015,19.5,156.12626128));
#364=AXIS2_PLACEMENT_3D('',#490,#491,#492);
#365=SURFACE_SIDE_STYLE('',(#493));
#366=DRAUGHTING_PRE_DEFINED_CURVE_FONT('continuous');
#367=COLOUR_RGB('',0.0,1.0,1.0);
#368=EDGE_LOOP('',(#494));
#369=EDGE_LOOP('',(#495));
#370=AXIS2_PLACEMENT_3D('',#496,#497,#498);
#371=DRAUGHTING_PRE_DEFINED_CURVE_FONT('continuous');
#372=COLOUR_RGB('',0.0,1.0,1.0);
#373=CARTESIAN_POINT('',(-9.11101879117515E-015,15.0,148.794228630142));
#374=AXIS2_PLACEMENT_3D('',#499,#500,#501);
#375=DRAUGHTING_PRE_DEFINED_CURVE_FONT('continuous');
#376=COLOUR_RGB('',0.0,1.0,1.0);
#377=CARTESIAN_POINT('',(-1.53080849893419E-015,11.7,25.0));
#378=AXIS2_PLACEMENT_3D('',#502,#503,#504);
#379=DRAUGHTING_PRE_DEFINED_CURVE_FONT('continuous');
#380=COLOUR_RGB('',0.0,1.0,1.0);
#381=CARTESIAN_POINT('',(-1.27363267111325E-015,15.0,20.8));
#382=AXIS2_PLACEMENT_3D('',#505,#506,#507);
#383=DRAUGHTING_PRE_DEFINED_CURVE_FONT('continuous');
#384=COLOUR_RGB('',0.0,1.0,1.0);
#385=CARTESIAN_POINT('',(0.0,15.0,0.0));
#386=AXIS2_PLACEMENT_3D('',#508,#509,#510);
#387=DRAUGHTING_PRE_DEFINED_CURVE_FONT('continuous');
#388=COLOUR_RGB('',0.0,1.0,1.0);
#389=CARTESIAN_POINT('',(-1.34098824506635E-014,15.0,219.0));
#390=AXIS2_PLACEMENT_3D('',#511,#512,#513);
#392=CARTESIAN_POINT('',(-9.64409354496775E-015,-1.92881870899355E-014,157.500000027475));
#393=DIRECTION('',(6.12323399573677E-017,1.22464679914735E-016,-1.0));
#394=DIRECTION('',(-1.23259516440783E-032,1.0,1.22464679914735E-016));
#395=SURFACE_STYLE_FILL_AREA(#514);
#396=ORIENTED_EDGE('',*,*,#65,.F.);
#397=ORIENTED_EDGE('',*,*,#70,.T.);
#398=CARTESIAN_POINT('',(-1.40834381901946E-015,-2.81668763803891E-015,23.0));
#399=DIRECTION('',(6.12323399573677E-017,1.22464679914735E-016,-1.0));
#400=DIRECTION('',(-1.23259516440783E-032,1.0,1.22464679914735E-016));
#401=SURFACE_STYLE_FILL_AREA(#515);
#402=ORIENTED_EDGE('',*,*,#121,.F.);
#403=CARTESIAN_POINT('',(-1.34098824506635E-014,7.49999999999997,219.0));
#404=DIRECTION('',(7.49879891330927E-033,-1.22464679914735E-016,1.0));
#405=DIRECTION('',(1.0,6.12323399573677E-017,0.0));
#406=SURFACE_STYLE_FILL_AREA(#516);
#407=ORIENTED_EDGE('',*,*,#78,.T.);
#408=ORIENTED_EDGE('',*,*,#115,.F.);
#409=CARTESIAN_POINT('',(-1.53080849893419E-015,13.35,25.0));
#410=DIRECTION('',(6.12323399573677E-017,1.22464679914735E-016,-1.0));
#411=DIRECTION('',(-1.0,0.0,-6.12323399573677E-017));
#412=CARTESIAN_POINT('',(-1.00114875830296E-014,-2.00229751660592E-014,157.500000027475));
#413=DIRECTION('',(6.12323399573677E-017,1.22464679914735E-016,-1.0));
#414=DIRECTION('',(-1.23259516440783E-032,1.0,1.22464679914735E-016));
#415=CARTESIAN_POINT('',(-1.34711147906209E-015,-2.69422295812418E-015,22.0));
#416=DIRECTION('',(6.12323399573677E-017,1.22464679914735E-016,-1.0));
#417=DIRECTION('',(-1.23259516440783E-032,1.0,1.22464679914735E-016));
#418=SURFACE_STYLE_FILL_AREA(#517);
#419=ORIENTED_EDGE('',*,*,#70,.F.);
#420=ORIENTED_EDGE('',*,*,#103,.T.);
#421=CARTESIAN_POINT('',(-1.46957615897682E-015,13.425,24.0));
#422=DIRECTION('',(7.49879891330927E-033,-1.22464679914735E-016,1.0));
#423=DIRECTION('',(1.0,6.12323399573677E-017,0.0));
#424=CARTESIAN_POINT('',(-1.46957615897682E-015,-2.93915231795365E-015,24.0));
#425=DIRECTION('',(6.12323399573677E-017,1.22464679914735E-016,-1.0));
#426=DIRECTION('',(-1.23259516440783E-032,1.0,1.22464679914735E-016));
#427=SURFACE_STYLE_FILL_AREA(#518);
#428=ORIENTED_EDGE('',*,*,#52,.F.);
#429=ORIENTED_EDGE('',*,*,#63,.T.);
#430=CARTESIAN_POINT('',(3.54289035064564,-19.6836970095382,157.500000027475));
#431=DIRECTION('',(0.0,0.0,-1.0));
#432=DIRECTION('',(1.0,0.0,0.0));
#433=SURFACE_STYLE_FILL_AREA(#519);
#434=ORIENTED_EDGE('',*,*,#117,.F.);
#435=ORIENTED_EDGE('',*,*,#65,.T.);
#436=CARTESIAN_POINT('',(-1.31037207508767E-015,-2.62074415017533E-015,21.4));
#437=DIRECTION('',(-6.12323399573677E-017,-1.22464679914735E-016,1.0));
#438=DIRECTION('',(-1.23259516440783E-032,1.0,1.22464679914735E-016));
#439=CARTESIAN_POINT('',(-1.53080849893419E-015,-3.06161699786838E-015,25.0));
#440=DIRECTION('',(6.12323399573677E-017,1.22464679914735E-016,-1.0));
#441=DIRECTION('',(-1.23259516440783E-032,1.0,1.22464679914735E-016));
#442=SURFACE_STYLE_FILL_AREA(#520);
#443=ORIENTED_EDGE('',*,*,#63,.F.);
#444=ORIENTED_EDGE('',*,*,#121,.T.);
#445=CARTESIAN_POINT('',(-1.17106850168466E-014,-2.34213700336931E-014,191.25));
#446=DIRECTION('',(6.12323399573677E-017,1.22464679914735E-016,-1.0));
#447=DIRECTION('',(-1.23259516440783E-032,1.0,1.22464679914735E-016));
#448=SURFACE_STYLE_FILL_AREA(#521);
#449=ORIENTED_EDGE('',*,*,#101,.F.);
#450=ORIENTED_EDGE('',*,*,#108,.T.);
#451=CARTESIAN_POINT('',(-9.37241365020107E-015,-1.87448273004021E-014,153.063130638589));
#452=DIRECTION('',(6.12323399573677E-017,1.22464679914735E-016,-1.0));
#453=DIRECTION('',(-1.23259516440783E-032,1.0,1.22464679914735E-016));
#454=SURFACE_STYLE_FILL_AREA(#522);
#455=ORIENTED_EDGE('',*,*,#103,.F.);
#456=ORIENTED_EDGE('',*,*,#115,.T.);
#457=CARTESIAN_POINT('',(-1.50019232895551E-015,-3.00038465791101E-015,24.5));
#458=DIRECTION('',(6.12323399573677E-017,1.22464679914735E-016,-1.0));
#459=DIRECTION('',(-1.23259516440783E-032,1.0,1.22464679914735E-016));
#460=SURFACE_STYLE_FILL_AREA(#523);
#461=SURFACE_STYLE_FILL_AREA(#524);
#462=ORIENTED_EDGE('',*,*,#113,.F.);
#463=ORIENTED_EDGE('',*,*,#101,.T.);
#464=CARTESIAN_POINT('',(-9.14793489230376E-015,-1.82958697846075E-014,149.39711431366));
#465=DIRECTION('',(-6.12323399573677E-017,-1.22464679914735E-016,1.0));
#466=DIRECTION('',(-1.23259516440783E-032,1.0,1.22464679914735E-016));
#467=SURFACE_STYLE_FILL_AREA(#525);
#468=ORIENTED_EDGE('',*,*,#119,.T.);
#469=CARTESIAN_POINT('',(0.0,7.5,0.0));
#470=DIRECTION('',(6.12323399573677E-017,1.22464679914735E-016,-1.0));
#471=DIRECTION('',(-1.0,0.0,-6.12323399573677E-017));
#472=SURFACE_STYLE_FILL_AREA(#526);
#473=ORIENTED_EDGE('',*,*,#119,.F.);
#474=ORIENTED_EDGE('',*,*,#117,.T.);
#475=CARTESIAN_POINT('',(-6.36816335556624E-016,-1.27363267111325E-015,10.4));
#476=DIRECTION('',(6.12323399573677E-017,1.22464679914735E-016,-1.0));
#477=DIRECTION('',(-1.23259516440783E-032,1.0,1.22464679914735E-016));
#478=CARTESIAN_POINT('',(-9.18485099343237E-015,-1.83697019868647E-014,149.999999997178));
#479=DIRECTION('',(6.12323399573677E-017,1.22464679914735E-016,-1.0));
#480=DIRECTION('',(-1.23259516440783E-032,1.0,1.22464679914735E-016));
#481=CARTESIAN_POINT('',(-1.46957615897682E-015,-2.93915231795365E-015,24.0));
#482=DIRECTION('',(6.12323399573677E-017,1.22464679914735E-016,-1.0));
#483=DIRECTION('',(-1.23259516440783E-032,1.0,1.22464679914735E-016));
#484=SURFACE_STYLE_FILL_AREA(#527);
#485=ORIENTED_EDGE('',*,*,#108,.F.);
#486=ORIENTED_EDGE('',*,*,#52,.T.);
#487=CARTESIAN_POINT('',(-9.60203492596876E-015,-1.92040698519375E-014,156.813130653737));
#488=DIRECTION('',(6.12323399573676E-017,1.22464679914735E-016,-1.0));
#489=DIRECTION('',(-1.23259516440783E-032,1.0,1.22464679914735E-016));
#490=CARTESIAN_POINT('',(-9.55997630696977E-015,-1.91199526139395E-014,156.12626128));
#491=DIRECTION('',(6.12323399573677E-017,1.22464679914735E-016,-1.0));
#492=DIRECTION('',(-1.23259516440783E-032,1.0,1.22464679914735E-016));
#493=SURFACE_STYLE_FILL_AREA(#528);
#494=ORIENTED_EDGE('',*,*,#78,.F.);
#495=ORIENTED_EDGE('',*,*,#113,.T.);
#496=CARTESIAN_POINT('',(-5.32091364505467E-015,-1.06418272901093E-014,86.8971143150711));
#497=DIRECTION('',(6.12323399573677E-017,1.22464679914735E-016,-1.0));
#498=DIRECTION('',(-1.23259516440783E-032,1.0,1.22464679914735E-016));
#499=CARTESIAN_POINT('',(-9.11101879117515E-015,-1.82220375823503E-014,148.794228630142));
#500=DIRECTION('',(6.12323399573677E-017,1.22464679914735E-016,-1.0));
#501=DIRECTION('',(-1.23259516440783E-032,1.0,1.22464679914735E-016));
#502=CARTESIAN_POINT('',(-1.53080849893419E-015,-3.06161699786838E-015,25.0));
#503=DIRECTION('',(6.12323399573677E-017,1.22464679914735E-016,-1.0));
#504=DIRECTION('',(-1.23259516440783E-032,1.0,1.22464679914735E-016));
#505=CARTESIAN_POINT('',(-1.27363267111325E-015,-2.5472653422265E-015,20.8));
#506=DIRECTION('',(6.12323399573677E-017,1.22464679914735E-016,-1.0));
#507=DIRECTION('',(-1.23259516440783E-032,1.0,1.22464679914735E-016));
#508=CARTESIAN_POINT('',(0.0,0.0,0.0));
#509=DIRECTION('',(6.12323399573677E-017,1.22464679914735E-016,-1.0));
#510=DIRECTION('',(-1.23259516440783E-032,1.0,1.22464679914735E-016));
#511=CARTESIAN_POINT('',(-1.34098824506635E-014,-2.6819764901327E-014,219.0));
#512=DIRECTION('',(6.12323399573677E-017,1.22464679914735E-016,-1.0));
#513=DIRECTION('',(-1.23259516440783E-032,1.0,1.22464679914735E-016));
#514=FILL_AREA_STYLE('',(#529));
#515=FILL_AREA_STYLE('',(#530));
#516=FILL_AREA_STYLE('',(#531));
#517=FILL_AREA_STYLE('',(#532));
#518=FILL_AREA_STYLE('',(#533));
#519=FILL_AREA_STYLE('',(#534));
#520=FILL_AREA_STYLE('',(#535));
#521=FILL_AREA_STYLE('',(#536));
#522=FILL_AREA_STYLE('',(#537));
#523=FILL_AREA_STYLE('',(#538));
#524=FILL_AREA_STYLE('',(#539));
#525=FILL_AREA_STYLE('',(#540));
#526=FILL_AREA_STYLE('',(#541));
#527=FILL_AREA_STYLE('',(#542));
#528=FILL_AREA_STYLE('',(#543));
#529=FILL_AREA_STYLE_COLOUR('',#544);
#530=FILL_AREA_STYLE_COLOUR('',#545);
#531=FILL_AREA_STYLE_COLOUR('',#546);
#532=FILL_AREA_STYLE_COLOUR('',#547);
#533=FILL_AREA_STYLE_COLOUR('',#548);
#534=FILL_AREA_STYLE_COLOUR('',#549);
#535=FILL_AREA_STYLE_COLOUR('',#550);
#536=FILL_AREA_STYLE_COLOUR('',#551);
#537=FILL_AREA_STYLE_COLOUR('',#552);
#538=FILL_AREA_STYLE_COLOUR('',#553);
#539=FILL_AREA_STYLE_COLOUR('',#554);
#540=FILL_AREA_STYLE_COLOUR('',#555);
#541=FILL_AREA_STYLE_COLOUR('',#556);
#542=FILL_AREA_STYLE_COLOUR('',#557);
#543=FILL_AREA_STYLE_COLOUR('',#558);
#544=COLOUR_RGB('',0.0,1.0,1.0);
#545=COLOUR_RGB('',0.0,1.0,1.0);
#546=COLOUR_RGB('',0.0,1.0,1.0);
#547=COLOUR_RGB('',0.0,1.0,1.0);
#548=COLOUR_RGB('',0.0,1.0,1.0);
#549=COLOUR_RGB('',0.0,1.0,1.0);
#550=COLOUR_RGB('',0.0,1.0,1.0);
#551=COLOUR_RGB('',0.0,1.0,1.0);
#552=COLOUR_RGB('',0.0,1.0,1.0);
#553=COLOUR_RGB('',0.0,1.0,1.0);
#554=COLOUR_RGB('',0.0,1.0,1.0);
#555=COLOUR_RGB('',0.0,1.0,1.0);
#556=COLOUR_RGB('',0.0,1.0,1.0);
#557=COLOUR_RGB('',0.0,1.0,1.0);
#558=COLOUR_RGB('',0.0,1.0,1.0);
ENDSEC;
END-ISO-10303-21;
