ISO-10303-21;
HEADER;
FILE_DESCRIPTION((''),'1');
FILE_NAME('T:/02_3D_Field-HP\X2\FF71FF6FFF8CFF9F5916\X0\2013/02_Step_Field-HP\X2\FF71FF6FFF8CFF9F5916\X0\2013/MGT20-d-150_090071-140112.stp','2017-02-08T07:59:37',(''),(''),'Spatial Interop R21 SP3','Kubotek KeyCreator 2011 V10.0.2 (22737)',' ');
FILE_SCHEMA(('automotive_design'));
ENDSEC;
DATA;
#1=MECHANICAL_DESIGN_GEOMETRIC_PRESENTATION_REPRESENTATION(' ',(#10,#11,#12,#13,#14,#15,#16,#17,#18,#19,#20,#21,#22,#23,#24,#25,#26,#27,#28,#29,#30,#31,#32,#33,#34,#35,#36,#37),#6);
#2=PRODUCT_DEFINITION_CONTEXT('',#38,'design');
#3=APPLICATION_PROTOCOL_DEFINITION('INTERNATIONAL STANDARD','automotive_design',1994,#38);
#4=PRODUCT_CATEGORY_RELATIONSHIP('NONE','NONE',#39,#40);
#5=SHAPE_DEFINITION_REPRESENTATION(#41,#42);
#6= (GEOMETRIC_REPRESENTATION_CONTEXT(3)GLOBAL_UNCERTAINTY_ASSIGNED_CONTEXT((#45))GLOBAL_UNIT_ASSIGNED_CONTEXT((#47,#48,#49))REPRESENTATION_CONTEXT('NONE','WORKSPACE'));
#10=STYLED_ITEM('',(#51),#52);
#11=STYLED_ITEM('',(#53),#54);
#12=STYLED_ITEM('',(#55,#56),#57);
#13=STYLED_ITEM('',(#58,#59),#60);
#14=STYLED_ITEM('',(#61,#62),#63);
#15=STYLED_ITEM('',(#64,#65),#66);
#16=STYLED_ITEM('',(#67),#68);
#17=STYLED_ITEM('',(#69),#70);
#18=STYLED_ITEM('',(#71,#72),#73);
#19=STYLED_ITEM('',(#74,#75),#76);
#20=STYLED_ITEM('',(#77,#78),#79);
#21=STYLED_ITEM('',(#80),#81);
#22=STYLED_ITEM('',(#82),#83);
#23=STYLED_ITEM('',(#84),#85);
#24=STYLED_ITEM('',(#86),#87);
#25=STYLED_ITEM('',(#88,#89),#90);
#26=STYLED_ITEM('',(#91),#92);
#27=STYLED_ITEM('',(#93,#94),#95);
#28=STYLED_ITEM('',(#96,#97),#98);
#29=STYLED_ITEM('',(#99,#100),#101);
#30=STYLED_ITEM('',(#102),#103);
#31=STYLED_ITEM('',(#104,#105),#106);
#32=STYLED_ITEM('',(#107,#108),#109);
#33=STYLED_ITEM('',(#110,#111),#112);
#34=STYLED_ITEM('',(#113),#114);
#35=STYLED_ITEM('',(#115),#116);
#36=STYLED_ITEM('',(#117),#118);
#37=STYLED_ITEM('',(#119,#120),#121);
#38=APPLICATION_CONTEXT(' ');
#39=PRODUCT_CATEGORY('part','NONE');
#40=PRODUCT_RELATED_PRODUCT_CATEGORY('detail',' ',(#122));
#41=PRODUCT_DEFINITION_SHAPE('NONE','NONE',#123);
#42=ADVANCED_BREP_SHAPE_REPRESENTATION('240[2]',(#57,#124),#6);
#45=UNCERTAINTY_MEASURE_WITH_UNIT(LENGTH_MEASURE(1.0E-006),#47,'','');
#47= (CONVERSION_BASED_UNIT('MILLIMETRE',#127)LENGTH_UNIT()NAMED_UNIT(#130));
#48= (NAMED_UNIT(#132)PLANE_ANGLE_UNIT()SI_UNIT($,.RADIAN.));
#49= (NAMED_UNIT(#132)SOLID_ANGLE_UNIT()SI_UNIT($,.STERADIAN.));
#51=PRESENTATION_STYLE_ASSIGNMENT((#138));
#52=EDGE_CURVE('240[2]',#139,#139,#140,.T.);
#53=PRESENTATION_STYLE_ASSIGNMENT((#141));
#54=EDGE_CURVE('240[2]',#142,#142,#143,.T.);
#55=PRESENTATION_STYLE_ASSIGNMENT((#144));
#56=PRESENTATION_STYLE_ASSIGNMENT((#145));
#57=MANIFOLD_SOLID_BREP('240[2]',#146);
#58=PRESENTATION_STYLE_ASSIGNMENT((#147));
#59=PRESENTATION_STYLE_ASSIGNMENT((#148));
#60=ADVANCED_FACE('240[2]',(#149,#150),#151,.T.);
#61=PRESENTATION_STYLE_ASSIGNMENT((#152));
#62=PRESENTATION_STYLE_ASSIGNMENT((#153));
#63=ADVANCED_FACE('240[2]',(#154,#155),#156,.T.);
#64=PRESENTATION_STYLE_ASSIGNMENT((#157));
#65=PRESENTATION_STYLE_ASSIGNMENT((#158));
#66=ADVANCED_FACE('240[2]',(#159,#160),#161,.T.);
#67=PRESENTATION_STYLE_ASSIGNMENT((#162));
#68=EDGE_CURVE('240[2]',#163,#163,#164,.T.);
#69=PRESENTATION_STYLE_ASSIGNMENT((#165));
#70=EDGE_CURVE('240[2]',#166,#166,#167,.T.);
#71=PRESENTATION_STYLE_ASSIGNMENT((#168));
#72=PRESENTATION_STYLE_ASSIGNMENT((#169));
#73=ADVANCED_FACE('240[2]',(#170,#171),#172,.T.);
#74=PRESENTATION_STYLE_ASSIGNMENT((#173));
#75=PRESENTATION_STYLE_ASSIGNMENT((#174));
#76=ADVANCED_FACE('240[2]',(#175,#176),#177,.T.);
#77=PRESENTATION_STYLE_ASSIGNMENT((#178));
#78=PRESENTATION_STYLE_ASSIGNMENT((#179));
#79=ADVANCED_FACE('240[2]',(#180,#181),#182,.T.);
#80=PRESENTATION_STYLE_ASSIGNMENT((#183));
#81=EDGE_CURVE('240[2]',#184,#184,#185,.T.);
#82=PRESENTATION_STYLE_ASSIGNMENT((#186));
#83=EDGE_CURVE('240[2]',#187,#187,#188,.T.);
#84=PRESENTATION_STYLE_ASSIGNMENT((#189));
#85=EDGE_CURVE('240[2]',#190,#190,#191,.T.);
#86=PRESENTATION_STYLE_ASSIGNMENT((#192));
#87=EDGE_CURVE('240[2]',#193,#193,#194,.T.);
#88=PRESENTATION_STYLE_ASSIGNMENT((#195));
#89=PRESENTATION_STYLE_ASSIGNMENT((#196));
#90=ADVANCED_FACE('240[2]',(#197,#198),#199,.F.);
#91=PRESENTATION_STYLE_ASSIGNMENT((#200));
#92=EDGE_CURVE('240[2]',#201,#201,#202,.T.);
#93=PRESENTATION_STYLE_ASSIGNMENT((#203));
#94=PRESENTATION_STYLE_ASSIGNMENT((#204));
#95=ADVANCED_FACE('240[2]',(#205,#206),#207,.T.);
#96=PRESENTATION_STYLE_ASSIGNMENT((#208));
#97=PRESENTATION_STYLE_ASSIGNMENT((#209));
#98=ADVANCED_FACE('240[2]',(#210,#211),#212,.T.);
#99=PRESENTATION_STYLE_ASSIGNMENT((#213));
#100=PRESENTATION_STYLE_ASSIGNMENT((#214));
#101=ADVANCED_FACE('240[2]',(#215,#216),#217,.T.);
#102=PRESENTATION_STYLE_ASSIGNMENT((#218));
#103=EDGE_CURVE('240[2]',#219,#219,#220,.T.);
#104=PRESENTATION_STYLE_ASSIGNMENT((#221));
#105=PRESENTATION_STYLE_ASSIGNMENT((#222));
#106=ADVANCED_FACE('240[2]',(#223),#224,.T.);
#107=PRESENTATION_STYLE_ASSIGNMENT((#225));
#108=PRESENTATION_STYLE_ASSIGNMENT((#226));
#109=ADVANCED_FACE('240[2]',(#227,#228),#229,.T.);
#110=PRESENTATION_STYLE_ASSIGNMENT((#230));
#111=PRESENTATION_STYLE_ASSIGNMENT((#231));
#112=ADVANCED_FACE('240[2]',(#232),#233,.T.);
#113=PRESENTATION_STYLE_ASSIGNMENT((#234));
#114=EDGE_CURVE('240[2]',#235,#235,#236,.T.);
#115=PRESENTATION_STYLE_ASSIGNMENT((#237));
#116=EDGE_CURVE('240[2]',#238,#238,#239,.T.);
#117=PRESENTATION_STYLE_ASSIGNMENT((#240));
#118=EDGE_CURVE('240[2]',#241,#241,#242,.T.);
#119=PRESENTATION_STYLE_ASSIGNMENT((#243));
#120=PRESENTATION_STYLE_ASSIGNMENT((#244));
#121=ADVANCED_FACE('240[2]',(#245,#246),#247,.T.);
#122=PRODUCT('240[2]','240[2]','PART-240[2]-DESC',(#248));
#123=PRODUCT_DEFINITION('NONE','NONE',#249,#2);
#124=AXIS2_PLACEMENT_3D('',#250,#251,#252);
#127=LENGTH_MEASURE_WITH_UNIT(LENGTH_MEASURE(1.0),#253);
#130=DIMENSIONAL_EXPONENTS(1.0,0.0,0.0,0.0,0.0,0.0,0.0);
#132=DIMENSIONAL_EXPONENTS(0.0,0.0,0.0,0.0,0.0,0.0,0.0);
#138=CURVE_STYLE('',#254,POSITIVE_LENGTH_MEASURE(1000.0),#255);
#139=VERTEX_POINT('',#256);
#140=CIRCLE('',#257,15.0);
#141=CURVE_STYLE('',#258,POSITIVE_LENGTH_MEASURE(1000.0),#259);
#142=VERTEX_POINT('',#260);
#143=CIRCLE('',#261,15.0);
#144=SURFACE_STYLE_USAGE(.BOTH.,#262);
#145=CURVE_STYLE('',#263,POSITIVE_LENGTH_MEASURE(1000.0),#264);
#146=CLOSED_SHELL('',(#90,#106,#76,#73,#79,#66,#121,#63,#98,#109,#95,#60,#101,#112));
#147=SURFACE_STYLE_USAGE(.BOTH.,#265);
#148=CURVE_STYLE('',#266,POSITIVE_LENGTH_MEASURE(1000.0),#267);
#149=FACE_BOUND('',#268,.T.);
#150=FACE_BOUND('',#269,.T.);
#151=CONICAL_SURFACE('',#270,15.075,0.124354994546764);
#152=SURFACE_STYLE_USAGE(.BOTH.,#271);
#153=CURVE_STYLE('',#272,POSITIVE_LENGTH_MEASURE(1000.0),#273);
#154=FACE_OUTER_BOUND('',#274,.T.);
#155=FACE_BOUND('',#275,.T.);
#156=PLANE('',#276);
#157=SURFACE_STYLE_USAGE(.BOTH.,#277);
#158=CURVE_STYLE('',#278,POSITIVE_LENGTH_MEASURE(1000.0),#279);
#159=FACE_BOUND('',#280,.T.);
#160=FACE_BOUND('',#281,.T.);
#161=CONICAL_SURFACE('',#282,17.25,1.30899693876846);
#162=CURVE_STYLE('',#283,POSITIVE_LENGTH_MEASURE(1000.0),#284);
#163=VERTEX_POINT('',#285);
#164=CIRCLE('',#286,15.0);
#165=CURVE_STYLE('',#287,POSITIVE_LENGTH_MEASURE(1000.0),#288);
#166=VERTEX_POINT('',#289);
#167=CIRCLE('',#290,19.5);
#168=SURFACE_STYLE_USAGE(.BOTH.,#291);
#169=CURVE_STYLE('',#292,POSITIVE_LENGTH_MEASURE(1000.0),#293);
#170=FACE_BOUND('',#294,.T.);
#171=FACE_BOUND('',#295,.T.);
#172=CONICAL_SURFACE('',#296,19.25,0.349065841567637);
#173=SURFACE_STYLE_USAGE(.BOTH.,#297);
#174=CURVE_STYLE('',#298,POSITIVE_LENGTH_MEASURE(1000.0),#299);
#175=FACE_BOUND('',#300,.T.);
#176=FACE_BOUND('',#301,.T.);
#177=CYLINDRICAL_SURFACE('',#302,15.0);
#178=SURFACE_STYLE_USAGE(.BOTH.,#303);
#179=CURVE_STYLE('',#304,POSITIVE_LENGTH_MEASURE(1000.0),#305);
#180=FACE_BOUND('',#306,.T.);
#181=FACE_BOUND('',#307,.T.);
#182=CYLINDRICAL_SURFACE('',#308,19.5);
#183=CURVE_STYLE('',#309,POSITIVE_LENGTH_MEASURE(1000.0),#310);
#184=VERTEX_POINT('',#311);
#185=CIRCLE('',#312,11.7);
#186=CURVE_STYLE('',#313,POSITIVE_LENGTH_MEASURE(1000.0),#314);
#187=VERTEX_POINT('',#315);
#188=CIRCLE('',#316,19.5);
#189=CURVE_STYLE('',#317,POSITIVE_LENGTH_MEASURE(1000.0),#318);
#190=VERTEX_POINT('',#319);
#191=CIRCLE('',#320,15.0);
#192=CURVE_STYLE('',#321,POSITIVE_LENGTH_MEASURE(1000.0),#322);
#193=VERTEX_POINT('',#323);
#194=CIRCLE('',#324,15.15);
#195=SURFACE_STYLE_USAGE(.BOTH.,#325);
#196=CURVE_STYLE('',#326,POSITIVE_LENGTH_MEASURE(1000.0),#327);
#197=FACE_OUTER_BOUND('',#328,.T.);
#198=FACE_BOUND('',#329,.T.);
#199=PLANE('',#330);
#200=CURVE_STYLE('',#331,POSITIVE_LENGTH_MEASURE(1000.0),#332);
#201=VERTEX_POINT('',#333);
#202=CIRCLE('',#334,15.15);
#203=SURFACE_STYLE_USAGE(.BOTH.,#335);
#204=CURVE_STYLE('',#336,POSITIVE_LENGTH_MEASURE(1000.0),#337);
#205=FACE_BOUND('',#338,.T.);
#206=FACE_BOUND('',#339,.T.);
#207=CYLINDRICAL_SURFACE('',#340,15.15);
#208=SURFACE_STYLE_USAGE(.BOTH.,#341);
#209=CURVE_STYLE('',#342,POSITIVE_LENGTH_MEASURE(1000.0),#343);
#210=FACE_BOUND('',#344,.T.);
#211=FACE_BOUND('',#345,.T.);
#212=CYLINDRICAL_SURFACE('',#346,11.7);
#213=SURFACE_STYLE_USAGE(.BOTH.,#347);
#214=CURVE_STYLE('',#348,POSITIVE_LENGTH_MEASURE(1000.0),#349);
#215=FACE_BOUND('',#350,.T.);
#216=FACE_BOUND('',#351,.T.);
#217=CYLINDRICAL_SURFACE('',#352,15.0);
#218=CURVE_STYLE('',#353,POSITIVE_LENGTH_MEASURE(1000.0),#354);
#219=VERTEX_POINT('',#355);
#220=CIRCLE('',#356,19.0);
#221=SURFACE_STYLE_USAGE(.BOTH.,#357);
#222=CURVE_STYLE('',#358,POSITIVE_LENGTH_MEASURE(1000.0),#359);
#223=FACE_OUTER_BOUND('',#360,.T.);
#224=PLANE('',#361);
#225=SURFACE_STYLE_USAGE(.BOTH.,#362);
#226=CURVE_STYLE('',#363,POSITIVE_LENGTH_MEASURE(1000.0),#364);
#227=FACE_OUTER_BOUND('',#365,.T.);
#228=FACE_BOUND('',#366,.T.);
#229=PLANE('',#367);
#230=SURFACE_STYLE_USAGE(.BOTH.,#368);
#231=CURVE_STYLE('',#369,POSITIVE_LENGTH_MEASURE(1000.0),#370);
#232=FACE_OUTER_BOUND('',#371,.T.);
#233=PLANE('',#372);
#234=CURVE_STYLE('',#373,POSITIVE_LENGTH_MEASURE(1000.0),#374);
#235=VERTEX_POINT('',#375);
#236=CIRCLE('',#376,15.0);
#237=CURVE_STYLE('',#377,POSITIVE_LENGTH_MEASURE(1000.0),#378);
#238=VERTEX_POINT('',#379);
#239=CIRCLE('',#380,15.0);
#240=CURVE_STYLE('',#381,POSITIVE_LENGTH_MEASURE(1000.0),#382);
#241=VERTEX_POINT('',#383);
#242=CIRCLE('',#384,11.7);
#243=SURFACE_STYLE_USAGE(.BOTH.,#385);
#244=CURVE_STYLE('',#386,POSITIVE_LENGTH_MEASURE(1000.0),#387);
#245=FACE_BOUND('',#388,.T.);
#246=FACE_BOUND('',#389,.T.);
#247=CYLINDRICAL_SURFACE('',#390,15.0);
#248=PRODUCT_CONTEXT('',#38,'mechanical');
#249=PRODUCT_DEFINITION_FORMATION_WITH_SPECIFIED_SOURCE(' ','NONE',#122,.NOT_KNOWN.);
#250=CARTESIAN_POINT('',(0.0,0.0,0.0));
#251=DIRECTION('',(0.0,0.0,1.0));
#252=DIRECTION('',(1.0,0.0,0.0));
#253= (NAMED_UNIT(#130)LENGTH_UNIT()SI_UNIT(.MILLI.,.METRE.));
#254=DRAUGHTING_PRE_DEFINED_CURVE_FONT('continuous');
#255=COLOUR_RGB('',0.0,1.0,1.0);
#256=CARTESIAN_POINT('',(-9.11101879117515E-015,15.0,148.794228630142));
#257=AXIS2_PLACEMENT_3D('',#392,#393,#394);
#258=DRAUGHTING_PRE_DEFINED_CURVE_FONT('continuous');
#259=COLOUR_RGB('',0.0,1.0,1.0);
#260=CARTESIAN_POINT('',(-1.00114875830296E-014,15.0,157.500000027475));
#261=AXIS2_PLACEMENT_3D('',#395,#396,#397);
#262=SURFACE_SIDE_STYLE('',(#398));
#263=DRAUGHTING_PRE_DEFINED_CURVE_FONT('continuous');
#264=COLOUR_RGB('',0.0,1.0,1.0);
#265=SURFACE_SIDE_STYLE('',(#399));
#266=DRAUGHTING_PRE_DEFINED_CURVE_FONT('continuous');
#267=COLOUR_RGB('',0.0,1.0,1.0);
#268=EDGE_LOOP('',(#400));
#269=EDGE_LOOP('',(#401));
#270=AXIS2_PLACEMENT_3D('',#402,#403,#404);
#271=SURFACE_SIDE_STYLE('',(#405));
#272=DRAUGHTING_PRE_DEFINED_CURVE_FONT('continuous');
#273=COLOUR_RGB('',0.0,1.0,1.0);
#274=EDGE_LOOP('',(#406));
#275=EDGE_LOOP('',(#407));
#276=AXIS2_PLACEMENT_3D('',#408,#409,#410);
#277=SURFACE_SIDE_STYLE('',(#411));
#278=DRAUGHTING_PRE_DEFINED_CURVE_FONT('continuous');
#279=COLOUR_RGB('',0.0,1.0,1.0);
#280=EDGE_LOOP('',(#412));
#281=EDGE_LOOP('',(#413));
#282=AXIS2_PLACEMENT_3D('',#414,#415,#416);
#283=DRAUGHTING_PRE_DEFINED_CURVE_FONT('continuous');
#284=COLOUR_RGB('',0.0,1.0,1.0);
#285=CARTESIAN_POINT('',(-1.53080849893419E-015,15.0,25.0));
#286=AXIS2_PLACEMENT_3D('',#417,#418,#419);
#287=DRAUGHTING_PRE_DEFINED_CURVE_FONT('continuous');
#288=COLOUR_RGB('',0.0,1.0,1.0);
#289=CARTESIAN_POINT('',(-9.18485099343238E-015,19.5,149.999999997178));
#290=AXIS2_PLACEMENT_3D('',#420,#421,#422);
#291=SURFACE_SIDE_STYLE('',(#423));
#292=DRAUGHTING_PRE_DEFINED_CURVE_FONT('continuous');
#293=COLOUR_RGB('',0.0,1.0,1.0);
#294=EDGE_LOOP('',(#424));
#295=EDGE_LOOP('',(#425));
#296=AXIS2_PLACEMENT_3D('',#426,#427,#428);
#297=SURFACE_SIDE_STYLE('',(#429));
#298=DRAUGHTING_PRE_DEFINED_CURVE_FONT('continuous');
#299=COLOUR_RGB('',0.0,1.0,1.0);
#300=EDGE_LOOP('',(#430));
#301=EDGE_LOOP('',(#431));
#302=AXIS2_PLACEMENT_3D('',#432,#433,#434);
#303=SURFACE_SIDE_STYLE('',(#435));
#304=DRAUGHTING_PRE_DEFINED_CURVE_FONT('continuous');
#305=COLOUR_RGB('',0.0,1.0,1.0);
#306=EDGE_LOOP('',(#436));
#307=EDGE_LOOP('',(#437));
#308=AXIS2_PLACEMENT_3D('',#438,#439,#440);
#309=DRAUGHTING_PRE_DEFINED_CURVE_FONT('continuous');
#310=COLOUR_RGB('',0.0,1.0,1.0);
#311=CARTESIAN_POINT('',(-1.46957615897682E-015,11.7,24.0));
#312=AXIS2_PLACEMENT_3D('',#441,#442,#443);
#313=DRAUGHTING_PRE_DEFINED_CURVE_FONT('continuous');
#314=COLOUR_RGB('',0.0,1.0,1.0);
#315=CARTESIAN_POINT('',(-9.55997630696977E-015,19.5,156.12626128));
#316=AXIS2_PLACEMENT_3D('',#444,#445,#446);
#317=DRAUGHTING_PRE_DEFINED_CURVE_FONT('continuous');
#318=COLOUR_RGB('',0.0,1.0,1.0);
#319=CARTESIAN_POINT('',(0.0,15.0,0.0));
#320=AXIS2_PLACEMENT_3D('',#447,#448,#449);
#321=DRAUGHTING_PRE_DEFINED_CURVE_FONT('continuous');
#322=COLOUR_RGB('',0.0,1.0,1.0);
#323=CARTESIAN_POINT('',(-1.34711147906209E-015,15.15,22.0));
#324=AXIS2_PLACEMENT_3D('',#450,#451,#452);
#325=SURFACE_SIDE_STYLE('',(#453));
#326=DRAUGHTING_PRE_DEFINED_CURVE_FONT('continuous');
#327=COLOUR_RGB('',0.0,1.0,1.0);
#328=EDGE_LOOP('',(#454));
#329=EDGE_LOOP('',(#455));
#330=AXIS2_PLACEMENT_3D('',#456,#457,#458);
#331=DRAUGHTING_PRE_DEFINED_CURVE_FONT('continuous');
#332=COLOUR_RGB('',0.0,1.0,1.0);
#333=CARTESIAN_POINT('',(-1.46957615897682E-015,15.15,24.0));
#334=AXIS2_PLACEMENT_3D('',#459,#460,#461);
#335=SURFACE_SIDE_STYLE('',(#462));
#336=DRAUGHTING_PRE_DEFINED_CURVE_FONT('continuous');
#337=COLOUR_RGB('',0.0,1.0,1.0);
#338=EDGE_LOOP('',(#463));
#339=EDGE_LOOP('',(#464));
#340=AXIS2_PLACEMENT_3D('',#465,#466,#467);
#341=SURFACE_SIDE_STYLE('',(#468));
#342=DRAUGHTING_PRE_DEFINED_CURVE_FONT('continuous');
#343=COLOUR_RGB('',0.0,1.0,1.0);
#344=EDGE_LOOP('',(#469));
#345=EDGE_LOOP('',(#470));
#346=AXIS2_PLACEMENT_3D('',#471,#472,#473);
#347=SURFACE_SIDE_STYLE('',(#474));
#348=DRAUGHTING_PRE_DEFINED_CURVE_FONT('continuous');
#349=COLOUR_RGB('',0.0,1.0,1.0);
#350=EDGE_LOOP('',(#475));
#351=EDGE_LOOP('',(#476));
#352=AXIS2_PLACEMENT_3D('',#477,#478,#479);
#353=DRAUGHTING_PRE_DEFINED_CURVE_FONT('continuous');
#354=COLOUR_RGB('',0.0,1.0,1.0);
#355=CARTESIAN_POINT('',(-9.64409354496775E-015,19.0,157.500000027475));
#356=AXIS2_PLACEMENT_3D('',#480,#481,#482);
#357=SURFACE_SIDE_STYLE('',(#483));
#358=DRAUGHTING_PRE_DEFINED_CURVE_FONT('continuous');
#359=COLOUR_RGB('',0.0,1.0,1.0);
#360=EDGE_LOOP('',(#484));
#361=AXIS2_PLACEMENT_3D('',#485,#486,#487);
#362=SURFACE_SIDE_STYLE('',(#488));
#363=DRAUGHTING_PRE_DEFINED_CURVE_FONT('continuous');
#364=COLOUR_RGB('',0.0,1.0,1.0);
#365=EDGE_LOOP('',(#489));
#366=EDGE_LOOP('',(#490));
#367=AXIS2_PLACEMENT_3D('',#491,#492,#493);
#368=SURFACE_SIDE_STYLE('',(#494));
#369=DRAUGHTING_PRE_DEFINED_CURVE_FONT('continuous');
#370=COLOUR_RGB('',0.0,1.0,1.0);
#371=EDGE_LOOP('',(#495));
#372=AXIS2_PLACEMENT_3D('',#496,#497,#498);
#373=DRAUGHTING_PRE_DEFINED_CURVE_FONT('continuous');
#374=COLOUR_RGB('',0.0,1.0,1.0);
#375=CARTESIAN_POINT('',(-1.34098824506635E-014,15.0,219.0));
#376=AXIS2_PLACEMENT_3D('',#499,#500,#501);
#377=DRAUGHTING_PRE_DEFINED_CURVE_FONT('continuous');
#378=COLOUR_RGB('',0.0,1.0,1.0);
#379=CARTESIAN_POINT('',(-1.27363267111325E-015,15.0,20.8));
#380=AXIS2_PLACEMENT_3D('',#502,#503,#504);
#381=DRAUGHTING_PRE_DEFINED_CURVE_FONT('continuous');
#382=COLOUR_RGB('',0.0,1.0,1.0);
#383=CARTESIAN_POINT('',(-1.53080849893419E-015,11.7,25.0));
#384=AXIS2_PLACEMENT_3D('',#505,#506,#507);
#385=SURFACE_SIDE_STYLE('',(#508));
#386=DRAUGHTING_PRE_DEFINED_CURVE_FONT('continuous');
#387=COLOUR_RGB('',0.0,1.0,1.0);
#388=EDGE_LOOP('',(#509));
#389=EDGE_LOOP('',(#510));
#390=AXIS2_PLACEMENT_3D('',#511,#512,#513);
#392=CARTESIAN_POINT('',(-9.11101879117515E-015,-1.82220375823503E-014,148.794228630142));
#393=DIRECTION('',(6.12323399573677E-017,1.22464679914735E-016,-1.0));
#394=DIRECTION('',(-1.23259516440783E-032,1.0,1.22464679914735E-016));
#395=CARTESIAN_POINT('',(-1.00114875830296E-014,-2.00229751660592E-014,157.500000027475));
#396=DIRECTION('',(6.12323399573677E-017,1.22464679914735E-016,-1.0));
#397=DIRECTION('',(-1.23259516440783E-032,1.0,1.22464679914735E-016));
#398=SURFACE_STYLE_FILL_AREA(#514);
#399=SURFACE_STYLE_FILL_AREA(#515);
#400=ORIENTED_EDGE('',*,*,#116,.F.);
#401=ORIENTED_EDGE('',*,*,#87,.T.);
#402=CARTESIAN_POINT('',(-1.31037207508767E-015,-2.62074415017533E-015,21.4));
#403=DIRECTION('',(-6.12323399573677E-017,-1.22464679914735E-016,1.0));
#404=DIRECTION('',(-1.23259516440783E-032,1.0,1.22464679914735E-016));
#405=SURFACE_STYLE_FILL_AREA(#516);
#406=ORIENTED_EDGE('',*,*,#68,.T.);
#407=ORIENTED_EDGE('',*,*,#118,.F.);
#408=CARTESIAN_POINT('',(-1.53080849893419E-015,13.35,25.0));
#409=DIRECTION('',(6.12323399573677E-017,1.22464679914735E-016,-1.0));
#410=DIRECTION('',(-1.0,0.0,-6.12323399573677E-017));
#411=SURFACE_STYLE_FILL_AREA(#517);
#412=ORIENTED_EDGE('',*,*,#52,.F.);
#413=ORIENTED_EDGE('',*,*,#70,.T.);
#414=CARTESIAN_POINT('',(-9.14793489230376E-015,-1.82958697846075E-014,149.39711431366));
#415=DIRECTION('',(-6.12323399573677E-017,-1.22464679914735E-016,1.0));
#416=DIRECTION('',(-1.23259516440783E-032,1.0,1.22464679914735E-016));
#417=CARTESIAN_POINT('',(-1.53080849893419E-015,-3.06161699786838E-015,25.0));
#418=DIRECTION('',(6.12323399573677E-017,1.22464679914735E-016,-1.0));
#419=DIRECTION('',(-1.23259516440783E-032,1.0,1.22464679914735E-016));
#420=CARTESIAN_POINT('',(-9.18485099343237E-015,-1.83697019868647E-014,149.999999997178));
#421=DIRECTION('',(6.12323399573677E-017,1.22464679914735E-016,-1.0));
#422=DIRECTION('',(-1.23259516440783E-032,1.0,1.22464679914735E-016));
#423=SURFACE_STYLE_FILL_AREA(#518);
#424=ORIENTED_EDGE('',*,*,#83,.F.);
#425=ORIENTED_EDGE('',*,*,#103,.T.);
#426=CARTESIAN_POINT('',(-9.60203492596876E-015,-1.92040698519375E-014,156.813130653737));
#427=DIRECTION('',(6.12323399573676E-017,1.22464679914735E-016,-1.0));
#428=DIRECTION('',(-1.23259516440783E-032,1.0,1.22464679914735E-016));
#429=SURFACE_STYLE_FILL_AREA(#519);
#430=ORIENTED_EDGE('',*,*,#54,.F.);
#431=ORIENTED_EDGE('',*,*,#114,.T.);
#432=CARTESIAN_POINT('',(-1.17106850168466E-014,-2.34213700336931E-014,191.25));
#433=DIRECTION('',(-6.12323399573677E-017,-1.22464679914735E-016,1.0));
#434=DIRECTION('',(-1.23259516440783E-032,1.0,1.22464679914735E-016));
#435=SURFACE_STYLE_FILL_AREA(#520);
#436=ORIENTED_EDGE('',*,*,#70,.F.);
#437=ORIENTED_EDGE('',*,*,#83,.T.);
#438=CARTESIAN_POINT('',(-9.37241365020107E-015,-1.87448273004021E-014,153.063130638589));
#439=DIRECTION('',(-6.12323399573677E-017,-1.22464679914735E-016,1.0));
#440=DIRECTION('',(-1.23259516440783E-032,1.0,1.22464679914735E-016));
#441=CARTESIAN_POINT('',(-1.46957615897682E-015,-2.93915231795365E-015,24.0));
#442=DIRECTION('',(6.12323399573677E-017,1.22464679914735E-016,-1.0));
#443=DIRECTION('',(-1.23259516440783E-032,1.0,1.22464679914735E-016));
#444=CARTESIAN_POINT('',(-9.55997630696977E-015,-1.91199526139395E-014,156.12626128));
#445=DIRECTION('',(6.12323399573677E-017,1.22464679914735E-016,-1.0));
#446=DIRECTION('',(-1.23259516440783E-032,1.0,1.22464679914735E-016));
#447=CARTESIAN_POINT('',(0.0,0.0,0.0));
#448=DIRECTION('',(6.12323399573677E-017,1.22464679914735E-016,-1.0));
#449=DIRECTION('',(-1.23259516440783E-032,1.0,1.22464679914735E-016));
#450=CARTESIAN_POINT('',(-1.34711147906209E-015,-2.69422295812418E-015,22.0));
#451=DIRECTION('',(6.12323399573677E-017,1.22464679914735E-016,-1.0));
#452=DIRECTION('',(-1.23259516440783E-032,1.0,1.22464679914735E-016));
#453=SURFACE_STYLE_FILL_AREA(#521);
#454=ORIENTED_EDGE('',*,*,#103,.F.);
#455=ORIENTED_EDGE('',*,*,#54,.T.);
#456=CARTESIAN_POINT('',(3.54289035064564,-19.6836970095382,157.500000027475));
#457=DIRECTION('',(0.0,0.0,-1.0));
#458=DIRECTION('',(0.0,-1.0,0.0));
#459=CARTESIAN_POINT('',(-1.46957615897682E-015,-2.93915231795365E-015,24.0));
#460=DIRECTION('',(6.12323399573677E-017,1.22464679914735E-016,-1.0));
#461=DIRECTION('',(-1.23259516440783E-032,1.0,1.22464679914735E-016));
#462=SURFACE_STYLE_FILL_AREA(#522);
#463=ORIENTED_EDGE('',*,*,#87,.F.);
#464=ORIENTED_EDGE('',*,*,#92,.T.);
#465=CARTESIAN_POINT('',(-1.40834381901946E-015,-2.81668763803891E-015,23.0));
#466=DIRECTION('',(-6.12323399573677E-017,-1.22464679914735E-016,1.0));
#467=DIRECTION('',(-1.23259516440783E-032,1.0,1.22464679914735E-016));
#468=SURFACE_STYLE_FILL_AREA(#523);
#469=ORIENTED_EDGE('',*,*,#81,.F.);
#470=ORIENTED_EDGE('',*,*,#118,.T.);
#471=CARTESIAN_POINT('',(-1.50019232895551E-015,-3.00038465791101E-015,24.5));
#472=DIRECTION('',(-6.12323399573677E-017,-1.22464679914735E-016,1.0));
#473=DIRECTION('',(-1.23259516440783E-032,1.0,1.22464679914735E-016));
#474=SURFACE_STYLE_FILL_AREA(#524);
#475=ORIENTED_EDGE('',*,*,#85,.F.);
#476=ORIENTED_EDGE('',*,*,#116,.T.);
#477=CARTESIAN_POINT('',(-6.36816335556624E-016,-1.27363267111325E-015,10.4));
#478=DIRECTION('',(-6.12323399573677E-017,-1.22464679914735E-016,1.0));
#479=DIRECTION('',(-1.23259516440783E-032,1.0,1.22464679914735E-016));
#480=CARTESIAN_POINT('',(-9.64409354496775E-015,-1.92881870899355E-014,157.500000027475));
#481=DIRECTION('',(6.12323399573677E-017,1.22464679914735E-016,-1.0));
#482=DIRECTION('',(-1.23259516440783E-032,1.0,1.22464679914735E-016));
#483=SURFACE_STYLE_FILL_AREA(#525);
#484=ORIENTED_EDGE('',*,*,#114,.F.);
#485=CARTESIAN_POINT('',(-1.34098824506635E-014,7.49999999999997,219.0));
#486=DIRECTION('',(-9.18338008663382E-049,-1.22464679914735E-016,1.0));
#487=DIRECTION('',(1.0,-7.49879891330927E-033,0.0));
#488=SURFACE_STYLE_FILL_AREA(#526);
#489=ORIENTED_EDGE('',*,*,#92,.F.);
#490=ORIENTED_EDGE('',*,*,#81,.T.);
#491=CARTESIAN_POINT('',(-1.46957615897682E-015,13.425,24.0));
#492=DIRECTION('',(-9.18338008663382E-049,-1.22464679914735E-016,1.0));
#493=DIRECTION('',(1.0,-7.49879891330927E-033,0.0));
#494=SURFACE_STYLE_FILL_AREA(#527);
#495=ORIENTED_EDGE('',*,*,#85,.T.);
#496=CARTESIAN_POINT('',(0.0,7.5,0.0));
#497=DIRECTION('',(6.12323399573677E-017,1.22464679914735E-016,-1.0));
#498=DIRECTION('',(-1.0,0.0,-6.12323399573677E-017));
#499=CARTESIAN_POINT('',(-1.34098824506635E-014,-2.6819764901327E-014,219.0));
#500=DIRECTION('',(6.12323399573677E-017,1.22464679914735E-016,-1.0));
#501=DIRECTION('',(-1.23259516440783E-032,1.0,1.22464679914735E-016));
#502=CARTESIAN_POINT('',(-1.27363267111325E-015,-2.5472653422265E-015,20.8));
#503=DIRECTION('',(6.12323399573677E-017,1.22464679914735E-016,-1.0));
#504=DIRECTION('',(-1.23259516440783E-032,1.0,1.22464679914735E-016));
#505=CARTESIAN_POINT('',(-1.53080849893419E-015,-3.06161699786838E-015,25.0));
#506=DIRECTION('',(6.12323399573677E-017,1.22464679914735E-016,-1.0));
#507=DIRECTION('',(-1.23259516440783E-032,1.0,1.22464679914735E-016));
#508=SURFACE_STYLE_FILL_AREA(#528);
#509=ORIENTED_EDGE('',*,*,#68,.F.);
#510=ORIENTED_EDGE('',*,*,#52,.T.);
#511=CARTESIAN_POINT('',(-5.32091364505467E-015,-1.06418272901093E-014,86.8971143150711));
#512=DIRECTION('',(-6.12323399573677E-017,-1.22464679914735E-016,1.0));
#513=DIRECTION('',(-1.23259516440783E-032,1.0,1.22464679914735E-016));
#514=FILL_AREA_STYLE('',(#529));
#515=FILL_AREA_STYLE('',(#530));
#516=FILL_AREA_STYLE('',(#531));
#517=FILL_AREA_STYLE('',(#532));
#518=FILL_AREA_STYLE('',(#533));
#519=FILL_AREA_STYLE('',(#534));
#520=FILL_AREA_STYLE('',(#535));
#521=FILL_AREA_STYLE('',(#536));
#522=FILL_AREA_STYLE('',(#537));
#523=FILL_AREA_STYLE('',(#538));
#524=FILL_AREA_STYLE('',(#539));
#525=FILL_AREA_STYLE('',(#540));
#526=FILL_AREA_STYLE('',(#541));
#527=FILL_AREA_STYLE('',(#542));
#528=FILL_AREA_STYLE('',(#543));
#529=FILL_AREA_STYLE_COLOUR('',#544);
#530=FILL_AREA_STYLE_COLOUR('',#545);
#531=FILL_AREA_STYLE_COLOUR('',#546);
#532=FILL_AREA_STYLE_COLOUR('',#547);
#533=FILL_AREA_STYLE_COLOUR('',#548);
#534=FILL_AREA_STYLE_COLOUR('',#549);
#535=FILL_AREA_STYLE_COLOUR('',#550);
#536=FILL_AREA_STYLE_COLOUR('',#551);
#537=FILL_AREA_STYLE_COLOUR('',#552);
#538=FILL_AREA_STYLE_COLOUR('',#553);
#539=FILL_AREA_STYLE_COLOUR('',#554);
#540=FILL_AREA_STYLE_COLOUR('',#555);
#541=FILL_AREA_STYLE_COLOUR('',#556);
#542=FILL_AREA_STYLE_COLOUR('',#557);
#543=FILL_AREA_STYLE_COLOUR('',#558);
#544=COLOUR_RGB('',0.0,1.0,1.0);
#545=COLOUR_RGB('',0.0,1.0,1.0);
#546=COLOUR_RGB('',0.0,1.0,1.0);
#547=COLOUR_RGB('',0.0,1.0,1.0);
#548=COLOUR_RGB('',0.0,1.0,1.0);
#549=COLOUR_RGB('',0.0,1.0,1.0);
#550=COLOUR_RGB('',0.0,1.0,1.0);
#551=COLOUR_RGB('',0.0,1.0,1.0);
#552=COLOUR_RGB('',0.0,1.0,1.0);
#553=COLOUR_RGB('',0.0,1.0,1.0);
#554=COLOUR_RGB('',0.0,1.0,1.0);
#555=COLOUR_RGB('',0.0,1.0,1.0);
#556=COLOUR_RGB('',0.0,1.0,1.0);
#557=COLOUR_RGB('',0.0,1.0,1.0);
#558=COLOUR_RGB('',0.0,1.0,1.0);
ENDSEC;
END-ISO-10303-21;
