ISO-10303-21;
HEADER;
FILE_DESCRIPTION((''),'1');
FILE_NAME('T:/02_3D_Field-HP\X2\FF71FF6FFF8CFF9F5916\X0\2013/02_Step_Field-HP\X2\FF71FF6FFF8CFF9F5916\X0\2013/MGT20-d-115_M12-20.stp','2017-02-08T06:18:57',(''),(''),'Spatial Interop R21 SP3','Kubotek KeyCreator 2011 V10.0.2 (22737)',' ');
FILE_SCHEMA(('automotive_design'));
ENDSEC;
DATA;
#1=MECHANICAL_DESIGN_GEOMETRIC_PRESENTATION_REPRESENTATION(' ',(#10,#11,#12,#13,#14,#15,#16,#17,#18,#19,#20,#21,#22,#23,#24,#25,#26,#27,#28,#29,#30,#31,#32,#33,#34,#35,#36,#37),#6);
#2=PRODUCT_DEFINITION_CONTEXT('',#38,'design');
#3=APPLICATION_PROTOCOL_DEFINITION('INTERNATIONAL STANDARD','automotive_design',1994,#38);
#4=PRODUCT_CATEGORY_RELATIONSHIP('NONE','NONE',#39,#40);
#5=SHAPE_DEFINITION_REPRESENTATION(#41,#42);
#6= (GEOMETRIC_REPRESENTATION_CONTEXT(3)GLOBAL_UNCERTAINTY_ASSIGNED_CONTEXT((#45))GLOBAL_UNIT_ASSIGNED_CONTEXT((#47,#48,#49))REPRESENTATION_CONTEXT('NONE','WORKSPACE'));
#10=STYLED_ITEM('',(#51,#52),#53);
#11=STYLED_ITEM('',(#54),#55);
#12=STYLED_ITEM('',(#56,#57),#58);
#13=STYLED_ITEM('',(#59,#60),#61);
#14=STYLED_ITEM('',(#62,#63),#64);
#15=STYLED_ITEM('',(#65),#66);
#16=STYLED_ITEM('',(#67),#68);
#17=STYLED_ITEM('',(#69,#70),#71);
#18=STYLED_ITEM('',(#72),#73);
#19=STYLED_ITEM('',(#74,#75),#76);
#20=STYLED_ITEM('',(#77,#78),#79);
#21=STYLED_ITEM('',(#80,#81),#82);
#22=STYLED_ITEM('',(#83,#84),#85);
#23=STYLED_ITEM('',(#86,#87),#88);
#24=STYLED_ITEM('',(#89),#90);
#25=STYLED_ITEM('',(#91),#92);
#26=STYLED_ITEM('',(#93),#94);
#27=STYLED_ITEM('',(#95),#96);
#28=STYLED_ITEM('',(#97,#98),#99);
#29=STYLED_ITEM('',(#100,#101),#102);
#30=STYLED_ITEM('',(#103,#104),#105);
#31=STYLED_ITEM('',(#106),#107);
#32=STYLED_ITEM('',(#108),#109);
#33=STYLED_ITEM('',(#110),#111);
#34=STYLED_ITEM('',(#112,#113),#114);
#35=STYLED_ITEM('',(#115),#116);
#36=STYLED_ITEM('',(#117),#118);
#37=STYLED_ITEM('',(#119,#120),#121);
#38=APPLICATION_CONTEXT(' ');
#39=PRODUCT_CATEGORY('part','NONE');
#40=PRODUCT_RELATED_PRODUCT_CATEGORY('detail',' ',(#122));
#41=PRODUCT_DEFINITION_SHAPE('NONE','NONE',#123);
#42=ADVANCED_BREP_SHAPE_REPRESENTATION('240[2]',(#114,#124),#6);
#45=UNCERTAINTY_MEASURE_WITH_UNIT(LENGTH_MEASURE(1.0E-006),#47,'','');
#47= (CONVERSION_BASED_UNIT('MILLIMETRE',#127)LENGTH_UNIT()NAMED_UNIT(#130));
#48= (NAMED_UNIT(#132)PLANE_ANGLE_UNIT()SI_UNIT($,.RADIAN.));
#49= (NAMED_UNIT(#132)SOLID_ANGLE_UNIT()SI_UNIT($,.STERADIAN.));
#51=PRESENTATION_STYLE_ASSIGNMENT((#138));
#52=PRESENTATION_STYLE_ASSIGNMENT((#139));
#53=ADVANCED_FACE('240[2]',(#140),#141,.T.);
#54=PRESENTATION_STYLE_ASSIGNMENT((#142));
#55=EDGE_CURVE('240[2]',#143,#143,#144,.T.);
#56=PRESENTATION_STYLE_ASSIGNMENT((#145));
#57=PRESENTATION_STYLE_ASSIGNMENT((#146));
#58=ADVANCED_FACE('240[2]',(#147,#148),#149,.T.);
#59=PRESENTATION_STYLE_ASSIGNMENT((#150));
#60=PRESENTATION_STYLE_ASSIGNMENT((#151));
#61=ADVANCED_FACE('240[2]',(#152,#153),#154,.T.);
#62=PRESENTATION_STYLE_ASSIGNMENT((#155));
#63=PRESENTATION_STYLE_ASSIGNMENT((#156));
#64=ADVANCED_FACE('240[2]',(#157,#158),#159,.T.);
#65=PRESENTATION_STYLE_ASSIGNMENT((#160));
#66=EDGE_CURVE('240[2]',#161,#161,#162,.T.);
#67=PRESENTATION_STYLE_ASSIGNMENT((#163));
#68=EDGE_CURVE('240[2]',#164,#164,#165,.T.);
#69=PRESENTATION_STYLE_ASSIGNMENT((#166));
#70=PRESENTATION_STYLE_ASSIGNMENT((#167));
#71=ADVANCED_FACE('240[2]',(#168,#169),#170,.T.);
#72=PRESENTATION_STYLE_ASSIGNMENT((#171));
#73=EDGE_CURVE('240[2]',#172,#172,#173,.T.);
#74=PRESENTATION_STYLE_ASSIGNMENT((#174));
#75=PRESENTATION_STYLE_ASSIGNMENT((#175));
#76=ADVANCED_FACE('240[2]',(#176,#177),#178,.T.);
#77=PRESENTATION_STYLE_ASSIGNMENT((#179));
#78=PRESENTATION_STYLE_ASSIGNMENT((#180));
#79=ADVANCED_FACE('240[2]',(#181,#182),#183,.T.);
#80=PRESENTATION_STYLE_ASSIGNMENT((#184));
#81=PRESENTATION_STYLE_ASSIGNMENT((#185));
#82=ADVANCED_FACE('240[2]',(#186,#187),#188,.T.);
#83=PRESENTATION_STYLE_ASSIGNMENT((#189));
#84=PRESENTATION_STYLE_ASSIGNMENT((#190));
#85=ADVANCED_FACE('240[2]',(#191,#192),#193,.T.);
#86=PRESENTATION_STYLE_ASSIGNMENT((#194));
#87=PRESENTATION_STYLE_ASSIGNMENT((#195));
#88=ADVANCED_FACE('240[2]',(#196,#197),#198,.T.);
#89=PRESENTATION_STYLE_ASSIGNMENT((#199));
#90=EDGE_CURVE('240[2]',#200,#200,#201,.T.);
#91=PRESENTATION_STYLE_ASSIGNMENT((#202));
#92=EDGE_CURVE('240[2]',#203,#203,#204,.T.);
#93=PRESENTATION_STYLE_ASSIGNMENT((#205));
#94=EDGE_CURVE('240[2]',#206,#206,#207,.T.);
#95=PRESENTATION_STYLE_ASSIGNMENT((#208));
#96=EDGE_CURVE('240[2]',#209,#209,#210,.T.);
#97=PRESENTATION_STYLE_ASSIGNMENT((#211));
#98=PRESENTATION_STYLE_ASSIGNMENT((#212));
#99=ADVANCED_FACE('240[2]',(#213,#214),#215,.T.);
#100=PRESENTATION_STYLE_ASSIGNMENT((#216));
#101=PRESENTATION_STYLE_ASSIGNMENT((#217));
#102=ADVANCED_FACE('240[2]',(#218,#219),#220,.T.);
#103=PRESENTATION_STYLE_ASSIGNMENT((#221));
#104=PRESENTATION_STYLE_ASSIGNMENT((#222));
#105=ADVANCED_FACE('240[2]',(#223),#224,.T.);
#106=PRESENTATION_STYLE_ASSIGNMENT((#225));
#107=EDGE_CURVE('240[2]',#226,#226,#227,.T.);
#108=PRESENTATION_STYLE_ASSIGNMENT((#228));
#109=EDGE_CURVE('240[2]',#229,#229,#230,.T.);
#110=PRESENTATION_STYLE_ASSIGNMENT((#231));
#111=EDGE_CURVE('240[2]',#232,#232,#233,.T.);
#112=PRESENTATION_STYLE_ASSIGNMENT((#234));
#113=PRESENTATION_STYLE_ASSIGNMENT((#235));
#114=MANIFOLD_SOLID_BREP('240[2]',#236);
#115=PRESENTATION_STYLE_ASSIGNMENT((#237));
#116=EDGE_CURVE('240[2]',#238,#238,#239,.T.);
#117=PRESENTATION_STYLE_ASSIGNMENT((#240));
#118=EDGE_CURVE('240[2]',#241,#241,#242,.T.);
#119=PRESENTATION_STYLE_ASSIGNMENT((#243));
#120=PRESENTATION_STYLE_ASSIGNMENT((#244));
#121=ADVANCED_FACE('240[2]',(#245,#246),#247,.T.);
#122=PRODUCT('240[2]','240[2]','PART-240[2]-DESC',(#248));
#123=PRODUCT_DEFINITION('NONE','NONE',#249,#2);
#124=AXIS2_PLACEMENT_3D('',#250,#251,#252);
#127=LENGTH_MEASURE_WITH_UNIT(LENGTH_MEASURE(1.0),#253);
#130=DIMENSIONAL_EXPONENTS(1.0,0.0,0.0,0.0,0.0,0.0,0.0);
#132=DIMENSIONAL_EXPONENTS(0.0,0.0,0.0,0.0,0.0,0.0,0.0);
#138=SURFACE_STYLE_USAGE(.BOTH.,#254);
#139=CURVE_STYLE('',#255,POSITIVE_LENGTH_MEASURE(1000.0),#256);
#140=FACE_OUTER_BOUND('',#257,.T.);
#141=PLANE('',#258);
#142=CURVE_STYLE('',#259,POSITIVE_LENGTH_MEASURE(1000.0),#260);
#143=VERTEX_POINT('',#261);
#144=CIRCLE('',#262,15.000000000001);
#145=SURFACE_STYLE_USAGE(.BOTH.,#263);
#146=CURVE_STYLE('',#264,POSITIVE_LENGTH_MEASURE(1000.0),#265);
#147=FACE_OUTER_BOUND('',#266,.T.);
#148=FACE_BOUND('',#267,.T.);
#149=PLANE('',#268);
#150=SURFACE_STYLE_USAGE(.BOTH.,#269);
#151=CURVE_STYLE('',#270,POSITIVE_LENGTH_MEASURE(1000.0),#271);
#152=FACE_BOUND('',#272,.T.);
#153=FACE_BOUND('',#273,.T.);
#154=CYLINDRICAL_SURFACE('',#274,11.699999999933);
#155=SURFACE_STYLE_USAGE(.BOTH.,#275);
#156=CURVE_STYLE('',#276,POSITIVE_LENGTH_MEASURE(1000.0),#277);
#157=FACE_BOUND('',#278,.T.);
#158=FACE_BOUND('',#279,.T.);
#159=CYLINDRICAL_SURFACE('',#280,15.0000000000004);
#160=CURVE_STYLE('',#281,POSITIVE_LENGTH_MEASURE(1000.0),#282);
#161=VERTEX_POINT('',#283);
#162=CIRCLE('',#284,15.0);
#163=CURVE_STYLE('',#285,POSITIVE_LENGTH_MEASURE(1000.0),#286);
#164=VERTEX_POINT('',#287);
#165=CIRCLE('',#288,14.9999999999999);
#166=SURFACE_STYLE_USAGE(.BOTH.,#289);
#167=CURVE_STYLE('',#290,POSITIVE_LENGTH_MEASURE(1000.0),#291);
#168=FACE_BOUND('',#292,.T.);
#169=FACE_BOUND('',#293,.T.);
#170=CYLINDRICAL_SURFACE('',#294,15.0000000000669);
#171=CURVE_STYLE('',#295,POSITIVE_LENGTH_MEASURE(1000.0),#296);
#172=VERTEX_POINT('',#297);
#173=CIRCLE('',#298,19.5000000000009);
#174=SURFACE_STYLE_USAGE(.BOTH.,#299);
#175=CURVE_STYLE('',#300,POSITIVE_LENGTH_MEASURE(1000.0),#301);
#176=FACE_BOUND('',#302,.T.);
#177=FACE_BOUND('',#303,.T.);
#178=CONICAL_SURFACE('',#304,17.2500000000339,1.30899693899583);
#179=SURFACE_STYLE_USAGE(.BOTH.,#305);
#180=CURVE_STYLE('',#306,POSITIVE_LENGTH_MEASURE(1000.0),#307);
#181=FACE_BOUND('',#308,.T.);
#182=FACE_BOUND('',#309,.T.);
#183=CYLINDRICAL_SURFACE('',#310,15.150000000001);
#184=SURFACE_STYLE_USAGE(.BOTH.,#311);
#185=CURVE_STYLE('',#312,POSITIVE_LENGTH_MEASURE(1000.0),#313);
#186=FACE_OUTER_BOUND('',#314,.T.);
#187=FACE_BOUND('',#315,.T.);
#188=PLANE('',#316);
#189=SURFACE_STYLE_USAGE(.BOTH.,#317);
#190=CURVE_STYLE('',#318,POSITIVE_LENGTH_MEASURE(1000.0),#319);
#191=FACE_OUTER_BOUND('',#320,.T.);
#192=FACE_BOUND('',#321,.T.);
#193=PLANE('',#322);
#194=SURFACE_STYLE_USAGE(.BOTH.,#323);
#195=CURVE_STYLE('',#324,POSITIVE_LENGTH_MEASURE(1000.0),#325);
#196=FACE_BOUND('',#326,.T.);
#197=FACE_BOUND('',#327,.T.);
#198=CYLINDRICAL_SURFACE('',#328,15.0);
#199=CURVE_STYLE('',#329,POSITIVE_LENGTH_MEASURE(1000.0),#330);
#200=VERTEX_POINT('',#331);
#201=CIRCLE('',#332,19.0000000000009);
#202=CURVE_STYLE('',#333,POSITIVE_LENGTH_MEASURE(1000.0),#334);
#203=VERTEX_POINT('',#335);
#204=CIRCLE('',#336,15.0000000000669);
#205=CURVE_STYLE('',#337,POSITIVE_LENGTH_MEASURE(1000.0),#338);
#206=VERTEX_POINT('',#339);
#207=CIRCLE('',#340,15.0000000000669);
#208=CURVE_STYLE('',#341,POSITIVE_LENGTH_MEASURE(1000.0),#342);
#209=VERTEX_POINT('',#343);
#210=CIRCLE('',#344,11.699999999933);
#211=SURFACE_STYLE_USAGE(.BOTH.,#345);
#212=CURVE_STYLE('',#346,POSITIVE_LENGTH_MEASURE(1000.0),#347);
#213=FACE_BOUND('',#348,.T.);
#214=FACE_BOUND('',#349,.T.);
#215=CONICAL_SURFACE('',#350,19.2500000000009,0.349065850398963);
#216=SURFACE_STYLE_USAGE(.BOTH.,#351);
#217=CURVE_STYLE('',#352,POSITIVE_LENGTH_MEASURE(1000.0),#353);
#218=FACE_OUTER_BOUND('',#354,.T.);
#219=FACE_BOUND('',#355,.T.);
#220=PLANE('',#356);
#221=SURFACE_STYLE_USAGE(.BOTH.,#357);
#222=CURVE_STYLE('',#358,POSITIVE_LENGTH_MEASURE(1000.0),#359);
#223=FACE_OUTER_BOUND('',#360,.T.);
#224=PLANE('',#361);
#225=CURVE_STYLE('',#362,POSITIVE_LENGTH_MEASURE(1000.0),#363);
#226=VERTEX_POINT('',#364);
#227=CIRCLE('',#365,15.0);
#228=CURVE_STYLE('',#366,POSITIVE_LENGTH_MEASURE(1000.0),#367);
#229=VERTEX_POINT('',#368);
#230=CIRCLE('',#369,19.5000000000009);
#231=CURVE_STYLE('',#370,POSITIVE_LENGTH_MEASURE(1000.0),#371);
#232=VERTEX_POINT('',#372);
#233=CIRCLE('',#373,15.150000000001);
#234=SURFACE_STYLE_USAGE(.BOTH.,#374);
#235=CURVE_STYLE('',#375,POSITIVE_LENGTH_MEASURE(1000.0),#376);
#236=CLOSED_SHELL('',(#58,#99,#121,#76,#71,#82,#61,#85,#79,#102,#64,#105,#53,#88));
#237=CURVE_STYLE('',#377,POSITIVE_LENGTH_MEASURE(1000.0),#378);
#238=VERTEX_POINT('',#379);
#239=CIRCLE('',#380,15.150000000001);
#240=CURVE_STYLE('',#381,POSITIVE_LENGTH_MEASURE(1000.0),#382);
#241=VERTEX_POINT('',#383);
#242=CIRCLE('',#384,11.699999999933);
#243=SURFACE_STYLE_USAGE(.BOTH.,#385);
#244=CURVE_STYLE('',#386,POSITIVE_LENGTH_MEASURE(1000.0),#387);
#245=FACE_BOUND('',#388,.T.);
#246=FACE_BOUND('',#389,.T.);
#247=CYLINDRICAL_SURFACE('',#390,19.5000000000009);
#248=PRODUCT_CONTEXT('',#38,'mechanical');
#249=PRODUCT_DEFINITION_FORMATION_WITH_SPECIFIED_SOURCE(' ','NONE',#122,.NOT_KNOWN.);
#250=CARTESIAN_POINT('',(0.0,0.0,0.0));
#251=DIRECTION('',(0.0,0.0,1.0));
#252=DIRECTION('',(1.0,0.0,0.0));
#253= (NAMED_UNIT(#130)LENGTH_UNIT()SI_UNIT(.MILLI.,.METRE.));
#254=SURFACE_SIDE_STYLE('',(#392));
#255=DRAUGHTING_PRE_DEFINED_CURVE_FONT('continuous');
#256=COLOUR_RGB('',0.0,1.0,1.0);
#257=EDGE_LOOP('',(#393));
#258=AXIS2_PLACEMENT_3D('',#394,#395,#396);
#259=DRAUGHTING_PRE_DEFINED_CURVE_FONT('continuous');
#260=COLOUR_RGB('',0.0,1.0,1.0);
#261=CARTESIAN_POINT('',(-5.97117315760784E-028,15.000000000001,9.75048330482729E-012));
#262=AXIS2_PLACEMENT_3D('',#397,#398,#399);
#263=SURFACE_SIDE_STYLE('',(#400));
#264=DRAUGHTING_PRE_DEFINED_CURVE_FONT('continuous');
#265=COLOUR_RGB('',0.0,1.0,1.0);
#266=EDGE_LOOP('',(#401));
#267=EDGE_LOOP('',(#402));
#268=AXIS2_PLACEMENT_3D('',#403,#404,#405);
#269=SURFACE_SIDE_STYLE('',(#406));
#270=DRAUGHTING_PRE_DEFINED_CURVE_FONT('continuous');
#271=COLOUR_RGB('',0.0,1.0,1.0);
#272=EDGE_LOOP('',(#407));
#273=EDGE_LOOP('',(#408));
#274=AXIS2_PLACEMENT_3D('',#409,#410,#411);
#275=SURFACE_SIDE_STYLE('',(#412));
#276=DRAUGHTING_PRE_DEFINED_CURVE_FONT('continuous');
#277=COLOUR_RGB('',0.0,1.0,1.0);
#278=EDGE_LOOP('',(#413));
#279=EDGE_LOOP('',(#414));
#280=AXIS2_PLACEMENT_3D('',#415,#416,#417);
#281=DRAUGHTING_PRE_DEFINED_CURVE_FONT('continuous');
#282=COLOUR_RGB('',0.0,1.0,1.0);
#283=CARTESIAN_POINT('',(-1.12667505521556E-014,15.0,183.999999999998));
#284=AXIS2_PLACEMENT_3D('',#418,#419,#420);
#285=DRAUGHTING_PRE_DEFINED_CURVE_FONT('continuous');
#286=COLOUR_RGB('',0.0,1.0,1.0);
#287=CARTESIAN_POINT('',(-1.3471114790627E-015,14.9999999999999,22.00000000001));
#288=AXIS2_PLACEMENT_3D('',#421,#422,#423);
#289=SURFACE_SIDE_STYLE('',(#424));
#290=DRAUGHTING_PRE_DEFINED_CURVE_FONT('continuous');
#291=COLOUR_RGB('',0.0,1.0,1.0);
#292=EDGE_LOOP('',(#425));
#293=EDGE_LOOP('',(#426));
#294=AXIS2_PLACEMENT_3D('',#427,#428,#429);
#295=DRAUGHTING_PRE_DEFINED_CURVE_FONT('continuous');
#296=COLOUR_RGB('',0.0,1.0,1.0);
#297=CARTESIAN_POINT('',(-7.41684440909083E-015,19.5000000000009,121.126261290271));
#298=AXIS2_PLACEMENT_3D('',#430,#431,#432);
#299=SURFACE_SIDE_STYLE('',(#433));
#300=DRAUGHTING_PRE_DEFINED_CURVE_FONT('continuous');
#301=COLOUR_RGB('',0.0,1.0,1.0);
#302=EDGE_LOOP('',(#434));
#303=EDGE_LOOP('',(#435));
#304=AXIS2_PLACEMENT_3D('',#436,#437,#438);
#305=SURFACE_SIDE_STYLE('',(#439));
#306=DRAUGHTING_PRE_DEFINED_CURVE_FONT('continuous');
#307=COLOUR_RGB('',0.0,1.0,1.0);
#308=EDGE_LOOP('',(#440));
#309=EDGE_LOOP('',(#441));
#310=AXIS2_PLACEMENT_3D('',#442,#443,#444);
#311=SURFACE_SIDE_STYLE('',(#445));
#312=DRAUGHTING_PRE_DEFINED_CURVE_FONT('continuous');
#313=COLOUR_RGB('',0.0,1.0,1.0);
#314=EDGE_LOOP('',(#446));
#315=EDGE_LOOP('',(#447));
#316=AXIS2_PLACEMENT_3D('',#448,#449,#450);
#317=SURFACE_SIDE_STYLE('',(#451));
#318=DRAUGHTING_PRE_DEFINED_CURVE_FONT('continuous');
#319=COLOUR_RGB('',0.0,1.0,1.0);
#320=EDGE_LOOP('',(#452));
#321=EDGE_LOOP('',(#453));
#322=AXIS2_PLACEMENT_3D('',#454,#455,#456);
#323=SURFACE_SIDE_STYLE('',(#457));
#324=DRAUGHTING_PRE_DEFINED_CURVE_FONT('continuous');
#325=COLOUR_RGB('',0.0,1.0,1.0);
#326=EDGE_LOOP('',(#458));
#327=EDGE_LOOP('',(#459));
#328=AXIS2_PLACEMENT_3D('',#460,#461,#462);
#329=DRAUGHTING_PRE_DEFINED_CURVE_FONT('continuous');
#330=COLOUR_RGB('',0.0,1.0,1.0);
#331=CARTESIAN_POINT('',(-7.50096164477742E-015,19.0000000000009,122.499999999998));
#332=AXIS2_PLACEMENT_3D('',#463,#464,#465);
#333=DRAUGHTING_PRE_DEFINED_CURVE_FONT('continuous');
#334=COLOUR_RGB('',0.0,1.0,1.0);
#335=CARTESIAN_POINT('',(-6.96788689290818E-015,15.0000000000668,113.794228634076));
#336=AXIS2_PLACEMENT_3D('',#466,#467,#468);
#337=DRAUGHTING_PRE_DEFINED_CURVE_FONT('continuous');
#338=COLOUR_RGB('',0.0,1.0,1.0);
#339=CARTESIAN_POINT('',(-1.53080849893454E-015,15.0000000000668,25.0000000000058));
#340=AXIS2_PLACEMENT_3D('',#469,#470,#471);
#341=DRAUGHTING_PRE_DEFINED_CURVE_FONT('continuous');
#342=COLOUR_RGB('',0.0,1.0,1.0);
#343=CARTESIAN_POINT('',(-1.5308084989347E-015,11.699999999933,25.0000000000082));
#344=AXIS2_PLACEMENT_3D('',#472,#473,#474);
#345=SURFACE_SIDE_STYLE('',(#475));
#346=DRAUGHTING_PRE_DEFINED_CURVE_FONT('continuous');
#347=COLOUR_RGB('',0.0,1.0,1.0);
#348=EDGE_LOOP('',(#476));
#349=EDGE_LOOP('',(#477));
#350=AXIS2_PLACEMENT_3D('',#478,#479,#480);
#351=SURFACE_SIDE_STYLE('',(#481));
#352=DRAUGHTING_PRE_DEFINED_CURVE_FONT('continuous');
#353=COLOUR_RGB('',0.0,1.0,1.0);
#354=EDGE_LOOP('',(#482));
#355=EDGE_LOOP('',(#483));
#356=AXIS2_PLACEMENT_3D('',#484,#485,#486);
#357=SURFACE_SIDE_STYLE('',(#487));
#358=DRAUGHTING_PRE_DEFINED_CURVE_FONT('continuous');
#359=COLOUR_RGB('',0.0,1.0,1.0);
#360=EDGE_LOOP('',(#488));
#361=AXIS2_PLACEMENT_3D('',#489,#490,#491);
#362=DRAUGHTING_PRE_DEFINED_CURVE_FONT('continuous');
#363=COLOUR_RGB('',0.0,1.0,1.0);
#364=CARTESIAN_POINT('',(-7.86835568452165E-015,15.0,122.499999999998));
#365=AXIS2_PLACEMENT_3D('',#492,#493,#494);
#366=DRAUGHTING_PRE_DEFINED_CURVE_FONT('continuous');
#367=COLOUR_RGB('',0.0,1.0,1.0);
#368=CARTESIAN_POINT('',(-7.04171909509718E-015,19.5000000000009,114.999999999998));
#369=AXIS2_PLACEMENT_3D('',#495,#496,#497);
#370=DRAUGHTING_PRE_DEFINED_CURVE_FONT('continuous');
#371=COLOUR_RGB('',0.0,1.0,1.0);
#372=CARTESIAN_POINT('',(-1.3471114790627E-015,15.150000000001,22.00000000001));
#373=AXIS2_PLACEMENT_3D('',#498,#499,#500);
#374=SURFACE_SIDE_STYLE('',(#501));
#375=DRAUGHTING_PRE_DEFINED_CURVE_FONT('continuous');
#376=COLOUR_RGB('',0.0,1.0,1.0);
#377=DRAUGHTING_PRE_DEFINED_CURVE_FONT('continuous');
#378=COLOUR_RGB('',0.0,1.0,1.0);
#379=CARTESIAN_POINT('',(-1.46957615897736E-015,15.150000000001,24.0000000000088));
#380=AXIS2_PLACEMENT_3D('',#502,#503,#504);
#381=DRAUGHTING_PRE_DEFINED_CURVE_FONT('continuous');
#382=COLOUR_RGB('',0.0,1.0,1.0);
#383=CARTESIAN_POINT('',(-1.46957615897702E-015,11.699999999933,24.0000000000032));
#384=AXIS2_PLACEMENT_3D('',#505,#506,#507);
#385=SURFACE_SIDE_STYLE('',(#508));
#386=DRAUGHTING_PRE_DEFINED_CURVE_FONT('continuous');
#387=COLOUR_RGB('',0.0,1.0,1.0);
#388=EDGE_LOOP('',(#509));
#389=EDGE_LOOP('',(#510));
#390=AXIS2_PLACEMENT_3D('',#511,#512,#513);
#392=SURFACE_STYLE_FILL_AREA(#514);
#393=ORIENTED_EDGE('',*,*,#66,.F.);
#394=CARTESIAN_POINT('',(-1.12667505521556E-014,7.49999999999998,183.999999999998));
#395=DIRECTION('',(7.49879891330927E-033,-1.22464679914735E-016,1.0));
#396=DIRECTION('',(1.0,6.12323399573677E-017,0.0));
#397=CARTESIAN_POINT('',(-5.96932426486123E-028,-1.19386485297225E-027,9.74864633462857E-012));
#398=DIRECTION('',(6.12323399573676E-017,1.22464679914735E-016,-1.0));
#399=DIRECTION('',(-1.23259516440783E-032,1.0,1.22464679914735E-016));
#400=SURFACE_STYLE_FILL_AREA(#515);
#401=ORIENTED_EDGE('',*,*,#90,.F.);
#402=ORIENTED_EDGE('',*,*,#107,.T.);
#403=CARTESIAN_POINT('',(-14.7627727571536,2.65716776298423,122.499999999998));
#404=DIRECTION('',(0.0,0.0,1.0));
#405=DIRECTION('',(-1.0,0.0,0.0));
#406=SURFACE_STYLE_FILL_AREA(#516);
#407=ORIENTED_EDGE('',*,*,#118,.F.);
#408=ORIENTED_EDGE('',*,*,#96,.T.);
#409=CARTESIAN_POINT('',(-1.50019232895586E-015,-3.00038465791171E-015,24.5000000000057));
#410=DIRECTION('',(6.12323399573676E-017,1.22464679914735E-016,-1.0));
#411=DIRECTION('',(-1.23259516440783E-032,1.0,1.22464679914735E-016));
#412=SURFACE_STYLE_FILL_AREA(#517);
#413=ORIENTED_EDGE('',*,*,#55,.F.);
#414=ORIENTED_EDGE('',*,*,#68,.T.);
#415=CARTESIAN_POINT('',(-6.73555739531648E-016,-1.3471114790633E-015,11.0000000000099));
#416=DIRECTION('',(6.12323399573677E-017,1.22464679914735E-016,-1.0));
#417=DIRECTION('',(-1.23259516440783E-032,1.0,1.22464679914735E-016));
#418=CARTESIAN_POINT('',(-1.12667505521556E-014,-2.25335011043111E-014,183.999999999998));
#419=DIRECTION('',(6.12323399573677E-017,1.22464679914735E-016,-1.0));
#420=DIRECTION('',(-1.23259516440783E-032,1.0,1.22464679914735E-016));
#421=CARTESIAN_POINT('',(-1.3471114790627E-015,-2.6942229581254E-015,22.00000000001));
#422=DIRECTION('',(6.12323399573677E-017,1.22464679914735E-016,-1.0));
#423=DIRECTION('',(-1.23259516440783E-032,1.0,1.22464679914735E-016));
#424=SURFACE_STYLE_FILL_AREA(#518);
#425=ORIENTED_EDGE('',*,*,#94,.F.);
#426=ORIENTED_EDGE('',*,*,#92,.T.);
#427=CARTESIAN_POINT('',(-4.24934769592136E-015,-8.49869539184272E-015,69.397114317041));
#428=DIRECTION('',(6.12323399573677E-017,1.22464679914735E-016,-1.0));
#429=DIRECTION('',(-1.23259516440783E-032,1.0,1.22464679914735E-016));
#430=CARTESIAN_POINT('',(-7.41684440909083E-015,-1.48336888181817E-014,121.126261290271));
#431=DIRECTION('',(6.12323399573677E-017,1.22464679914735E-016,-1.0));
#432=DIRECTION('',(-1.23259516440783E-032,1.0,1.22464679914735E-016));
#433=SURFACE_STYLE_FILL_AREA(#519);
#434=ORIENTED_EDGE('',*,*,#92,.F.);
#435=ORIENTED_EDGE('',*,*,#109,.T.);
#436=CARTESIAN_POINT('',(-7.00480299400268E-015,-1.40096059880054E-014,114.397114317037));
#437=DIRECTION('',(-6.12323399573676E-017,-1.22464679914735E-016,1.0));
#438=DIRECTION('',(-1.23259516440783E-032,1.0,1.22464679914735E-016));
#439=SURFACE_STYLE_FILL_AREA(#520);
#440=ORIENTED_EDGE('',*,*,#111,.F.);
#441=ORIENTED_EDGE('',*,*,#116,.T.);
#442=CARTESIAN_POINT('',(-1.40834381902003E-015,-2.81668763804006E-015,23.0000000000094));
#443=DIRECTION('',(6.12323399573677E-017,1.22464679914735E-016,-1.0));
#444=DIRECTION('',(-1.23259516440783E-032,1.0,1.22464679914735E-016));
#445=SURFACE_STYLE_FILL_AREA(#521);
#446=ORIENTED_EDGE('',*,*,#94,.T.);
#447=ORIENTED_EDGE('',*,*,#96,.F.);
#448=CARTESIAN_POINT('',(-1.53080849893462E-015,13.3499999999999,25.000000000007));
#449=DIRECTION('',(6.12323399573677E-017,-7.49177147545792E-013,-1.0));
#450=DIRECTION('',(0.0,-1.0,7.49177147545792E-013));
#451=SURFACE_STYLE_FILL_AREA(#522);
#452=ORIENTED_EDGE('',*,*,#116,.F.);
#453=ORIENTED_EDGE('',*,*,#118,.T.);
#454=CARTESIAN_POINT('',(-1.46957615897719E-015,13.424999999967,24.000000000006));
#455=DIRECTION('',(9.90674601365575E-029,-1.61789440360326E-012,1.0));
#456=DIRECTION('',(1.0,6.12323399573677E-017,0.0));
#457=SURFACE_STYLE_FILL_AREA(#523);
#458=ORIENTED_EDGE('',*,*,#107,.F.);
#459=ORIENTED_EDGE('',*,*,#66,.T.);
#460=CARTESIAN_POINT('',(-9.5675531183386E-015,-1.91351062366772E-014,156.249999999998));
#461=DIRECTION('',(6.12323399573677E-017,1.22464679914735E-016,-1.0));
#462=DIRECTION('',(-1.23259516440783E-032,1.0,1.22464679914735E-016));
#463=CARTESIAN_POINT('',(-7.50096164477742E-015,-1.50019232895548E-014,122.499999999998));
#464=DIRECTION('',(6.12323399573676E-017,1.22464679914735E-016,-1.0));
#465=DIRECTION('',(-1.23259516440783E-032,1.0,1.22464679914735E-016));
#466=CARTESIAN_POINT('',(-6.96788689290818E-015,-1.39357737858164E-014,113.794228634076));
#467=DIRECTION('',(6.12323399573677E-017,1.22464679914735E-016,-1.0));
#468=DIRECTION('',(-1.23259516440783E-032,1.0,1.22464679914735E-016));
#469=CARTESIAN_POINT('',(-1.53080849893454E-015,-3.06161699786909E-015,25.0000000000058));
#470=DIRECTION('',(6.12323399573677E-017,1.22464679914735E-016,-1.0));
#471=DIRECTION('',(-1.23259516440783E-032,1.0,1.22464679914735E-016));
#472=CARTESIAN_POINT('',(-1.5308084989347E-015,-3.06161699786939E-015,25.0000000000082));
#473=DIRECTION('',(6.12323399573676E-017,1.22464679914735E-016,-1.0));
#474=DIRECTION('',(-1.23259516440783E-032,1.0,1.22464679914735E-016));
#475=SURFACE_STYLE_FILL_AREA(#524);
#476=ORIENTED_EDGE('',*,*,#73,.F.);
#477=ORIENTED_EDGE('',*,*,#90,.T.);
#478=CARTESIAN_POINT('',(-7.45890302693413E-015,-1.49178060538682E-014,121.813130645135));
#479=DIRECTION('',(6.12323399573677E-017,1.22464679914735E-016,-1.0));
#480=DIRECTION('',(-1.23259516440783E-032,1.0,1.22464679914735E-016));
#481=SURFACE_STYLE_FILL_AREA(#525);
#482=ORIENTED_EDGE('',*,*,#111,.T.);
#483=ORIENTED_EDGE('',*,*,#68,.F.);
#484=CARTESIAN_POINT('',(-1.3471114790627E-015,15.0750000000005,22.00000000001));
#485=DIRECTION('',(6.12323399573677E-017,1.22464679914735E-016,-1.0));
#486=DIRECTION('',(-1.0,0.0,-6.12323399573677E-017));
#487=SURFACE_STYLE_FILL_AREA(#526);
#488=ORIENTED_EDGE('',*,*,#55,.T.);
#489=CARTESIAN_POINT('',(-5.97024871123454E-028,7.50000000000048,9.74956481972794E-012));
#490=DIRECTION('',(6.12323399573677E-017,1.22464679914735E-016,-1.0));
#491=DIRECTION('',(-1.0,0.0,-6.12323399573677E-017));
#492=CARTESIAN_POINT('',(-7.86835568452165E-015,-1.57367113690433E-014,122.499999999998));
#493=DIRECTION('',(6.12323399573677E-017,1.22464679914735E-016,-1.0));
#494=DIRECTION('',(-1.23259516440783E-032,1.0,1.22464679914735E-016));
#495=CARTESIAN_POINT('',(-7.04171909509718E-015,-1.40834381901944E-014,114.999999999998));
#496=DIRECTION('',(6.12323399573677E-017,1.22464679914735E-016,-1.0));
#497=DIRECTION('',(-1.23259516440783E-032,1.0,1.22464679914735E-016));
#498=CARTESIAN_POINT('',(-1.3471114790627E-015,-2.6942229581254E-015,22.00000000001));
#499=DIRECTION('',(6.12323399573677E-017,1.22464679914735E-016,-1.0));
#500=DIRECTION('',(-1.23259516440783E-032,1.0,1.22464679914735E-016));
#501=SURFACE_STYLE_FILL_AREA(#527);
#502=CARTESIAN_POINT('',(-1.46957615897736E-015,-2.93915231795472E-015,24.0000000000088));
#503=DIRECTION('',(6.12323399573677E-017,1.22464679914735E-016,-1.0));
#504=DIRECTION('',(-1.23259516440783E-032,1.0,1.22464679914735E-016));
#505=CARTESIAN_POINT('',(-1.46957615897702E-015,-2.93915231795404E-015,24.0000000000032));
#506=DIRECTION('',(6.12323399573676E-017,1.22464679914735E-016,-1.0));
#507=DIRECTION('',(-1.23259516440783E-032,1.0,1.22464679914735E-016));
#508=SURFACE_STYLE_FILL_AREA(#528);
#509=ORIENTED_EDGE('',*,*,#109,.F.);
#510=ORIENTED_EDGE('',*,*,#73,.T.);
#511=CARTESIAN_POINT('',(-7.229281752094E-015,-1.4458563504188E-014,118.063130645135));
#512=DIRECTION('',(6.12323399573677E-017,1.22464679914735E-016,-1.0));
#513=DIRECTION('',(-1.23259516440783E-032,1.0,1.22464679914735E-016));
#514=FILL_AREA_STYLE('',(#529));
#515=FILL_AREA_STYLE('',(#530));
#516=FILL_AREA_STYLE('',(#531));
#517=FILL_AREA_STYLE('',(#532));
#518=FILL_AREA_STYLE('',(#533));
#519=FILL_AREA_STYLE('',(#534));
#520=FILL_AREA_STYLE('',(#535));
#521=FILL_AREA_STYLE('',(#536));
#522=FILL_AREA_STYLE('',(#537));
#523=FILL_AREA_STYLE('',(#538));
#524=FILL_AREA_STYLE('',(#539));
#525=FILL_AREA_STYLE('',(#540));
#526=FILL_AREA_STYLE('',(#541));
#527=FILL_AREA_STYLE('',(#542));
#528=FILL_AREA_STYLE('',(#543));
#529=FILL_AREA_STYLE_COLOUR('',#544);
#530=FILL_AREA_STYLE_COLOUR('',#545);
#531=FILL_AREA_STYLE_COLOUR('',#546);
#532=FILL_AREA_STYLE_COLOUR('',#547);
#533=FILL_AREA_STYLE_COLOUR('',#548);
#534=FILL_AREA_STYLE_COLOUR('',#549);
#535=FILL_AREA_STYLE_COLOUR('',#550);
#536=FILL_AREA_STYLE_COLOUR('',#551);
#537=FILL_AREA_STYLE_COLOUR('',#552);
#538=FILL_AREA_STYLE_COLOUR('',#553);
#539=FILL_AREA_STYLE_COLOUR('',#554);
#540=FILL_AREA_STYLE_COLOUR('',#555);
#541=FILL_AREA_STYLE_COLOUR('',#556);
#542=FILL_AREA_STYLE_COLOUR('',#557);
#543=FILL_AREA_STYLE_COLOUR('',#558);
#544=COLOUR_RGB('',0.0,1.0,1.0);
#545=COLOUR_RGB('',0.0,1.0,1.0);
#546=COLOUR_RGB('',0.0,1.0,1.0);
#547=COLOUR_RGB('',0.0,1.0,1.0);
#548=COLOUR_RGB('',0.0,1.0,1.0);
#549=COLOUR_RGB('',0.0,1.0,1.0);
#550=COLOUR_RGB('',0.0,1.0,1.0);
#551=COLOUR_RGB('',0.0,1.0,1.0);
#552=COLOUR_RGB('',0.0,1.0,1.0);
#553=COLOUR_RGB('',0.0,1.0,1.0);
#554=COLOUR_RGB('',0.0,1.0,1.0);
#555=COLOUR_RGB('',0.0,1.0,1.0);
#556=COLOUR_RGB('',0.0,1.0,1.0);
#557=COLOUR_RGB('',0.0,1.0,1.0);
#558=COLOUR_RGB('',0.0,1.0,1.0);
ENDSEC;
END-ISO-10303-21;
