ISO-10303-21;
HEADER;
FILE_DESCRIPTION((''),'1');
FILE_NAME('T:/02_3D_Field-HP\X2\FF71FF6FFF8CFF9F5916\X0\2013/02_Step_Field-HP\X2\FF71FF6FFF8CFF9F5916\X0\2013/MGT20-d-115_090071-140112.stp','2017-02-08T07:58:55',(''),(''),'Spatial Interop R21 SP3','Kubotek KeyCreator 2011 V10.0.2 (22737)',' ');
FILE_SCHEMA(('automotive_design'));
ENDSEC;
DATA;
#1=MECHANICAL_DESIGN_GEOMETRIC_PRESENTATION_REPRESENTATION(' ',(#10,#11,#12,#13,#14,#15,#16,#17,#18,#19,#20,#21,#22,#23,#24,#25,#26,#27,#28,#29,#30,#31,#32,#33,#34,#35,#36,#37),#6);
#2=PRODUCT_DEFINITION_CONTEXT('',#38,'design');
#3=APPLICATION_PROTOCOL_DEFINITION('INTERNATIONAL STANDARD','automotive_design',1994,#38);
#4=PRODUCT_CATEGORY_RELATIONSHIP('NONE','NONE',#39,#40);
#5=SHAPE_DEFINITION_REPRESENTATION(#41,#42);
#6= (GEOMETRIC_REPRESENTATION_CONTEXT(3)GLOBAL_UNCERTAINTY_ASSIGNED_CONTEXT((#45))GLOBAL_UNIT_ASSIGNED_CONTEXT((#47,#48,#49))REPRESENTATION_CONTEXT('NONE','WORKSPACE'));
#10=STYLED_ITEM('',(#51,#52),#53);
#11=STYLED_ITEM('',(#54,#55),#56);
#12=STYLED_ITEM('',(#57,#58),#59);
#13=STYLED_ITEM('',(#60),#61);
#14=STYLED_ITEM('',(#62,#63),#64);
#15=STYLED_ITEM('',(#65,#66),#67);
#16=STYLED_ITEM('',(#68),#69);
#17=STYLED_ITEM('',(#70,#71),#72);
#18=STYLED_ITEM('',(#73),#74);
#19=STYLED_ITEM('',(#75),#76);
#20=STYLED_ITEM('',(#77),#78);
#21=STYLED_ITEM('',(#79,#80),#81);
#22=STYLED_ITEM('',(#82,#83),#84);
#23=STYLED_ITEM('',(#85,#86),#87);
#24=STYLED_ITEM('',(#88),#89);
#25=STYLED_ITEM('',(#90,#91),#92);
#26=STYLED_ITEM('',(#93,#94),#95);
#27=STYLED_ITEM('',(#96),#97);
#28=STYLED_ITEM('',(#98,#99),#100);
#29=STYLED_ITEM('',(#101,#102),#103);
#30=STYLED_ITEM('',(#104,#105),#106);
#31=STYLED_ITEM('',(#107),#108);
#32=STYLED_ITEM('',(#109),#110);
#33=STYLED_ITEM('',(#111),#112);
#34=STYLED_ITEM('',(#113),#114);
#35=STYLED_ITEM('',(#115),#116);
#36=STYLED_ITEM('',(#117,#118),#119);
#37=STYLED_ITEM('',(#120),#121);
#38=APPLICATION_CONTEXT(' ');
#39=PRODUCT_CATEGORY('part','NONE');
#40=PRODUCT_RELATED_PRODUCT_CATEGORY('detail',' ',(#122));
#41=PRODUCT_DEFINITION_SHAPE('NONE','NONE',#123);
#42=ADVANCED_BREP_SHAPE_REPRESENTATION('240[2]',(#81,#124),#6);
#45=UNCERTAINTY_MEASURE_WITH_UNIT(LENGTH_MEASURE(1.0E-006),#47,'','');
#47= (CONVERSION_BASED_UNIT('MILLIMETRE',#127)LENGTH_UNIT()NAMED_UNIT(#130));
#48= (NAMED_UNIT(#132)PLANE_ANGLE_UNIT()SI_UNIT($,.RADIAN.));
#49= (NAMED_UNIT(#132)SOLID_ANGLE_UNIT()SI_UNIT($,.STERADIAN.));
#51=PRESENTATION_STYLE_ASSIGNMENT((#138));
#52=PRESENTATION_STYLE_ASSIGNMENT((#139));
#53=ADVANCED_FACE('240[2]',(#140,#141),#142,.T.);
#54=PRESENTATION_STYLE_ASSIGNMENT((#143));
#55=PRESENTATION_STYLE_ASSIGNMENT((#144));
#56=ADVANCED_FACE('240[2]',(#145,#146),#147,.T.);
#57=PRESENTATION_STYLE_ASSIGNMENT((#148));
#58=PRESENTATION_STYLE_ASSIGNMENT((#149));
#59=ADVANCED_FACE('240[2]',(#150,#151),#152,.T.);
#60=PRESENTATION_STYLE_ASSIGNMENT((#153));
#61=EDGE_CURVE('240[2]',#154,#154,#155,.T.);
#62=PRESENTATION_STYLE_ASSIGNMENT((#156));
#63=PRESENTATION_STYLE_ASSIGNMENT((#157));
#64=ADVANCED_FACE('240[2]',(#158,#159),#160,.T.);
#65=PRESENTATION_STYLE_ASSIGNMENT((#161));
#66=PRESENTATION_STYLE_ASSIGNMENT((#162));
#67=ADVANCED_FACE('240[2]',(#163,#164),#165,.T.);
#68=PRESENTATION_STYLE_ASSIGNMENT((#166));
#69=EDGE_CURVE('240[2]',#167,#167,#168,.T.);
#70=PRESENTATION_STYLE_ASSIGNMENT((#169));
#71=PRESENTATION_STYLE_ASSIGNMENT((#170));
#72=ADVANCED_FACE('240[2]',(#171,#172),#173,.T.);
#73=PRESENTATION_STYLE_ASSIGNMENT((#174));
#74=EDGE_CURVE('240[2]',#175,#175,#176,.T.);
#75=PRESENTATION_STYLE_ASSIGNMENT((#177));
#76=EDGE_CURVE('240[2]',#178,#178,#179,.T.);
#77=PRESENTATION_STYLE_ASSIGNMENT((#180));
#78=EDGE_CURVE('240[2]',#181,#181,#182,.T.);
#79=PRESENTATION_STYLE_ASSIGNMENT((#183));
#80=PRESENTATION_STYLE_ASSIGNMENT((#184));
#81=MANIFOLD_SOLID_BREP('240[2]',#185);
#82=PRESENTATION_STYLE_ASSIGNMENT((#186));
#83=PRESENTATION_STYLE_ASSIGNMENT((#187));
#84=ADVANCED_FACE('240[2]',(#188,#189),#190,.T.);
#85=PRESENTATION_STYLE_ASSIGNMENT((#191));
#86=PRESENTATION_STYLE_ASSIGNMENT((#192));
#87=ADVANCED_FACE('240[2]',(#193,#194),#195,.T.);
#88=PRESENTATION_STYLE_ASSIGNMENT((#196));
#89=EDGE_CURVE('240[2]',#197,#197,#198,.T.);
#90=PRESENTATION_STYLE_ASSIGNMENT((#199));
#91=PRESENTATION_STYLE_ASSIGNMENT((#200));
#92=ADVANCED_FACE('240[2]',(#201,#202),#203,.T.);
#93=PRESENTATION_STYLE_ASSIGNMENT((#204));
#94=PRESENTATION_STYLE_ASSIGNMENT((#205));
#95=ADVANCED_FACE('240[2]',(#206,#207),#208,.T.);
#96=PRESENTATION_STYLE_ASSIGNMENT((#209));
#97=EDGE_CURVE('240[2]',#210,#210,#211,.T.);
#98=PRESENTATION_STYLE_ASSIGNMENT((#212));
#99=PRESENTATION_STYLE_ASSIGNMENT((#213));
#100=ADVANCED_FACE('240[2]',(#214),#215,.T.);
#101=PRESENTATION_STYLE_ASSIGNMENT((#216));
#102=PRESENTATION_STYLE_ASSIGNMENT((#217));
#103=ADVANCED_FACE('240[2]',(#218),#219,.T.);
#104=PRESENTATION_STYLE_ASSIGNMENT((#220));
#105=PRESENTATION_STYLE_ASSIGNMENT((#221));
#106=ADVANCED_FACE('240[2]',(#222,#223),#224,.T.);
#107=PRESENTATION_STYLE_ASSIGNMENT((#225));
#108=EDGE_CURVE('240[2]',#226,#226,#227,.T.);
#109=PRESENTATION_STYLE_ASSIGNMENT((#228));
#110=EDGE_CURVE('240[2]',#229,#229,#230,.T.);
#111=PRESENTATION_STYLE_ASSIGNMENT((#231));
#112=EDGE_CURVE('240[2]',#232,#232,#233,.T.);
#113=PRESENTATION_STYLE_ASSIGNMENT((#234));
#114=EDGE_CURVE('240[2]',#235,#235,#236,.T.);
#115=PRESENTATION_STYLE_ASSIGNMENT((#237));
#116=EDGE_CURVE('240[2]',#238,#238,#239,.T.);
#117=PRESENTATION_STYLE_ASSIGNMENT((#240));
#118=PRESENTATION_STYLE_ASSIGNMENT((#241));
#119=ADVANCED_FACE('240[2]',(#242,#243),#244,.T.);
#120=PRESENTATION_STYLE_ASSIGNMENT((#245));
#121=EDGE_CURVE('240[2]',#246,#246,#247,.T.);
#122=PRODUCT('240[2]','240[2]','PART-240[2]-DESC',(#248));
#123=PRODUCT_DEFINITION('NONE','NONE',#249,#2);
#124=AXIS2_PLACEMENT_3D('',#250,#251,#252);
#127=LENGTH_MEASURE_WITH_UNIT(LENGTH_MEASURE(1.0),#253);
#130=DIMENSIONAL_EXPONENTS(1.0,0.0,0.0,0.0,0.0,0.0,0.0);
#132=DIMENSIONAL_EXPONENTS(0.0,0.0,0.0,0.0,0.0,0.0,0.0);
#138=SURFACE_STYLE_USAGE(.BOTH.,#254);
#139=CURVE_STYLE('',#255,POSITIVE_LENGTH_MEASURE(1000.0),#256);
#140=FACE_BOUND('',#257,.T.);
#141=FACE_BOUND('',#258,.T.);
#142=CYLINDRICAL_SURFACE('',#259,15.0000000000669);
#143=SURFACE_STYLE_USAGE(.BOTH.,#260);
#144=CURVE_STYLE('',#261,POSITIVE_LENGTH_MEASURE(1000.0),#262);
#145=FACE_BOUND('',#263,.T.);
#146=FACE_BOUND('',#264,.T.);
#147=CYLINDRICAL_SURFACE('',#265,11.699999999933);
#148=SURFACE_STYLE_USAGE(.BOTH.,#266);
#149=CURVE_STYLE('',#267,POSITIVE_LENGTH_MEASURE(1000.0),#268);
#150=FACE_BOUND('',#269,.T.);
#151=FACE_BOUND('',#270,.T.);
#152=CYLINDRICAL_SURFACE('',#271,15.0000000000004);
#153=CURVE_STYLE('',#272,POSITIVE_LENGTH_MEASURE(1000.0),#273);
#154=VERTEX_POINT('',#274);
#155=CIRCLE('',#275,15.0);
#156=SURFACE_STYLE_USAGE(.BOTH.,#276);
#157=CURVE_STYLE('',#277,POSITIVE_LENGTH_MEASURE(1000.0),#278);
#158=FACE_BOUND('',#279,.T.);
#159=FACE_BOUND('',#280,.T.);
#160=CYLINDRICAL_SURFACE('',#281,15.0);
#161=SURFACE_STYLE_USAGE(.BOTH.,#282);
#162=CURVE_STYLE('',#283,POSITIVE_LENGTH_MEASURE(1000.0),#284);
#163=FACE_BOUND('',#285,.T.);
#164=FACE_BOUND('',#286,.T.);
#165=CYLINDRICAL_SURFACE('',#287,19.5000000000009);
#166=CURVE_STYLE('',#288,POSITIVE_LENGTH_MEASURE(1000.0),#289);
#167=VERTEX_POINT('',#290);
#168=CIRCLE('',#291,19.5000000000009);
#169=SURFACE_STYLE_USAGE(.BOTH.,#292);
#170=CURVE_STYLE('',#293,POSITIVE_LENGTH_MEASURE(1000.0),#294);
#171=FACE_OUTER_BOUND('',#295,.T.);
#172=FACE_BOUND('',#296,.T.);
#173=PLANE('',#297);
#174=CURVE_STYLE('',#298,POSITIVE_LENGTH_MEASURE(1000.0),#299);
#175=VERTEX_POINT('',#300);
#176=CIRCLE('',#301,15.0000000000669);
#177=CURVE_STYLE('',#302,POSITIVE_LENGTH_MEASURE(1000.0),#303);
#178=VERTEX_POINT('',#304);
#179=CIRCLE('',#305,15.150000000001);
#180=CURVE_STYLE('',#306,POSITIVE_LENGTH_MEASURE(1000.0),#307);
#181=VERTEX_POINT('',#308);
#182=CIRCLE('',#309,15.000000000001);
#183=SURFACE_STYLE_USAGE(.BOTH.,#310);
#184=CURVE_STYLE('',#311,POSITIVE_LENGTH_MEASURE(1000.0),#312);
#185=CLOSED_SHELL('',(#92,#84,#67,#95,#53,#119,#56,#87,#106,#72,#59,#100,#103,#64));
#186=SURFACE_STYLE_USAGE(.BOTH.,#313);
#187=CURVE_STYLE('',#314,POSITIVE_LENGTH_MEASURE(1000.0),#315);
#188=FACE_BOUND('',#316,.T.);
#189=FACE_BOUND('',#317,.T.);
#190=CONICAL_SURFACE('',#318,19.2500000000009,0.349065850398963);
#191=SURFACE_STYLE_USAGE(.BOTH.,#319);
#192=CURVE_STYLE('',#320,POSITIVE_LENGTH_MEASURE(1000.0),#321);
#193=FACE_OUTER_BOUND('',#322,.T.);
#194=FACE_BOUND('',#323,.T.);
#195=PLANE('',#324);
#196=CURVE_STYLE('',#325,POSITIVE_LENGTH_MEASURE(1000.0),#326);
#197=VERTEX_POINT('',#327);
#198=CIRCLE('',#328,11.699999999933);
#199=SURFACE_STYLE_USAGE(.BOTH.,#329);
#200=CURVE_STYLE('',#330,POSITIVE_LENGTH_MEASURE(1000.0),#331);
#201=FACE_OUTER_BOUND('',#332,.T.);
#202=FACE_BOUND('',#333,.T.);
#203=PLANE('',#334);
#204=SURFACE_STYLE_USAGE(.BOTH.,#335);
#205=CURVE_STYLE('',#336,POSITIVE_LENGTH_MEASURE(1000.0),#337);
#206=FACE_BOUND('',#338,.T.);
#207=FACE_BOUND('',#339,.T.);
#208=CONICAL_SURFACE('',#340,17.2500000000339,1.30899693899583);
#209=CURVE_STYLE('',#341,POSITIVE_LENGTH_MEASURE(1000.0),#342);
#210=VERTEX_POINT('',#343);
#211=CIRCLE('',#344,15.150000000001);
#212=SURFACE_STYLE_USAGE(.BOTH.,#345);
#213=CURVE_STYLE('',#346,POSITIVE_LENGTH_MEASURE(1000.0),#347);
#214=FACE_OUTER_BOUND('',#348,.T.);
#215=PLANE('',#349);
#216=SURFACE_STYLE_USAGE(.BOTH.,#350);
#217=CURVE_STYLE('',#351,POSITIVE_LENGTH_MEASURE(1000.0),#352);
#218=FACE_OUTER_BOUND('',#353,.T.);
#219=PLANE('',#354);
#220=SURFACE_STYLE_USAGE(.BOTH.,#355);
#221=CURVE_STYLE('',#356,POSITIVE_LENGTH_MEASURE(1000.0),#357);
#222=FACE_BOUND('',#358,.T.);
#223=FACE_BOUND('',#359,.T.);
#224=CYLINDRICAL_SURFACE('',#360,15.150000000001);
#225=CURVE_STYLE('',#361,POSITIVE_LENGTH_MEASURE(1000.0),#362);
#226=VERTEX_POINT('',#363);
#227=CIRCLE('',#364,19.5000000000009);
#228=CURVE_STYLE('',#365,POSITIVE_LENGTH_MEASURE(1000.0),#366);
#229=VERTEX_POINT('',#367);
#230=CIRCLE('',#368,11.699999999933);
#231=CURVE_STYLE('',#369,POSITIVE_LENGTH_MEASURE(1000.0),#370);
#232=VERTEX_POINT('',#371);
#233=CIRCLE('',#372,19.0000000000009);
#234=CURVE_STYLE('',#373,POSITIVE_LENGTH_MEASURE(1000.0),#374);
#235=VERTEX_POINT('',#375);
#236=CIRCLE('',#376,15.0000000000669);
#237=CURVE_STYLE('',#377,POSITIVE_LENGTH_MEASURE(1000.0),#378);
#238=VERTEX_POINT('',#379);
#239=CIRCLE('',#380,15.0);
#240=SURFACE_STYLE_USAGE(.BOTH.,#381);
#241=CURVE_STYLE('',#382,POSITIVE_LENGTH_MEASURE(1000.0),#383);
#242=FACE_OUTER_BOUND('',#384,.T.);
#243=FACE_BOUND('',#385,.T.);
#244=PLANE('',#386);
#245=CURVE_STYLE('',#387,POSITIVE_LENGTH_MEASURE(1000.0),#388);
#246=VERTEX_POINT('',#389);
#247=CIRCLE('',#390,14.9999999999999);
#248=PRODUCT_CONTEXT('',#38,'mechanical');
#249=PRODUCT_DEFINITION_FORMATION_WITH_SPECIFIED_SOURCE(' ','NONE',#122,.NOT_KNOWN.);
#250=CARTESIAN_POINT('',(0.0,0.0,0.0));
#251=DIRECTION('',(0.0,0.0,1.0));
#252=DIRECTION('',(1.0,0.0,0.0));
#253= (NAMED_UNIT(#130)LENGTH_UNIT()SI_UNIT(.MILLI.,.METRE.));
#254=SURFACE_SIDE_STYLE('',(#392));
#255=DRAUGHTING_PRE_DEFINED_CURVE_FONT('continuous');
#256=COLOUR_RGB('',0.0,1.0,1.0);
#257=EDGE_LOOP('',(#393));
#258=EDGE_LOOP('',(#394));
#259=AXIS2_PLACEMENT_3D('',#395,#396,#397);
#260=SURFACE_SIDE_STYLE('',(#398));
#261=DRAUGHTING_PRE_DEFINED_CURVE_FONT('continuous');
#262=COLOUR_RGB('',0.0,1.0,1.0);
#263=EDGE_LOOP('',(#399));
#264=EDGE_LOOP('',(#400));
#265=AXIS2_PLACEMENT_3D('',#401,#402,#403);
#266=SURFACE_SIDE_STYLE('',(#404));
#267=DRAUGHTING_PRE_DEFINED_CURVE_FONT('continuous');
#268=COLOUR_RGB('',0.0,1.0,1.0);
#269=EDGE_LOOP('',(#405));
#270=EDGE_LOOP('',(#406));
#271=AXIS2_PLACEMENT_3D('',#407,#408,#409);
#272=DRAUGHTING_PRE_DEFINED_CURVE_FONT('continuous');
#273=COLOUR_RGB('',0.0,1.0,1.0);
#274=CARTESIAN_POINT('',(-1.12667505521556E-014,15.0,183.999999999998));
#275=AXIS2_PLACEMENT_3D('',#410,#411,#412);
#276=SURFACE_SIDE_STYLE('',(#413));
#277=DRAUGHTING_PRE_DEFINED_CURVE_FONT('continuous');
#278=COLOUR_RGB('',0.0,1.0,1.0);
#279=EDGE_LOOP('',(#414));
#280=EDGE_LOOP('',(#415));
#281=AXIS2_PLACEMENT_3D('',#416,#417,#418);
#282=SURFACE_SIDE_STYLE('',(#419));
#283=DRAUGHTING_PRE_DEFINED_CURVE_FONT('continuous');
#284=COLOUR_RGB('',0.0,1.0,1.0);
#285=EDGE_LOOP('',(#420));
#286=EDGE_LOOP('',(#421));
#287=AXIS2_PLACEMENT_3D('',#422,#423,#424);
#288=DRAUGHTING_PRE_DEFINED_CURVE_FONT('continuous');
#289=COLOUR_RGB('',0.0,1.0,1.0);
#290=CARTESIAN_POINT('',(-7.41684440909083E-015,19.5000000000009,121.126261290271));
#291=AXIS2_PLACEMENT_3D('',#425,#426,#427);
#292=SURFACE_SIDE_STYLE('',(#428));
#293=DRAUGHTING_PRE_DEFINED_CURVE_FONT('continuous');
#294=COLOUR_RGB('',0.0,1.0,1.0);
#295=EDGE_LOOP('',(#429));
#296=EDGE_LOOP('',(#430));
#297=AXIS2_PLACEMENT_3D('',#431,#432,#433);
#298=DRAUGHTING_PRE_DEFINED_CURVE_FONT('continuous');
#299=COLOUR_RGB('',0.0,1.0,1.0);
#300=CARTESIAN_POINT('',(-6.96788689290818E-015,15.0000000000668,113.794228634076));
#301=AXIS2_PLACEMENT_3D('',#434,#435,#436);
#302=DRAUGHTING_PRE_DEFINED_CURVE_FONT('continuous');
#303=COLOUR_RGB('',0.0,1.0,1.0);
#304=CARTESIAN_POINT('',(-1.3471114790627E-015,15.150000000001,22.00000000001));
#305=AXIS2_PLACEMENT_3D('',#437,#438,#439);
#306=DRAUGHTING_PRE_DEFINED_CURVE_FONT('continuous');
#307=COLOUR_RGB('',0.0,1.0,1.0);
#308=CARTESIAN_POINT('',(-5.97117315760784E-028,15.000000000001,9.75048330482729E-012));
#309=AXIS2_PLACEMENT_3D('',#440,#441,#442);
#310=SURFACE_SIDE_STYLE('',(#443));
#311=DRAUGHTING_PRE_DEFINED_CURVE_FONT('continuous');
#312=COLOUR_RGB('',0.0,1.0,1.0);
#313=SURFACE_SIDE_STYLE('',(#444));
#314=DRAUGHTING_PRE_DEFINED_CURVE_FONT('continuous');
#315=COLOUR_RGB('',0.0,1.0,1.0);
#316=EDGE_LOOP('',(#445));
#317=EDGE_LOOP('',(#446));
#318=AXIS2_PLACEMENT_3D('',#447,#448,#449);
#319=SURFACE_SIDE_STYLE('',(#450));
#320=DRAUGHTING_PRE_DEFINED_CURVE_FONT('continuous');
#321=COLOUR_RGB('',0.0,1.0,1.0);
#322=EDGE_LOOP('',(#451));
#323=EDGE_LOOP('',(#452));
#324=AXIS2_PLACEMENT_3D('',#453,#454,#455);
#325=DRAUGHTING_PRE_DEFINED_CURVE_FONT('continuous');
#326=COLOUR_RGB('',0.0,1.0,1.0);
#327=CARTESIAN_POINT('',(-1.46957615897702E-015,11.699999999933,24.0000000000032));
#328=AXIS2_PLACEMENT_3D('',#456,#457,#458);
#329=SURFACE_SIDE_STYLE('',(#459));
#330=DRAUGHTING_PRE_DEFINED_CURVE_FONT('continuous');
#331=COLOUR_RGB('',0.0,1.0,1.0);
#332=EDGE_LOOP('',(#460));
#333=EDGE_LOOP('',(#461));
#334=AXIS2_PLACEMENT_3D('',#462,#463,#464);
#335=SURFACE_SIDE_STYLE('',(#465));
#336=DRAUGHTING_PRE_DEFINED_CURVE_FONT('continuous');
#337=COLOUR_RGB('',0.0,1.0,1.0);
#338=EDGE_LOOP('',(#466));
#339=EDGE_LOOP('',(#467));
#340=AXIS2_PLACEMENT_3D('',#468,#469,#470);
#341=DRAUGHTING_PRE_DEFINED_CURVE_FONT('continuous');
#342=COLOUR_RGB('',0.0,1.0,1.0);
#343=CARTESIAN_POINT('',(-1.46957615897736E-015,15.150000000001,24.0000000000088));
#344=AXIS2_PLACEMENT_3D('',#471,#472,#473);
#345=SURFACE_SIDE_STYLE('',(#474));
#346=DRAUGHTING_PRE_DEFINED_CURVE_FONT('continuous');
#347=COLOUR_RGB('',0.0,1.0,1.0);
#348=EDGE_LOOP('',(#475));
#349=AXIS2_PLACEMENT_3D('',#476,#477,#478);
#350=SURFACE_SIDE_STYLE('',(#479));
#351=DRAUGHTING_PRE_DEFINED_CURVE_FONT('continuous');
#352=COLOUR_RGB('',0.0,1.0,1.0);
#353=EDGE_LOOP('',(#480));
#354=AXIS2_PLACEMENT_3D('',#481,#482,#483);
#355=SURFACE_SIDE_STYLE('',(#484));
#356=DRAUGHTING_PRE_DEFINED_CURVE_FONT('continuous');
#357=COLOUR_RGB('',0.0,1.0,1.0);
#358=EDGE_LOOP('',(#485));
#359=EDGE_LOOP('',(#486));
#360=AXIS2_PLACEMENT_3D('',#487,#488,#489);
#361=DRAUGHTING_PRE_DEFINED_CURVE_FONT('continuous');
#362=COLOUR_RGB('',0.0,1.0,1.0);
#363=CARTESIAN_POINT('',(-7.04171909509718E-015,19.5000000000009,114.999999999998));
#364=AXIS2_PLACEMENT_3D('',#490,#491,#492);
#365=DRAUGHTING_PRE_DEFINED_CURVE_FONT('continuous');
#366=COLOUR_RGB('',0.0,1.0,1.0);
#367=CARTESIAN_POINT('',(-1.5308084989347E-015,11.699999999933,25.0000000000082));
#368=AXIS2_PLACEMENT_3D('',#493,#494,#495);
#369=DRAUGHTING_PRE_DEFINED_CURVE_FONT('continuous');
#370=COLOUR_RGB('',0.0,1.0,1.0);
#371=CARTESIAN_POINT('',(-7.50096164477742E-015,19.0000000000009,122.499999999998));
#372=AXIS2_PLACEMENT_3D('',#496,#497,#498);
#373=DRAUGHTING_PRE_DEFINED_CURVE_FONT('continuous');
#374=COLOUR_RGB('',0.0,1.0,1.0);
#375=CARTESIAN_POINT('',(-1.53080849893454E-015,15.0000000000668,25.0000000000058));
#376=AXIS2_PLACEMENT_3D('',#499,#500,#501);
#377=DRAUGHTING_PRE_DEFINED_CURVE_FONT('continuous');
#378=COLOUR_RGB('',0.0,1.0,1.0);
#379=CARTESIAN_POINT('',(-7.86835568452165E-015,15.0,122.499999999998));
#380=AXIS2_PLACEMENT_3D('',#502,#503,#504);
#381=SURFACE_SIDE_STYLE('',(#505));
#382=DRAUGHTING_PRE_DEFINED_CURVE_FONT('continuous');
#383=COLOUR_RGB('',0.0,1.0,1.0);
#384=EDGE_LOOP('',(#506));
#385=EDGE_LOOP('',(#507));
#386=AXIS2_PLACEMENT_3D('',#508,#509,#510);
#387=DRAUGHTING_PRE_DEFINED_CURVE_FONT('continuous');
#388=COLOUR_RGB('',0.0,1.0,1.0);
#389=CARTESIAN_POINT('',(-1.3471114790627E-015,14.9999999999999,22.00000000001));
#390=AXIS2_PLACEMENT_3D('',#511,#512,#513);
#392=SURFACE_STYLE_FILL_AREA(#514);
#393=ORIENTED_EDGE('',*,*,#114,.F.);
#394=ORIENTED_EDGE('',*,*,#74,.T.);
#395=CARTESIAN_POINT('',(-4.24934769592136E-015,-8.49869539184272E-015,69.397114317041));
#396=DIRECTION('',(-6.12323399573677E-017,-1.22464679914735E-016,1.0));
#397=DIRECTION('',(-1.23259516440783E-032,1.0,1.22464679914735E-016));
#398=SURFACE_STYLE_FILL_AREA(#515);
#399=ORIENTED_EDGE('',*,*,#89,.F.);
#400=ORIENTED_EDGE('',*,*,#110,.T.);
#401=CARTESIAN_POINT('',(-1.50019232895586E-015,-3.00038465791171E-015,24.5000000000057));
#402=DIRECTION('',(-6.12323399573676E-017,-1.22464679914735E-016,1.0));
#403=DIRECTION('',(-1.23259516440783E-032,1.0,1.22464679914735E-016));
#404=SURFACE_STYLE_FILL_AREA(#516);
#405=ORIENTED_EDGE('',*,*,#78,.F.);
#406=ORIENTED_EDGE('',*,*,#121,.T.);
#407=CARTESIAN_POINT('',(-6.73555739531648E-016,-1.3471114790633E-015,11.0000000000099));
#408=DIRECTION('',(-6.12323399573677E-017,-1.22464679914735E-016,1.0));
#409=DIRECTION('',(-1.23259516440783E-032,1.0,1.22464679914735E-016));
#410=CARTESIAN_POINT('',(-1.12667505521556E-014,-2.25335011043111E-014,183.999999999998));
#411=DIRECTION('',(6.12323399573677E-017,1.22464679914735E-016,-1.0));
#412=DIRECTION('',(-1.23259516440783E-032,1.0,1.22464679914735E-016));
#413=SURFACE_STYLE_FILL_AREA(#517);
#414=ORIENTED_EDGE('',*,*,#116,.F.);
#415=ORIENTED_EDGE('',*,*,#61,.T.);
#416=CARTESIAN_POINT('',(-9.5675531183386E-015,-1.91351062366772E-014,156.249999999998));
#417=DIRECTION('',(-6.12323399573677E-017,-1.22464679914735E-016,1.0));
#418=DIRECTION('',(-1.23259516440783E-032,1.0,1.22464679914735E-016));
#419=SURFACE_STYLE_FILL_AREA(#518);
#420=ORIENTED_EDGE('',*,*,#108,.F.);
#421=ORIENTED_EDGE('',*,*,#69,.T.);
#422=CARTESIAN_POINT('',(-7.229281752094E-015,-1.4458563504188E-014,118.063130645135));
#423=DIRECTION('',(-6.12323399573677E-017,-1.22464679914735E-016,1.0));
#424=DIRECTION('',(-1.23259516440783E-032,1.0,1.22464679914735E-016));
#425=CARTESIAN_POINT('',(-7.41684440909083E-015,-1.48336888181817E-014,121.126261290271));
#426=DIRECTION('',(6.12323399573677E-017,1.22464679914735E-016,-1.0));
#427=DIRECTION('',(-1.23259516440783E-032,1.0,1.22464679914735E-016));
#428=SURFACE_STYLE_FILL_AREA(#519);
#429=ORIENTED_EDGE('',*,*,#76,.T.);
#430=ORIENTED_EDGE('',*,*,#121,.F.);
#431=CARTESIAN_POINT('',(-1.3471114790627E-015,15.0750000000005,22.00000000001));
#432=DIRECTION('',(6.12323399573677E-017,1.22464679914735E-016,-1.0));
#433=DIRECTION('',(-1.0,0.0,-6.12323399573677E-017));
#434=CARTESIAN_POINT('',(-6.96788689290818E-015,-1.39357737858164E-014,113.794228634076));
#435=DIRECTION('',(6.12323399573677E-017,1.22464679914735E-016,-1.0));
#436=DIRECTION('',(-1.23259516440783E-032,1.0,1.22464679914735E-016));
#437=CARTESIAN_POINT('',(-1.3471114790627E-015,-2.6942229581254E-015,22.00000000001));
#438=DIRECTION('',(6.12323399573677E-017,1.22464679914735E-016,-1.0));
#439=DIRECTION('',(-1.23259516440783E-032,1.0,1.22464679914735E-016));
#440=CARTESIAN_POINT('',(-5.96932426486123E-028,-1.19386485297225E-027,9.74864633462857E-012));
#441=DIRECTION('',(6.12323399573676E-017,1.22464679914735E-016,-1.0));
#442=DIRECTION('',(-1.23259516440783E-032,1.0,1.22464679914735E-016));
#443=SURFACE_STYLE_FILL_AREA(#520);
#444=SURFACE_STYLE_FILL_AREA(#521);
#445=ORIENTED_EDGE('',*,*,#69,.F.);
#446=ORIENTED_EDGE('',*,*,#112,.T.);
#447=CARTESIAN_POINT('',(-7.45890302693413E-015,-1.49178060538682E-014,121.813130645135));
#448=DIRECTION('',(6.12323399573677E-017,1.22464679914735E-016,-1.0));
#449=DIRECTION('',(-1.23259516440783E-032,1.0,1.22464679914735E-016));
#450=SURFACE_STYLE_FILL_AREA(#522);
#451=ORIENTED_EDGE('',*,*,#97,.F.);
#452=ORIENTED_EDGE('',*,*,#89,.T.);
#453=CARTESIAN_POINT('',(-1.46957615897719E-015,13.424999999967,24.000000000006));
#454=DIRECTION('',(-1.60280689334125E-040,-1.61789440360326E-012,1.0));
#455=DIRECTION('',(1.0,-9.90674601365575E-029,0.0));
#456=CARTESIAN_POINT('',(-1.46957615897702E-015,-2.93915231795404E-015,24.0000000000032));
#457=DIRECTION('',(6.12323399573676E-017,1.22464679914735E-016,-1.0));
#458=DIRECTION('',(-1.23259516440783E-032,1.0,1.22464679914735E-016));
#459=SURFACE_STYLE_FILL_AREA(#523);
#460=ORIENTED_EDGE('',*,*,#112,.F.);
#461=ORIENTED_EDGE('',*,*,#116,.T.);
#462=CARTESIAN_POINT('',(-14.7627727571536,2.65716776298423,122.499999999998));
#463=DIRECTION('',(0.0,0.0,1.0));
#464=DIRECTION('',(1.0,-0.0,0.0));
#465=SURFACE_STYLE_FILL_AREA(#524);
#466=ORIENTED_EDGE('',*,*,#74,.F.);
#467=ORIENTED_EDGE('',*,*,#108,.T.);
#468=CARTESIAN_POINT('',(-7.00480299400268E-015,-1.40096059880054E-014,114.397114317037));
#469=DIRECTION('',(-6.12323399573676E-017,-1.22464679914735E-016,1.0));
#470=DIRECTION('',(-1.23259516440783E-032,1.0,1.22464679914735E-016));
#471=CARTESIAN_POINT('',(-1.46957615897736E-015,-2.93915231795472E-015,24.0000000000088));
#472=DIRECTION('',(6.12323399573677E-017,1.22464679914735E-016,-1.0));
#473=DIRECTION('',(-1.23259516440783E-032,1.0,1.22464679914735E-016));
#474=SURFACE_STYLE_FILL_AREA(#525);
#475=ORIENTED_EDGE('',*,*,#78,.T.);
#476=CARTESIAN_POINT('',(-5.97024871123454E-028,7.50000000000048,9.74956481972794E-012));
#477=DIRECTION('',(6.12323399573677E-017,1.22464679914735E-016,-1.0));
#478=DIRECTION('',(-1.0,0.0,-6.12323399573677E-017));
#479=SURFACE_STYLE_FILL_AREA(#526);
#480=ORIENTED_EDGE('',*,*,#61,.F.);
#481=CARTESIAN_POINT('',(-1.12667505521556E-014,7.49999999999998,183.999999999998));
#482=DIRECTION('',(-9.18338008663382E-049,-1.22464679914735E-016,1.0));
#483=DIRECTION('',(1.0,-7.49879891330927E-033,0.0));
#484=SURFACE_STYLE_FILL_AREA(#527);
#485=ORIENTED_EDGE('',*,*,#76,.F.);
#486=ORIENTED_EDGE('',*,*,#97,.T.);
#487=CARTESIAN_POINT('',(-1.40834381902003E-015,-2.81668763804006E-015,23.0000000000094));
#488=DIRECTION('',(-6.12323399573677E-017,-1.22464679914735E-016,1.0));
#489=DIRECTION('',(-1.23259516440783E-032,1.0,1.22464679914735E-016));
#490=CARTESIAN_POINT('',(-7.04171909509718E-015,-1.40834381901944E-014,114.999999999998));
#491=DIRECTION('',(6.12323399573677E-017,1.22464679914735E-016,-1.0));
#492=DIRECTION('',(-1.23259516440783E-032,1.0,1.22464679914735E-016));
#493=CARTESIAN_POINT('',(-1.5308084989347E-015,-3.06161699786939E-015,25.0000000000082));
#494=DIRECTION('',(6.12323399573676E-017,1.22464679914735E-016,-1.0));
#495=DIRECTION('',(-1.23259516440783E-032,1.0,1.22464679914735E-016));
#496=CARTESIAN_POINT('',(-7.50096164477742E-015,-1.50019232895548E-014,122.499999999998));
#497=DIRECTION('',(6.12323399573676E-017,1.22464679914735E-016,-1.0));
#498=DIRECTION('',(-1.23259516440783E-032,1.0,1.22464679914735E-016));
#499=CARTESIAN_POINT('',(-1.53080849893454E-015,-3.06161699786909E-015,25.0000000000058));
#500=DIRECTION('',(6.12323399573677E-017,1.22464679914735E-016,-1.0));
#501=DIRECTION('',(-1.23259516440783E-032,1.0,1.22464679914735E-016));
#502=CARTESIAN_POINT('',(-7.86835568452165E-015,-1.57367113690433E-014,122.499999999998));
#503=DIRECTION('',(6.12323399573677E-017,1.22464679914735E-016,-1.0));
#504=DIRECTION('',(-1.23259516440783E-032,1.0,1.22464679914735E-016));
#505=SURFACE_STYLE_FILL_AREA(#528);
#506=ORIENTED_EDGE('',*,*,#114,.T.);
#507=ORIENTED_EDGE('',*,*,#110,.F.);
#508=CARTESIAN_POINT('',(-1.53080849893462E-015,13.3499999999999,25.000000000007));
#509=DIRECTION('',(6.12323399573677E-017,-7.49177147545792E-013,-1.0));
#510=DIRECTION('',(0.0,-1.0,7.49177147545792E-013));
#511=CARTESIAN_POINT('',(-1.3471114790627E-015,-2.6942229581254E-015,22.00000000001));
#512=DIRECTION('',(6.12323399573677E-017,1.22464679914735E-016,-1.0));
#513=DIRECTION('',(-1.23259516440783E-032,1.0,1.22464679914735E-016));
#514=FILL_AREA_STYLE('',(#529));
#515=FILL_AREA_STYLE('',(#530));
#516=FILL_AREA_STYLE('',(#531));
#517=FILL_AREA_STYLE('',(#532));
#518=FILL_AREA_STYLE('',(#533));
#519=FILL_AREA_STYLE('',(#534));
#520=FILL_AREA_STYLE('',(#535));
#521=FILL_AREA_STYLE('',(#536));
#522=FILL_AREA_STYLE('',(#537));
#523=FILL_AREA_STYLE('',(#538));
#524=FILL_AREA_STYLE('',(#539));
#525=FILL_AREA_STYLE('',(#540));
#526=FILL_AREA_STYLE('',(#541));
#527=FILL_AREA_STYLE('',(#542));
#528=FILL_AREA_STYLE('',(#543));
#529=FILL_AREA_STYLE_COLOUR('',#544);
#530=FILL_AREA_STYLE_COLOUR('',#545);
#531=FILL_AREA_STYLE_COLOUR('',#546);
#532=FILL_AREA_STYLE_COLOUR('',#547);
#533=FILL_AREA_STYLE_COLOUR('',#548);
#534=FILL_AREA_STYLE_COLOUR('',#549);
#535=FILL_AREA_STYLE_COLOUR('',#550);
#536=FILL_AREA_STYLE_COLOUR('',#551);
#537=FILL_AREA_STYLE_COLOUR('',#552);
#538=FILL_AREA_STYLE_COLOUR('',#553);
#539=FILL_AREA_STYLE_COLOUR('',#554);
#540=FILL_AREA_STYLE_COLOUR('',#555);
#541=FILL_AREA_STYLE_COLOUR('',#556);
#542=FILL_AREA_STYLE_COLOUR('',#557);
#543=FILL_AREA_STYLE_COLOUR('',#558);
#544=COLOUR_RGB('',0.0,1.0,1.0);
#545=COLOUR_RGB('',0.0,1.0,1.0);
#546=COLOUR_RGB('',0.0,1.0,1.0);
#547=COLOUR_RGB('',0.0,1.0,1.0);
#548=COLOUR_RGB('',0.0,1.0,1.0);
#549=COLOUR_RGB('',0.0,1.0,1.0);
#550=COLOUR_RGB('',0.0,1.0,1.0);
#551=COLOUR_RGB('',0.0,1.0,1.0);
#552=COLOUR_RGB('',0.0,1.0,1.0);
#553=COLOUR_RGB('',0.0,1.0,1.0);
#554=COLOUR_RGB('',0.0,1.0,1.0);
#555=COLOUR_RGB('',0.0,1.0,1.0);
#556=COLOUR_RGB('',0.0,1.0,1.0);
#557=COLOUR_RGB('',0.0,1.0,1.0);
#558=COLOUR_RGB('',0.0,1.0,1.0);
ENDSEC;
END-ISO-10303-21;
