  0
SECTION
  2
HEADER
  9
$ACADVER
  1
AC1009
  9
$INSBASE
 10
0.0
 20
0.0
 30
0.0
  9
$EXTMIN
 10
-70.0
 20
-19.5
 30
0.0
  9
$EXTMAX
 10
171.30000000000001
 20
54.95238095238097
 30
0.0
  9
$LIMMIN
 10
0.0
 20
0.0
  9
$LIMMAX
 10
297.0
 20
210.0
  9
$ORTHOMODE
 70
     1
  9
$REGENMODE
 70
     1
  9
$FILLMODE
 70
     1
  9
$QTEXTMODE
 70
     0
  9
$MIRRTEXT
 70
     1
  9
$DRAGMODE
 70
     2
  9
$LTSCALE
 40
10.0
  9
$OSMODE
 70
    37
  9
$ATTMODE
 70
     1
  9
$TEXTSIZE
 40
3.0
  9
$TRACEWID
 40
1.0
  9
$TEXTSTYLE
  7
YOKO
  9
$CLAYER
  8
240
  9
$CELTYPE
  6
BYLAYER
  9
$CECOLOR
 62
   256
  9
$DIMSCALE
 40
1.0
  9
$DIMASZ
 40
2.2299999999999991
  9
$DIMEXO
 40
0.5
  9
$DIMDLI
 40
7.0
  9
$DIMRND
 40
0.0
  9
$DIMDLE
 40
0.0
  9
$DIMEXE
 40
1.0
  9
$DIMTP
 40
0.0
  9
$DIMTM
 40
0.01
  9
$DIMTXT
 40
2.7999999999999989
  9
$DIMCEN
 40
0.0
  9
$DIMTSZ
 40
0.0
  9
$DIMTOL
 70
     0
  9
$DIMLIM
 70
     0
  9
$DIMTIH
 70
     0
  9
$DIMTOH
 70
     0
  9
$DIMSE1
 70
     0
  9
$DIMSE2
 70
     0
  9
$DIMTAD
 70
     3
  9
$DIMZIN
 70
     9
  9
$DIMBLK
  1
OPEN
  9
$DIMASO
 70
     1
  9
$DIMSHO
 70
     1
  9
$DIMPOST
  1

  9
$DIMAPOST
  1

  9
$DIMALT
 70
     0
  9
$DIMALTD
 70
     2
  9
$DIMALTF
 40
25.399999999999999
  9
$DIMLFAC
 40
1.0
  9
$DIMTOFL
 70
     1
  9
$DIMTVP
 40
0.0
  9
$DIMTIX
 70
     1
  9
$DIMSOXD
 70
     0
  9
$DIMSAH
 70
     0
  9
$DIMBLK1
  1

  9
$DIMBLK2
  1

  9
$DIMSTYLE
  2
BIGT
  9
$DIMCLRD
 70
   256
  9
$DIMCLRE
 70
   256
  9
$DIMCLRT
 70
    40
  9
$DIMTFAC
 40
1.0
  9
$DIMGAP
 40
1.0
  9
$LUNITS
 70
     2
  9
$LUPREC
 70
     6
  9
$SKETCHINC
 40
1.0
  9
$FILLETRAD
 40
0.0
  9
$AUNITS
 70
     0
  9
$AUPREC
 70
     6
  9
$MENU
  1
.
  9
$ELEVATION
 40
0.0
  9
$PELEVATION
 40
0.0
  9
$THICKNESS
 40
0.0
  9
$LIMCHECK
 70
     0
  9
$BLIPMODE
 70
     0
  9
$CHAMFERA
 40
0.2
  9
$CHAMFERB
 40
0.2
  9
$SKPOLY
 70
     0
  9
$TDCREATE
 40
2458145.4024081128
  9
$TDUPDATE
 40
2458145.6649100352
  9
$TDINDWG
 40
0.0224414815
  9
$TDUSRTIMER
 40
0.0224414583
  9
$USRTIMER
 70
     1
  9
$ANGBASE
 50
0.0
  9
$ANGDIR
 70
     0
  9
$PDMODE
 70
     1
  9
$PDSIZE
 40
0.0
  9
$PLINEWID
 40
0.0
  9
$COORDS
 70
     1
  9
$SPLFRAME
 70
     0
  9
$SPLINETYPE
 70
     6
  9
$SPLINESEGS
 70
     4
  9
$ATTDIA
 70
     1
  9
$ATTREQ
 70
     1
  9
$HANDLING
 70
     1
  9
$HANDSEED
  5
468E
  9
$SURFTAB1
 70
     6
  9
$SURFTAB2
 70
     6
  9
$SURFTYPE
 70
     6
  9
$SURFU
 70
     6
  9
$SURFV
 70
     6
  9
$UCSNAME
  2

  9
$UCSORG
 10
0.0
 20
0.0
 30
0.0
  9
$UCSXDIR
 10
1.0
 20
0.0
 30
0.0
  9
$UCSYDIR
 10
0.0
 20
1.0
 30
0.0
  9
$PUCSNAME
  2

  9
$PUCSORG
 10
0.0
 20
0.0
 30
0.0
  9
$PUCSXDIR
 10
1.0
 20
0.0
 30
0.0
  9
$PUCSYDIR
 10
0.0
 20
1.0
 30
0.0
  9
$USERI1
 70
     1
  9
$USERI2
 70
     0
  9
$USERI3
 70
     0
  9
$USERI4
 70
     0
  9
$USERI5
 70
     0
  9
$USERR1
 40
0.0
  9
$USERR2
 40
0.0
  9
$USERR3
 40
0.0
  9
$USERR4
 40
0.0
  9
$USERR5
 40
0.0
  9
$WORLDVIEW
 70
     1
  9
$SHADEDGE
 70
     3
  9
$SHADEDIF
 70
    70
  9
$TILEMODE
 70
     1
  9
$MAXACTVP
 70
    16
  9
$PLIMCHECK
 70
     0
  9
$PEXTMIN
 10
1.0000000000000000E+020
 20
1.0000000000000000E+020
 30
1.0000000000000000E+020
  9
$PEXTMAX
 10
-1.0000000000000000E+020
 20
-1.0000000000000000E+020
 30
-1.0000000000000000E+020
  9
$PLIMMIN
 10
0.0
 20
0.0
  9
$PLIMMAX
 10
420.0
 20
297.0
  9
$UNITMODE
 70
     0
  9
$VISRETAIN
 70
     1
  9
$PLINEGEN
 70
     0
  9
$PSLTSCALE
 70
     1
  0
ENDSEC
  0
SECTION
  2
TABLES
  0
TABLE
  2
VPORT
 70
     1
  0
VPORT
  2
*ACTIVE
 70
     0
 10
0.0
 20
0.0
 11
1.0
 21
1.0
 12
47.194043715809038
 22
21.973732243829911
 13
0.0
 23
0.0
 14
7.0
 24
7.0
 15
7.0
 25
7.0
 16
0.0
 26
0.0
 36
1.0
 17
0.0
 27
0.0
 37
0.0
 40
186.0202529689399
 41
1.4925690021231419
 42
50.0
 43
0.0
 44
0.0
 50
0.0
 51
0.0
 71
     0
 72
  2000
 73
     1
 74
     0
 75
     0
 76
     1
 77
     0
 78
     0
  0
ENDTAB
  0
TABLE
  2
LTYPE
 70
    18
  0
LTYPE
  2
CONTINUOUS
 70
     0
  3
Solid line
 72
    65
 73
     0
 40
0.0
  0
LTYPE
  2
CENTER2
 70
     0
  3
___ _ ___ _ ___ _ ___ _ ___ _ ___ _ ___ _ ___ _
 72
    65
 73
     4
 40
1.125
 49
0.75
 49
-0.125
 49
0.125
 49
-0.125
  0
LTYPE
  2
HIDDEN2
 70
     0
  3
_ _ _ _ _ _ _ _ _ _ _ _ _ _ _ _ _ _ _ _ _ _ _ _
 72
    65
 73
     2
 40
0.1875
 49
0.125
 49
-0.0625
  0
LTYPE
  2
AM_ISO02W050
 70
     0
  3
__ __ __ __ __ __ __ __ __ __ __ __ __ __ __
 72
    65
 73
     2
 40
7.5
 49
6.0
 49
-1.5
  0
LTYPE
  2
AMCONSTR
 70
     0
  3
_______________________
 72
    65
 73
     2
 40
9999.0
 49
9999.0
 49
0.0
  0
LTYPE
  2
ACISOWELD
 70
     0
  3
_ _ _ _ _
 72
    65
 73
     2
 40
2.0
 49
2.0
 49
-1.0
  0
LTYPE
  2
ACISOTGB
 70
     0
  3
__ . . __ . .
 72
    65
 73
     6
 40
9.0
 49
4.0
 49
-1.0
 49
1.0
 49
-1.0
 49
1.0
 49
-1.0
  0
LTYPE
  2
ACISOTGL
 70
     0
  3
_ _ _ _ _
 72
    65
 73
     2
 40
3.0
 49
2.0
 49
-1.0
  0
LTYPE
  2
AM_ISO08W050
 70
     0
  3
____ . ____ . ____ . ____ . ____ . ____ . ____
 72
    65
 73
     4
 40
18.0
 49
12.0
 49
-1.5
 49
3.0
 49
-1.5
  0
LTYPE
  2
AM_ISO09W050
 70
     0
  3
_____ . . _____ . . _____ . . ____ .. ____
 72
    65
 73
     6
 40
22.5
 49
12.0
 49
-1.5
 49
3.0
 49
-1.5
 49
3.0
 49
-1.5
  0
LTYPE
  2
AM_ISO08W050X2
 70
     0
  3
__ . __ . __ . __ . __ . __
 72
    65
 73
     4
 40
9.0
 49
6.0
 49
-0.75
 49
1.5
 49
-0.75
  0
LTYPE
  2
AM_ISO02W050X2
 70
     0
  3
 _ _ _ _ _ _ _ _ _ _ _ _
 72
    65
 73
     2
 40
3.75
 49
3.0
 49
-0.75
  0
LTYPE
  2
AMZIGZAG
 70
     0
  3
/\/-/\/-/\/-/\/-/\/-/\/
 72
    65
 73
     2
 40
11.0001
 49
0.0001
 49
-11.0
  0
ENDTAB
  0
TABLE
  2
LAYER
 70
     9
  0
LAYER
  2
0
 70
     0
 62
     7
  6
CONTINUOUS
  0
LAYER
  2
DEFPOINTS
 70
     0
 62
     7
  6
CONTINUOUS
  0
LAYER
  2
245
 70
     0
 62
     2
  6
CENTER2
  0
LAYER
  2
240
 70
     0
 62
     4
  6
CONTINUOUS
  0
LAYER
  2
241
 70
     0
 62
   211
  6
CONTINUOUS
  0
LAYER
  2
243
 70
     0
 62
   211
  6
HIDDEN2
  0
LAYER
  2
244
 70
     0
 62
     3
  6
HIDDEN2
  0
LAYER
  2
247
 70
     0
 62
    60
  6
CONTINUOUS
  0
LAYER
  2
250
 70
     0
 62
     3
  6
CONTINUOUS
  0
ENDTAB
  0
TABLE
  2
STYLE
 70
     7
  0
STYLE
  2
STANDARD
 70
     0
 40
0.0
 41
1.0
 50
0.0
 71
     0
 42
3.0
  3
romans.shx
  4
extfont.shx
  0
STYLE
  2
ACISOGDT
 70
     0
 40
0.0
 41
1.0
 50
0.0
 71
     0
 42
3.0
  3
amgdt.shx
  4
extfont.shx
  0
STYLE
  2
YOKO
 70
     0
 40
0.0
 41
1.0
 50
0.0
 71
     0
 42
3.0
  3
romans.shx
  4
extfont.shx
  0
STYLE
  2

 70
     1
 40
0.0
 41
1.0
 50
0.0
 71
     0
 42
3.0
  3
genltshp.shx
  4

  0
ENDTAB
  0
TABLE
  2
VIEW
 70
     0
  0
ENDTAB
  0
TABLE
  2
UCS
 70
     0
  0
ENDTAB
  0
TABLE
  2
APPID
 70
    38
  0
APPID
  2
ACAD
 70
     0
  0
APPID
  2
GLOBAL
 70
     0
  0
APPID
  2
DETAIL
 70
     0
  0
APPID
  2
GRPNAME
 70
     0
  0
APPID
  2
GPARA
 70
     0
  0
APPID
  2
MCAD_NO_VIS
 70
     0
  0
APPID
  2
ACAD_TEMP_GRAPHIC
 70
     0
  0
APPID
  2
ACATTRIBSERVICES
 70
     0
  0
APPID
  2
GENIUS_GENSCREG_15
 70
     0
  0
APPID
  2
GENIUS_GENODEF_13
 70
     0
  0
APPID
  2
GENIUS_GENOBJ-N-SDF_13
 70
     0
  0
APPID
  2
GENIUS_GENREC_14
 70
     0
  0
APPID
  2
GENIUS_GENOBJ-N-REC_13
 70
     0
  0
APPID
  2
GENIUS_GENDIMSH_14
 70
     0
  0
APPID
  2
GENIUS_GENOBJ-N-DIM_13
 70
     0
  0
APPID
  2
GENIUS_GENDIM_13
 70
     0
  0
APPID
  2
GENIUS_GENDTOL_13
 70
     0
  0
APPID
  2
GENIUS_GENOLIS_13
 70
     0
  0
APPID
  2
GENIUS_GENOENT_13
 70
     0
  0
APPID
  2
GENIUS_GENOBJ-F-FEM_13
 70
     0
  0
APPID
  2
GENIUS_GENOREF_13
 70
     0
  0
APPID
  2
GENIUS_GEFFEM_13
 70
     0
  0
APPID
  2
GENIUS_GEFFEMP_13
 70
     0
  0
APPID
  2
AD_DRAW
 70
     0
  0
APPID
  2
DESIGNERASSEMBLIES
 70
     0
  0
APPID
  2
ACADM_DIM_EDIT
 70
     0
  0
APPID
  2
AMDT_DM_ADJ
 70
     0
  0
APPID
  2
ITEMNAME
 70
     0
  0
APPID
  2
GENIUS_GENOBJ-N-FIL_13
 70
     0
  0
APPID
  2
GENIUS_GENFIL_13
 70
     0
  0
APPID
  2
GENIUS_GENOBJ-N-CHA_13
 70
     0
  0
APPID
  2
ACAECLAYERSTANDARD
 70
     0
  0
APPID
  2
ACAD_NAV_VCDISPLAY
 70
     0
  0
APPID
  2
ACAD_EXEMPT_FROM_CAD_STANDARDS
 70
     0
  0
APPID
  2
ACAD_DSTYLE_DIMINSPECT
 70
     0
  0
APPID
  2
ACAD_MLEADERVER
 70
     0
  0
APPID
  2
ACAD_DSTYLE_DIMBREAK
 70
     0
  0
APPID
  2
ACAD_DSTYLE_DIMJAG
 70
     0
  0
ENDTAB
  0
TABLE
  2
DIMSTYLE
 70
    23
  0
DIMSTYLE
  2
BIGT
 70
     0
  3

  4

  5
OPEN
  6

  7

 40
1.0
 41
2.2299999999999991
 42
0.5
 43
7.0
 44
1.0
 45
0.0
 46
0.0
 47
0.0
 48
0.01
140
2.7999999999999989
141
0.0
142
0.0
143
25.399999999999999
144
1.0
145
0.0
146
1.0
147
1.0
 71
     0
 72
     0
 73
     0
 74
     0
 75
     0
 76
     0
 77
     3
 78
     9
170
     0
171
     2
172
     1
173
     0
174
     1
175
     0
176
   256
177
   256
178
    40
  0
DIMSTYLE
  2
AM_ISO
 70
     0
  3

  4
"
  5

  6

  7

 40
1.0
 41
2.5
 42
1.0
 43
10.0
 44
1.0
 45
0.0
 46
0.0
 47
0.1
 48
0.1
140
3.5
141
0.0
142
0.0
143
0.0393701
144
1.0
145
0.0
146
0.71
147
1.5
 71
     0
 72
     0
 73
     0
 74
     0
 75
     0
 76
     0
 77
     1
 78
     8
170
     0
171
     2
172
     1
173
     0
174
     0
175
     0
176
   256
177
   256
178
     2
  0
DIMSTYLE
  2
AM_ISO$3
 70
     0
  3

  4
"
  5

  6

  7

 40
1.0
 41
2.5
 42
1.0
 43
10.0
 44
1.0
 45
0.0
 46
0.0
 47
0.1
 48
0.1
140
3.5
141
0.0
142
0.0
143
0.0393701
144
1.0
145
0.0
146
0.71
147
1.5
 71
     0
 72
     0
 73
     0
 74
     1
 75
     0
 76
     0
 77
     1
 78
     8
170
     0
171
     2
172
     0
173
     0
174
     0
175
     0
176
   256
177
   256
178
     2
  0
DIMSTYLE
  2
AM_ISO$4
 70
     0
  3

  4
"
  5

  6

  7

 40
1.0
 41
2.5
 42
1.0
 43
10.0
 44
1.0
 45
0.0
 46
0.0
 47
0.1
 48
0.1
140
3.5
141
0.0
142
0.0
143
0.0393701
144
1.0
145
0.0
146
0.71
147
1.5
 71
     0
 72
     0
 73
     0
 74
     1
 75
     0
 76
     0
 77
     1
 78
     8
170
     0
171
     2
172
     0
173
     0
174
     0
175
     0
176
   256
177
   256
178
     2
  0
DIMSTYLE
  2
AM_ISO$6
 70
     0
  3

  4
"
  5

  6

  7

 40
1.0
 41
2.5
 42
1.0
 43
10.0
 44
1.0
 45
0.0
 46
0.0
 47
0.1
 48
0.1
140
3.5
141
0.0
142
0.0
143
0.0393701
144
1.0
145
0.0
146
0.71
147
1.5
 71
     0
 72
     0
 73
     0
 74
     0
 75
     0
 76
     0
 77
     0
 78
     8
170
     0
171
     2
172
     1
173
     0
174
     0
175
     0
176
   256
177
   256
178
     2
  0
DIMSTYLE
  2
AM_ISO$7
 70
     0
  3

  4
"
  5

  6

  7

 40
1.0
 41
2.5
 42
1.0
 43
10.0
 44
1.0
 45
0.0
 46
0.0
 47
0.1
 48
0.1
140
5.0
141
0.0
142
0.0
143
0.0393701
144
1.0
145
0.0
146
0.71
147
1.5
 71
     0
 72
     0
 73
     0
 74
     0
 75
     0
 76
     0
 77
     1
 78
     8
170
     0
171
     2
172
     1
173
     0
174
     0
175
     0
176
   256
177
   256
178
     2
  0
DIMSTYLE
  2
AM_ISO$SF
 70
     0
  3

  4
"
  5

  6

  7

 40
1.0
 41
2.5
 42
1.0
 43
10.0
 44
1.0
 45
0.0
 46
0.0
 47
0.1
 48
0.1
140
3.5
141
0.0
142
0.0
143
0.0393701
144
1.0
145
0.0
146
0.71
147
1.5
 71
     0
 72
     0
 73
     0
 74
     0
 75
     1
 76
     1
 77
     1
 78
     8
170
     0
171
     2
172
     1
173
     0
174
     0
175
     0
176
   256
177
   256
178
     2
  0
DIMSTYLE
  2
AM_ISO$SH
 70
     0
  3

  4
"
  5

  6
GENAXEH
  7

 40
1.0
 41
2.5
 42
1.0
 43
10.0
 44
1.0
 45
0.0
 46
0.0
 47
0.1
 48
0.1
140
3.5
141
0.0
142
0.0
143
0.0393701
144
2.0
145
0.0
146
0.71
147
1.5
 71
     0
 72
     0
 73
     0
 74
     0
 75
     1
 76
     1
 77
     1
 78
     8
170
     0
171
     2
172
     1
173
     1
174
     0
175
     0
176
   256
177
   256
178
     2
  0
ENDTAB
  0
ENDSEC
  0
SECTION
  2
BLOCKS
  0
BLOCK
  8
0
  2
$MODEL_SPACE
 70
     0
 10
0.0
 20
0.0
 30
0.0
  3
$MODEL_SPACE
  1

  0
ENDBLK
  5
1C
  8
0
  0
BLOCK
 67
     1
  8
0
  2
$PAPER_SPACE
 70
     0
 10
0.0
 20
0.0
 30
0.0
  3
$PAPER_SPACE
  1

  0
ENDBLK
  5
19
 67
     1
  8
0
  0
BLOCK
  8
0
  2
_OPEN
 70
     0
 10
0.0
 20
0.0
 30
0.0
  3
_OPEN
  1

  0
LINE
  5
3E1A
  8
0
  6
BYBLOCK
 62
     0
 10
-1.0
 20
0.1666666666666666
 30
0.0
 11
0.0
 21
0.0
 31
0.0
  0
LINE
  5
3E1B
  8
0
  6
BYBLOCK
 62
     0
 10
-1.0
 20
-0.1666666666666666
 30
0.0
 11
0.0
 21
0.0
 31
0.0
  0
LINE
  5
3E1C
  8
0
  6
BYBLOCK
 62
     0
 10
0.0
 20
0.0
 30
0.0
 11
-1.0
 21
0.0
 31
0.0
  0
ENDBLK
  5
3E1D
  8
0
  0
BLOCK
  8
0
  2
GENAXEH
 70
     0
 10
0.0
 20
0.0
 30
0.0
  3
GENAXEH
  1

  0
LINE
  5
3E45
  8
0
 10
-1.0
 20
0.0
 30
0.0
 11
1.0
 21
0.0
 31
0.0
  0
ENDBLK
  5
3E46
  8
0
  0
ENDSEC
  0
SECTION
  2
ENTITIES
  0
TEXT
  5
43CB
  8
241
  6
CONTINUOUS
 10
-69.0
 20
49.0
 30
0.0
 40
5.0
  1
MGT20-AU3/8-6
  7
YOKO
 11
-69.0
 21
49.0
 31
0.0
 73
     1
  0
LINE
  5
43CC
  8
250
  6
CONTINUOUS
 10
145.4832129964031
 20
28.583459668234038
 30
0.0
 11
130.6298796664031
 21
28.583459668234038
 31
0.0
1001
ITEMNAME
1000
LNSP2
  0
TEXT
  5
43CD
  8
250
  6
CONTINUOUS
 10
133.0565463330698
 20
29.583459668234038
 30
0.0
 40
2.799999999999998
  1
üá.286
  7
YOKO
1001
ITEMNAME
1000
LNSP3
1001
ACAD
1000
MTEXTBEGIN
1070
    73
1070
     1
1070
    44
1040
1.0
1070
    74
1070
     0
1000
MTEXTEND
1000
MTEXTBEGIN
1070
    73
1070
     1
1070
    44
1040
1.0
1070
    74
1070
     0
1000
MTEXTEND
1000
MTEXTBEGIN
1070
    73
1070
     1
1070
    44
1040
1.0
1070
    74
1070
     0
1000
MTEXTEND
1000
MTEXTBEGIN
1070
    73
1070
     1
1070
    44
1040
1.0
1070
    74
1070
     0
1000
MTEXTEND
1000
MTEXTBEGIN
1070
    73
1070
     1
1070
    44
1040
1.0
1070
    74
1070
     0
1000
MTEXTEND
1000
MTEXTBEGIN
1070
    73
1070
     1
1070
    44
1040
1.0
1070
    74
1070
     0
1000
MTEXTEND
1000
MTEXTBEGIN
1070
    73
1070
     1
1070
    44
1040
1.0
1070
    74
1070
     0
1000
MTEXTEND
1000
MTEXTBEGIN
1070
    73
1070
     1
1070
    44
1040
1.0
1070
    74
1070
     0
1000
MTEXTEND
  0
LINE
  5
43CE
  8
250
  6
CONTINUOUS
 10
152.90000000000001
 20
-15.0
 30
0.0
 11
171.30000000000001
 21
-15.0
 31
0.0
  0
LINE
  5
43CF
  8
250
  6
CONTINUOUS
 10
152.90000000000001
 20
15.0
 30
0.0
 11
171.30000000000001
 21
15.0
 31
0.0
  0
LINE
  5
43D0
  8
250
  6
CONTINUOUS
 10
170.30000000000001
 20
-13.0
 30
0.0
 11
170.30000000000001
 21
13.0
 31
0.0
  0
TEXT
  5
43D1
  8
250
  6
CONTINUOUS
 10
169.30000000000001
 20
-6.887064927504122
 30
0.0
 40
2.799999999999998
  1
\U+22051.181
 50
90.0
1001
ACAD
1000
MTEXTBEGIN
1070
    73
1070
     1
1070
    44
1040
1.0
1070
    74
1070
     0
1000
MTEXTEND
  0
LINE
  5
43D2
  8
250
  6
CONTINUOUS
 10
169.96666666666661
 20
13.0
 30
0.0
 11
170.30000000000001
 21
15.0
 31
0.0
  0
LINE
  5
43D3
  8
250
  6
CONTINUOUS
 10
170.6333333333333
 20
13.0
 30
0.0
 11
170.30000000000001
 21
15.0
 31
0.0
  0
LINE
  5
43D4
  8
250
  6
CONTINUOUS
 10
170.30000000000001
 20
15.0
 30
0.0
 11
170.30000000000001
 21
13.0
 31
0.0
  0
LINE
  5
43D5
  8
250
  6
CONTINUOUS
 10
170.6333333333333
 20
-13.0
 30
0.0
 11
170.30000000000001
 21
-15.0
 31
0.0
  0
LINE
  5
43D6
  8
250
  6
CONTINUOUS
 10
169.96666666666661
 20
-13.0
 30
0.0
 11
170.30000000000001
 21
-15.0
 31
0.0
  0
LINE
  5
43D7
  8
250
  6
CONTINUOUS
 10
170.30000000000001
 20
-15.0
 30
0.0
 11
170.30000000000001
 21
-13.0
 31
0.0
  0
LINE
  5
43D8
  8
250
  6
CONTINUOUS
 10
123.9937096511737
 20
7.3329280008730251
 30
0.0
 11
130.6298796664031
 21
28.583459668234038
 31
0.0
1001
ACAD
1000
DSTYLE
1002
{
1070
     6
1000
OPEN
1070
   343
1005
0
1002
}
  0
LINE
  5
43D9
  8
250
  6
CONTINUOUS
 10
124.3484799999469
 20
7.2221394150779243
 30
0.0
 11
123.32897813640309
 21
5.2043059082340406
 31
0.0
  0
LINE
  5
43DA
  8
250
  6
CONTINUOUS
 10
123.6389393024006
 20
7.443716586668125
 30
0.0
 11
123.32897813640309
 21
5.2043059082340406
 31
0.0
  0
LINE
  5
43DB
  8
250
  6
CONTINUOUS
 10
123.32897813640309
 20
5.2043059082340406
 30
0.0
 11
123.9937096511737
 21
7.3329280008730251
 31
0.0
  0
LINE
  5
43DC
  8
240
  6
CONTINUOUS
 10
130.65980762000001
 20
15.0
 30
0.0
 11
152.40000000000001
 21
15.0
 31
0.0
  0
LINE
  5
43DD
  8
240
  6
CONTINUOUS
 10
130.65980762000001
 20
-15.0
 30
0.0
 11
152.40000000000001
 21
-15.0
 31
0.0
  0
LINE
  5
43DE
  8
245
  6
CENTER2
 10
-70.0
 20
0.0
 30
0.0
 11
154.00127593776989
 21
0.0
 31
0.0
  0
LINE
  5
43DF
  8
240
  6
CONTINUOUS
 10
-54.0
 20
-12.5
 30
0.0
 11
-56.5
 21
-15.0
 31
0.0
  0
LINE
  5
43E0
  8
240
  6
CONTINUOUS
 10
-54.0
 20
12.5
 30
0.0
 11
-56.5
 21
15.0
 31
0.0
  0
LINE
  5
43E1
  8
240
  6
CONTINUOUS
 10
-69.0
 20
-15.0
 30
0.0
 11
-56.5
 21
-15.0
 31
0.0
  0
LINE
  5
43E2
  8
240
  6
CONTINUOUS
 10
-69.0
 20
15.0
 30
0.0
 11
-69.0
 21
-15.0
 31
0.0
  0
LINE
  5
43E3
  8
240
  6
CONTINUOUS
 10
-69.0
 20
15.0
 30
0.0
 11
-56.5
 21
15.0
 31
0.0
  0
LINE
  5
43E4
  8
241
  6
CONTINUOUS
 10
127.40000000000001
 20
-11.699999999999999
 30
0.0
 11
127.40000000000001
 21
11.699999999999999
 31
0.0
  0
LINE
  5
43E5
  8
241
  6
CONTINUOUS
 10
131.59999999999999
 20
-15.0
 30
0.0
 11
131.59999999999999
 21
15.0
 31
0.0
  0
LINE
  5
43E6
  8
241
  6
CONTINUOUS
 10
130.40000000000001
 20
-15.15
 30
0.0
 11
130.40000000000001
 21
15.15
 31
0.0
  0
LINE
  5
43E7
  8
241
  6
CONTINUOUS
 10
128.40000000000001
 20
-11.699999999999999
 30
0.0
 11
128.40000000000001
 21
11.699999999999999
 31
0.0
  0
LINE
  5
43E8
  8
245
  6
CENTER2
 10
-46.0
 20
-15.0
 30
0.0
 11
-46.0
 21
15.0
 31
0.0
1001
GENIUS_GENOREF_13
1005
0
  0
LINE
  5
43E9
  8
241
  6
CONTINUOUS
 10
-32.0
 20
-15.0
 30
0.0
 11
-32.0
 21
15.0
 31
0.0
  0
LINE
  5
43EA
  8
241
  6
CONTINUOUS
 10
-29.5
 20
-15.0
 30
0.0
 11
-29.5
 21
15.0
 31
0.0
  0
LINE
  5
43EB
  8
241
  6
CONTINUOUS
 10
-21.5
 20
-15.0
 30
0.0
 11
-21.5
 21
15.0
 31
0.0
  0
LINE
  5
43EC
  8
241
  6
CONTINUOUS
 10
-19.0
 20
-15.0
 30
0.0
 11
-19.0
 21
15.0
 31
0.0
  0
LINE
  5
43ED
  8
241
  6
CONTINUOUS
 10
0.0
 20
-19.5
 30
0.0
 11
0.0
 21
19.5
 31
0.0
  0
LINE
  5
43EE
  8
241
  6
CONTINUOUS
 10
1.205771369999999
 20
-15.358743970000001
 30
0.0
 11
1.205771369999999
 21
15.358743970000001
 31
0.0
  0
LINE
  5
43EF
  8
240
  6
CONTINUOUS
 10
-38.0
 20
-12.5
 30
0.0
 11
-35.5
 21
-15.0
 31
0.0
  0
LINE
  5
43F0
  8
240
  6
CONTINUOUS
 10
-46.0
 20
-12.5
 30
0.0
 11
-38.0
 21
-12.5
 31
0.0
  0
LINE
  5
43F1
  8
240
  6
CONTINUOUS
 10
-54.0
 20
-12.5
 30
0.0
 11
-46.0
 21
-12.5
 31
0.0
  0
LINE
  5
43F2
  8
240
  6
CONTINUOUS
 10
-35.5
 20
-15.0
 30
0.0
 11
-7.5
 21
-15.0
 31
0.0
  0
LINE
  5
43F3
  8
240
  6
CONTINUOUS
 10
127.40000000000001
 20
-15.0
 30
0.0
 11
1.9730983600000001
 21
-15.0
 31
0.0
  0
LINE
  5
43F4
  8
240
  6
CONTINUOUS
 10
-7.5
 20
-19.000000010000001
 30
0.0
 11
-6.1262612799999987
 21
-19.5
 31
0.0
  0
LINE
  5
43F5
  8
240
  6
CONTINUOUS
 10
0.0000000028216141
 20
-19.5
 30
0.0
 11
1.0071725300000001
 21
-15.741180959999999
 31
0.0
  0
LINE
  5
43F6
  8
240
  6
CONTINUOUS
 10
0.0000000028216141
 20
-19.5
 30
0.0
 11
-6.1262612900000004
 21
-19.5
 31
0.0
  0
ARC
  5
43F7
  8
240
  6
CONTINUOUS
 10
1.9730983600000001
 20
-16.0
 30
0.0
 40
1.0
 50
90.0
 51
165.00000001999999
  0
LINE
  5
43F8
  8
240
  6
CONTINUOUS
 10
128.40000000000001
 20
-15.15
 30
0.0
 11
130.40000000000001
 21
-15.15
 31
0.0
  0
LINE
  5
43F9
  8
240
  6
CONTINUOUS
 10
128.40000000000001
 20
-11.699999999999999
 30
0.0
 11
128.40000000000001
 21
-15.15
 31
0.0
  0
LINE
  5
43FA
  8
240
  6
CONTINUOUS
 10
127.40000000000001
 20
-11.699999999999999
 30
0.0
 11
127.40000000000001
 21
-15.0
 31
0.0
  0
LINE
  5
43FB
  8
240
  6
CONTINUOUS
 10
128.40000000000001
 20
-11.699999999999999
 30
0.0
 11
127.40000000000001
 21
-11.699999999999999
 31
0.0
  0
LINE
  5
43FC
  8
240
  6
CONTINUOUS
 10
130.65980762000001
 20
-15.0
 30
0.0
 11
130.40000000000001
 21
-15.15
 31
0.0
  0
LINE
  5
43FD
  8
240
  6
CONTINUOUS
 10
-38.0
 20
12.5
 30
0.0
 11
-35.5
 21
15.0
 31
0.0
  0
LINE
  5
43FE
  8
240
  6
CONTINUOUS
 10
-46.0
 20
12.5
 30
0.0
 11
-38.0
 21
12.5
 31
0.0
  0
LINE
  5
43FF
  8
240
  6
CONTINUOUS
 10
-54.0
 20
12.5
 30
0.0
 11
-46.0
 21
12.5
 31
0.0
  0
LINE
  5
4400
  8
240
  6
CONTINUOUS
 10
-35.5
 20
15.0
 30
0.0
 11
-7.5
 21
15.0
 31
0.0
  0
LINE
  5
4401
  8
240
  6
CONTINUOUS
 10
130.65980762000001
 20
15.0
 30
0.0
 11
130.40000000000001
 21
15.15
 31
0.0
  0
LINE
  5
4402
  8
240
  6
CONTINUOUS
 10
128.40000000000001
 20
11.699999999999999
 30
0.0
 11
128.40000000000001
 21
15.15
 31
0.0
  0
ARC
  5
4403
  8
240
  6
CONTINUOUS
 10
1.9730983600000001
 20
16.0
 30
0.0
 40
1.0
 50
194.9999999799999
 51
270.0
  0
LINE
  5
4404
  8
241
  6
CONTINUOUS
 10
-7.5
 20
15.0
 30
0.0
 11
-7.5
 21
-15.0
 31
0.0
  0
LINE
  5
4405
  8
240
  6
CONTINUOUS
 10
127.40000000000001
 20
15.0
 30
0.0
 11
1.9730983600000001
 21
15.0
 31
0.0
  0
LINE
  5
4406
  8
240
  6
CONTINUOUS
 10
127.40000000000001
 20
11.699999999999999
 30
0.0
 11
127.40000000000001
 21
15.0
 31
0.0
  0
LINE
  5
4407
  8
240
  6
CONTINUOUS
 10
128.40000000000001
 20
11.699999999999999
 30
0.0
 11
127.40000000000001
 21
11.699999999999999
 31
0.0
  0
LINE
  5
4408
  8
240
  6
CONTINUOUS
 10
-7.5
 20
19.000000010000001
 30
0.0
 11
-6.1262612799999987
 21
19.5
 31
0.0
  0
LINE
  5
4409
  8
240
  6
CONTINUOUS
 10
0.000000002821614
 20
19.5
 30
0.0
 11
1.0071725300000001
 21
15.741180959999999
 31
0.0
  0
LINE
  5
440A
  8
240
  6
CONTINUOUS
 10
0.000000002821614
 20
19.5
 30
0.0
 11
-6.1262612900000004
 21
19.5
 31
0.0
  0
LINE
  5
440B
  8
240
  6
CONTINUOUS
 10
128.40000000000001
 20
15.15
 30
0.0
 11
130.40000000000001
 21
15.15
 31
0.0
  0
LINE
  5
440C
  8
240
  6
CONTINUOUS
 10
152.40000000000001
 20
15.0
 30
0.0
 11
152.40000000000001
 21
-15.0
 31
0.0
  0
LINE
  5
440D
  8
240
  6
CONTINUOUS
 10
-7.5
 20
-15.0
 30
0.0
 11
-7.5
 21
-19.000000010000001
 31
0.0
  0
LINE
  5
440E
  8
240
  6
CONTINUOUS
 10
-7.5
 20
15.0
 30
0.0
 11
-7.5
 21
19.000000010000001
 31
0.0
  0
LINE
  5
440F
  8
247
  6
CONTINUOUS
 10
5.2057713699999582
 20
-11.0
 30
0.0
 11
5.205771369999999
 21
-7.2923076925360242
 31
0.0
  0
LINE
  5
4410
  8
247
  6
CONTINUOUS
 10
3.205771369999999
 20
-10.363914799990351
 30
0.0
 11
4.8857713699328018
 21
-10.84564704804588
 31
0.0
  0
LINE
  5
4411
  8
247
  6
CONTINUOUS
 10
4.002694446891196
 20
-9.8601211228152223
 30
0.0
 11
4.002694446891196
 21
-10.592428815093619
 31
0.0
  0
ARC
  5
4412
  8
247
  6
CONTINUOUS
 10
3.513546623835281
 20
-9.6698107215574396
 30
0.0
 40
0.3101372647461394
 50
72.997889675291987
 51
172.92416621851231
  0
ARC
  5
4413
  8
247
  6
CONTINUOUS
 10
3.4499498748224151
 20
-9.9059820454432792
 30
0.0
 40
0.5546438372287014
 50
4.7429368522013942
 51
73.849226273266424
1001
GENIUS_GENOBJ-N-FIL_13
1002
{
1000
OWNER
1000
GEN
1002
}
1001
GENIUS_GENODEF_13
1002
{
1000
HIER
1070
     0
1002
}
1002
{
1000
MANEDIT
1070
     0
1002
}
1002
{
1000
NOSEL
1070
     0
1002
}
1002
{
1000
BEHIND
1070
     0
1002
}
1002
{
1000
OTHER
1070
     0
1002
}
1002
{
1000
REACTOR
1002
}
  0
LINE
  5
4414
  8
247
  6
CONTINUOUS
 10
4.8857713699328018
 20
-10.113339355767479
 30
0.0
 11
4.8857713699328018
 21
-10.84564704804588
 31
0.0
  0
LINE
  5
4415
  8
247
  6
CONTINUOUS
 10
3.205771369999999
 20
-10.363914799990351
 30
0.0
 11
3.205771369999999
 21
-9.6316071077119556
 31
0.0
  0
ARC
  5
4416
  8
247
  6
CONTINUOUS
 10
4.3157049402142951
 20
-9.9026451810134581
 30
0.0
 40
0.3158858408603088
 50
65.990941652528775
 51
172.26344345906949
  0
ARC
  5
4417
  8
247
  6
CONTINUOUS
 10
4.318731631866056
 20
-10.16995728834153
 30
0.0
 40
0.5698593289889349
 50
5.7019851642581267
 51
77.27733843682222
1001
GENIUS_GENOBJ-N-FIL_13
1002
{
1000
OWNER
1000
GEN
1002
}
1001
GENIUS_GENODEF_13
1002
{
1000
HIER
1070
     0
1002
}
1002
{
1000
MANEDIT
1070
     0
1002
}
1002
{
1000
NOSEL
1070
     0
1002
}
1002
{
1000
BEHIND
1070
     0
1002
}
1002
{
1000
OTHER
1070
     0
1002
}
1002
{
1000
REACTOR
1002
}
  0
LINE
  5
4418
  8
247
  6
CONTINUOUS
 10
4.8857713699328018
 20
-9.3471855096506911
 30
0.0
 11
3.205771369999999
 21
-8.8654532615951656
 31
0.0
  0
LINE
  5
4419
  8
247
  6
CONTINUOUS
 10
3.205771369999999
 20
-7.6685301847263663
 30
0.0
 11
3.205771369999999
 21
-7.9853426914428622
 31
0.0
  0
LINE
  5
441A
  8
247
  6
CONTINUOUS
 10
4.8857713699328018
 20
-8.4869917231551621
 30
0.0
 11
4.8857713699328018
 21
-8.1423763385535768
 31
0.0
  0
ARC
  5
441B
  8
247
  6
CONTINUOUS
 10
4.3724110460666861
 20
-7.5054532616559682
 30
0.0
 40
1.261484046111637
 50
202.35948814152701
 51
254.99324854284609
  0
ARC
  5
441C
  8
247
  6
CONTINUOUS
 10
3.6584264568305112
 20
-7.878009092906578
 30
0.0
 40
0.4987765437607558
 50
94.994589319075374
 51
155.16632895730359
1001
GENIUS_GENOBJ-N-FIL_13
1002
{
1000
OWNER
1000
GEN
1002
}
1001
GENIUS_GENODEF_13
1002
{
1000
HIER
1070
     0
1002
}
1002
{
1000
MANEDIT
1070
     0
1002
}
1002
{
1000
NOSEL
1070
     0
1002
}
1002
{
1000
BEHIND
1070
     0
1002
}
1002
{
1000
OTHER
1070
     0
1002
}
1002
{
1000
REACTOR
1002
}
  0
ARC
  5
441D
  8
247
  6
CONTINUOUS
 10
4.1354530675755532
 20
-8.3553471608262164
 30
0.0
 40
0.7799577719285588
 50
15.8460965557799
 51
82.325137004169122
  0
ARC
  5
441E
  8
247
  6
CONTINUOUS
 10
4.3029476915768541
 20
-8.0281693110177734
 30
0.0
 40
0.7417556510953607
 50
249.71360167049701
 51
321.78874565640962
1001
GENIUS_GENOBJ-N-FIL_13
1002
{
1000
OWNER
1000
GEN
1002
}
1001
GENIUS_GENODEF_13
1002
{
1000
HIER
1070
     0
1002
}
1002
{
1000
MANEDIT
1070
     0
1002
}
1002
{
1000
NOSEL
1070
     0
1002
}
1002
{
1000
BEHIND
1070
     0
1002
}
1002
{
1000
OTHER
1070
     0
1002
}
1002
{
1000
REACTOR
1002
}
  0
LINE
  5
441F
  8
247
  6
CONTINUOUS
 10
4.2396175238047791
 20
-7.9700686462527663
 30
0.0
 11
4.2396175238047791
 21
-7.5823763385759699
 31
0.0
  0
ARC
  5
4420
  8
247
  6
CONTINUOUS
 10
4.205771369999999
 20
-11.0
 30
0.0
 40
1.0
 50
180.0
 51
0.0
  0
LINE
  5
4421
  8
247
  6
CONTINUOUS
 10
3.205771369999999
 20
-11.0
 30
0.0
 11
3.205771369999999
 21
-10.643076923131201
 31
0.0
  0
ARC
  5
4422
  8
247
  6
CONTINUOUS
 10
4.205771369999999
 20
-7.2923076925360091
 30
0.0
 40
1.0
 50
0.0
 51
180.0
  0
LINE
  5
443A
  8
250
  6
CONTINUOUS
 10
0.0
 20
20.00000001053041
 30
0.0
 11
0.000000000000001
 21
36.04605952
 31
0.0
  0
LINE
  5
443B
  8
250
  6
CONTINUOUS
 10
152.40000000000001
 20
15.5
 30
0.0
 11
152.40000000000001
 21
36.04605952
 31
0.0
  0
LINE
  5
443C
  8
250
  6
CONTINUOUS
 10
2.23
 20
35.04605952
 30
0.0
 11
150.16999999999999
 21
35.04605952
 31
0.0
  0
LINE
  5
443D
  8
250
  6
CONTINUOUS
 10
2.23
 20
34.67439285333333
 30
0.0
 11
0.000000000000001
 21
35.04605952
 31
0.0
  0
LINE
  5
443E
  8
250
  6
CONTINUOUS
 10
2.23
 20
35.41772618666667
 30
0.0
 11
0.000000000000001
 21
35.04605952
 31
0.0
  0
LINE
  5
443F
  8
250
  6
CONTINUOUS
 10
0.000000000000001
 20
35.04605952
 30
0.0
 11
2.23
 21
35.04605952
 31
0.0
  0
LINE
  5
4440
  8
250
  6
CONTINUOUS
 10
150.16999999999999
 20
35.41772618666667
 30
0.0
 11
152.40000000000001
 21
35.04605952
 31
0.0
  0
LINE
  5
4441
  8
250
  6
CONTINUOUS
 10
150.16999999999999
 20
34.67439285333333
 30
0.0
 11
152.40000000000001
 21
35.04605952
 31
0.0
  0
LINE
  5
4442
  8
250
  6
CONTINUOUS
 10
152.40000000000001
 20
35.04605952
 30
0.0
 11
150.16999999999999
 21
35.04605952
 31
0.0
  0
TEXT
  5
4443
  8
250
  6
CONTINUOUS
 10
68.717133154505035
 20
36.04605952
 30
0.0
 40
2.7999999999999989
  1
6.00
  0
LINE
  5
4459
  8
243
  6
HIDDEN2
 10
120.2999999999994
 20
5.2043059082381147
 30
0.0
 11
120.2999999999851
 21
-5.2043059082381147
 31
0.0
  0
LINE
  5
445B
  8
243
  6
HIDDEN2
 10
132.3999999999962
 20
5.2043059082218397
 30
0.0
 11
132.39999999998179
 21
-5.2043059082218397
 31
0.0
  0
LINE
  5
445C
  8
243
  6
HIDDEN2
 10
132.39999999999571
 20
4.8384999982156378
 30
0.0
 11
152.40000000000001
 21
4.8384999982156378
 31
0.0
  0
LINE
  5
445D
  8
243
  6
HIDDEN2
 10
132.3999999999823
 20
-4.8385000017849489
 30
0.0
 11
152.40000000000001
 21
-4.8385000017849489
 31
0.0
  0
LINE
  5
445F
  8
243
  6
HIDDEN2
 10
120.2999999999994
 20
5.2043059082381147
 30
0.0
 11
132.3999999999962
 21
5.2043059082218397
 31
0.0
  0
LINE
  5
4460
  8
244
  6
HIDDEN2
 10
132.39999999998901
 20
-0.00000000130035
 30
0.0
 11
120.2999999999994
 21
5.2043059082381147
 31
0.0
  0
LINE
  5
4461
  8
244
  6
HIDDEN2
 10
132.39999999999631
 20
5.204305908217747
 30
0.0
 11
120.29999999999229
 21
-0.0000000000000027
 31
0.0
  0
LINE
  5
4462
  8
244
  6
HIDDEN2
 10
132.39999999998901
 20
-0.0000000013067165
 30
0.0
 11
120.2999999999851
 21
-5.2043059082381147
 31
0.0
  0
LINE
  5
4463
  8
244
  6
HIDDEN2
 10
132.3999999999981
 20
-5.2043059108248144
 30
0.0
 11
120.29999999999229
 21
0.0
 31
0.0
  0
LINE
  5
4464
  8
243
  6
HIDDEN2
 10
120.2999999999851
 20
-5.2043059082381147
 30
0.0
 11
132.39999999998179
 21
-5.2043059082218397
 31
0.0
  0
LINE
  5
44CE
  8
250
  6
CONTINUOUS
 10
152.90000000000001
 20
4.8384999982156378
 30
0.0
 11
164.30000000000001
 21
4.8384999982156351
 31
0.0
  0
LINE
  5
44CF
  8
250
  6
CONTINUOUS
 10
152.90000000000001
 20
-4.8385000017849489
 30
0.0
 11
164.30000000000001
 21
-4.8385000017849524
 31
0.0
  0
LINE
  5
44D0
  8
250
  6
CONTINUOUS
 10
163.30000000000001
 20
7.0684999982156347
 30
0.0
 11
163.30000000000001
 21
9.2984999982156342
 31
0.0
  0
LINE
  5
44D1
  8
250
  6
CONTINUOUS
 10
163.30000000000001
 20
-7.068500001784952
 30
0.0
 11
163.30000000000001
 21
-9.2985000017849515
 31
0.0
  0
LINE
  5
44D2
  8
250
  6
CONTINUOUS
 10
163.30000000000001
 20
4.838499998215636
 30
0.0
 11
163.30000000000001
 21
-4.8385000017849524
 31
0.0
  0
TEXT
  5
44D7
  8
250
  6
CONTINUOUS
 10
162.30000000000001
 20
-6.866666668451316
 30
0.0
 40
2.7999999999999989
  1
\U+2205.381
 50
90.0
  0
LINE
  5
44D8
  8
250
  6
CONTINUOUS
 10
162.92833333333331
 20
-7.068500001784952
 30
0.0
 11
163.30000000000001
 21
-4.8385000017849524
 31
0.0
  0
LINE
  5
44D9
  8
250
  6
CONTINUOUS
 10
163.67166666666671
 20
-7.068500001784952
 30
0.0
 11
163.30000000000001
 21
-4.8385000017849524
 31
0.0
  0
LINE
  5
44DA
  8
250
  6
CONTINUOUS
 10
163.30000000000001
 20
-4.8385000017849524
 30
0.0
 11
163.30000000000001
 21
-7.068500001784952
 31
0.0
  0
LINE
  5
44DB
  8
250
  6
CONTINUOUS
 10
163.67166666666671
 20
7.0684999982156347
 30
0.0
 11
163.30000000000001
 21
4.838499998215636
 31
0.0
  0
LINE
  5
44DC
  8
250
  6
CONTINUOUS
 10
162.92833333333331
 20
7.0684999982156347
 30
0.0
 11
163.30000000000001
 21
4.838499998215636
 31
0.0
  0
LINE
  5
44DD
  8
250
  6
CONTINUOUS
 10
163.30000000000001
 20
4.838499998215636
 30
0.0
 11
163.30000000000001
 21
7.0684999982156347
 31
0.0
  0
VIEWPORT
  5
22
 67
     1
  8
0
 10
261.51769911504419
 20
148.5
 30
0.0
 40
523.0353982300885
 41
297.0
 68
     1
 69
     1
1001
ACAD
1000
MVIEW
1002
{
1070
    16
1010
0.0
1020
0.0
1030
0.0
1010
0.0
1020
0.0
1030
1.0
1040
0.0
1040
297.0
1040
261.51769911504419
1040
148.5
1040
50.0
1040
0.0
1040
0.0
1070
     0
1070
   100
1070
     1
1070
     1
1070
     0
1070
     0
1070
     0
1070
     0
1040
0.0
1040
0.0
1040
0.0
1040
1.0
1040
1.0
1040
10.0
1040
10.0
1070
     0
1002
{
1002
}
1002
}
1001
GENIUS_GENODEF_13
1002
{
1000
HIER
1070
     0
1002
}
1002
{
1000
MANEDIT
1070
     0
1002
}
1002
{
1000
NOSEL
1070
     0
1002
}
1002
{
1000
BEHIND
1070
     0
1002
}
1002
{
1000
OTHER
1070
     0
1002
}
1002
{
1000
REACTOR
1002
}
1001
GENIUS_GENOBJ-N-SDF_13
1002
{
1000
OWNER
1000
GEN
1002
}
1001
GENIUS_GENSCREG_15
1000
PF
1040
1.0
1000
DF
1040
1.0
1000
MIN
1011
0.0
1021
0.0
1031
0.0
1021
0.0
1031
0.0
1000
MAX
1011
523.0353982300885
1021
0.0
1031
0.0
1021
297.0
1031
0.0
1000
FLAGS
1070
     4
  0
ENDSEC
  0
EOF
