ISO-10303-21;
HEADER;
FILE_DESCRIPTION((''),'1');
FILE_NAME('V:/02_3D_Field-HP\X2\FF71FF6FFF8CFF9F5916\X0\2013/02_Step_Field-HP\X2\FF71FF6FFF8CFF9F5916\X0\2013/31_\X2\30E130AC30B730F330AF30ED30BF30C330D430F330B030DB30EB30C0\X0\ MGT/MGT_ANSI_STEP/MGT20-AU1_2-AP1_4-6.stp','2018-02-02T01:00:05',(''),(''),'Spatial Interop R21 SP3','Kubotek KeyCreator 2011 V10.0.2 (22737)',' ');
FILE_SCHEMA(('automotive_design'));
ENDSEC;
DATA;
#1=MECHANICAL_DESIGN_GEOMETRIC_PRESENTATION_REPRESENTATION(' ',(#10,#11,#12,#13,#14,#15,#16,#17,#18,#19,#20,#21,#22,#23,#24,#25,#26,#27,#28,#29,#30,#31,#32,#33,#34,#35,#36,#37),#6);
#2=PRODUCT_DEFINITION_CONTEXT('',#38,'design');
#3=APPLICATION_PROTOCOL_DEFINITION('INTERNATIONAL STANDARD','automotive_design',1994,#38);
#4=PRODUCT_CATEGORY_RELATIONSHIP('NONE','NONE',#39,#40);
#5=SHAPE_DEFINITION_REPRESENTATION(#41,#42);
#6= (GEOMETRIC_REPRESENTATION_CONTEXT(3)GLOBAL_UNCERTAINTY_ASSIGNED_CONTEXT((#45))GLOBAL_UNIT_ASSIGNED_CONTEXT((#47,#48,#49))REPRESENTATION_CONTEXT('NONE','WORKSPACE'));
#10=STYLED_ITEM('',(#51),#52);
#11=STYLED_ITEM('',(#53,#54),#55);
#12=STYLED_ITEM('',(#56),#57);
#13=STYLED_ITEM('',(#58,#59),#60);
#14=STYLED_ITEM('',(#61),#62);
#15=STYLED_ITEM('',(#63),#64);
#16=STYLED_ITEM('',(#65,#66),#67);
#17=STYLED_ITEM('',(#68,#69),#70);
#18=STYLED_ITEM('',(#71),#72);
#19=STYLED_ITEM('',(#73,#74),#75);
#20=STYLED_ITEM('',(#76,#77),#78);
#21=STYLED_ITEM('',(#79),#80);
#22=STYLED_ITEM('',(#81,#82),#83);
#23=STYLED_ITEM('',(#84),#85);
#24=STYLED_ITEM('',(#86),#87);
#25=STYLED_ITEM('',(#88,#89),#90);
#26=STYLED_ITEM('',(#91,#92),#93);
#27=STYLED_ITEM('',(#94,#95),#96);
#28=STYLED_ITEM('',(#97,#98),#99);
#29=STYLED_ITEM('',(#100),#101);
#30=STYLED_ITEM('',(#102),#103);
#31=STYLED_ITEM('',(#104),#105);
#32=STYLED_ITEM('',(#106,#107),#108);
#33=STYLED_ITEM('',(#109,#110),#111);
#34=STYLED_ITEM('',(#112,#113),#114);
#35=STYLED_ITEM('',(#115),#116);
#36=STYLED_ITEM('',(#117,#118),#119);
#37=STYLED_ITEM('',(#120),#121);
#38=APPLICATION_CONTEXT(' ');
#39=PRODUCT_CATEGORY('part','NONE');
#40=PRODUCT_RELATED_PRODUCT_CATEGORY('detail',' ',(#122));
#41=PRODUCT_DEFINITION_SHAPE('NONE','NONE',#123);
#42=ADVANCED_BREP_SHAPE_REPRESENTATION('Unnamed[1]',(#93,#124),#6);
#45=UNCERTAINTY_MEASURE_WITH_UNIT(LENGTH_MEASURE(1.0E-006),#47,'','');
#47= (CONVERSION_BASED_UNIT('MILLIMETRE',#127)LENGTH_UNIT()NAMED_UNIT(#130));
#48= (NAMED_UNIT(#132)PLANE_ANGLE_UNIT()SI_UNIT($,.RADIAN.));
#49= (NAMED_UNIT(#132)SOLID_ANGLE_UNIT()SI_UNIT($,.STERADIAN.));
#51=PRESENTATION_STYLE_ASSIGNMENT((#138));
#52=EDGE_CURVE('Unnamed[1]',#139,#139,#140,.T.);
#53=PRESENTATION_STYLE_ASSIGNMENT((#141));
#54=PRESENTATION_STYLE_ASSIGNMENT((#142));
#55=ADVANCED_FACE('Unnamed[1]',(#143,#144),#145,.T.);
#56=PRESENTATION_STYLE_ASSIGNMENT((#146));
#57=EDGE_CURVE('Unnamed[1]',#147,#147,#148,.T.);
#58=PRESENTATION_STYLE_ASSIGNMENT((#149));
#59=PRESENTATION_STYLE_ASSIGNMENT((#150));
#60=ADVANCED_FACE('Unnamed[1]',(#151),#152,.T.);
#61=PRESENTATION_STYLE_ASSIGNMENT((#153));
#62=EDGE_CURVE('Unnamed[1]',#154,#154,#155,.T.);
#63=PRESENTATION_STYLE_ASSIGNMENT((#156));
#64=EDGE_CURVE('Unnamed[1]',#157,#157,#158,.T.);
#65=PRESENTATION_STYLE_ASSIGNMENT((#159));
#66=PRESENTATION_STYLE_ASSIGNMENT((#160));
#67=ADVANCED_FACE('Unnamed[1]',(#161,#162),#163,.T.);
#68=PRESENTATION_STYLE_ASSIGNMENT((#164));
#69=PRESENTATION_STYLE_ASSIGNMENT((#165));
#70=ADVANCED_FACE('Unnamed[1]',(#166),#167,.T.);
#71=PRESENTATION_STYLE_ASSIGNMENT((#168));
#72=EDGE_CURVE('Unnamed[1]',#169,#169,#170,.T.);
#73=PRESENTATION_STYLE_ASSIGNMENT((#171));
#74=PRESENTATION_STYLE_ASSIGNMENT((#172));
#75=ADVANCED_FACE('Unnamed[1]',(#173,#174),#175,.T.);
#76=PRESENTATION_STYLE_ASSIGNMENT((#176));
#77=PRESENTATION_STYLE_ASSIGNMENT((#177));
#78=ADVANCED_FACE('Unnamed[1]',(#178,#179),#180,.T.);
#79=PRESENTATION_STYLE_ASSIGNMENT((#181));
#80=EDGE_CURVE('Unnamed[1]',#182,#182,#183,.T.);
#81=PRESENTATION_STYLE_ASSIGNMENT((#184));
#82=PRESENTATION_STYLE_ASSIGNMENT((#185));
#83=ADVANCED_FACE('Unnamed[1]',(#186,#187),#188,.T.);
#84=PRESENTATION_STYLE_ASSIGNMENT((#189));
#85=EDGE_CURVE('Unnamed[1]',#190,#190,#191,.T.);
#86=PRESENTATION_STYLE_ASSIGNMENT((#192));
#87=EDGE_CURVE('Unnamed[1]',#193,#193,#194,.T.);
#88=PRESENTATION_STYLE_ASSIGNMENT((#195));
#89=PRESENTATION_STYLE_ASSIGNMENT((#196));
#90=ADVANCED_FACE('Unnamed[1]',(#197,#198),#199,.T.);
#91=PRESENTATION_STYLE_ASSIGNMENT((#200));
#92=PRESENTATION_STYLE_ASSIGNMENT((#201));
#93=MANIFOLD_SOLID_BREP('Unnamed[1]',#202);
#94=PRESENTATION_STYLE_ASSIGNMENT((#203));
#95=PRESENTATION_STYLE_ASSIGNMENT((#204));
#96=ADVANCED_FACE('Unnamed[1]',(#205,#206),#207,.T.);
#97=PRESENTATION_STYLE_ASSIGNMENT((#208));
#98=PRESENTATION_STYLE_ASSIGNMENT((#209));
#99=ADVANCED_FACE('Unnamed[1]',(#210,#211),#212,.T.);
#100=PRESENTATION_STYLE_ASSIGNMENT((#213));
#101=EDGE_CURVE('Unnamed[1]',#214,#214,#215,.T.);
#102=PRESENTATION_STYLE_ASSIGNMENT((#216));
#103=EDGE_CURVE('Unnamed[1]',#217,#217,#218,.T.);
#104=PRESENTATION_STYLE_ASSIGNMENT((#219));
#105=EDGE_CURVE('Unnamed[1]',#220,#220,#221,.T.);
#106=PRESENTATION_STYLE_ASSIGNMENT((#222));
#107=PRESENTATION_STYLE_ASSIGNMENT((#223));
#108=ADVANCED_FACE('Unnamed[1]',(#224,#225),#226,.T.);
#109=PRESENTATION_STYLE_ASSIGNMENT((#227));
#110=PRESENTATION_STYLE_ASSIGNMENT((#228));
#111=ADVANCED_FACE('Unnamed[1]',(#229,#230),#231,.T.);
#112=PRESENTATION_STYLE_ASSIGNMENT((#232));
#113=PRESENTATION_STYLE_ASSIGNMENT((#233));
#114=ADVANCED_FACE('Unnamed[1]',(#234,#235),#236,.T.);
#115=PRESENTATION_STYLE_ASSIGNMENT((#237));
#116=EDGE_CURVE('Unnamed[1]',#238,#238,#239,.T.);
#117=PRESENTATION_STYLE_ASSIGNMENT((#240));
#118=PRESENTATION_STYLE_ASSIGNMENT((#241));
#119=ADVANCED_FACE('Unnamed[1]',(#242,#243),#244,.T.);
#120=PRESENTATION_STYLE_ASSIGNMENT((#245));
#121=EDGE_CURVE('Unnamed[1]',#246,#246,#247,.T.);
#122=PRODUCT('Unnamed[1]','Unnamed[1]','PART-Unnamed[1]-DESC',(#248));
#123=PRODUCT_DEFINITION('NONE','NONE',#249,#2);
#124=AXIS2_PLACEMENT_3D('',#250,#251,#252);
#127=LENGTH_MEASURE_WITH_UNIT(LENGTH_MEASURE(1.0),#253);
#130=DIMENSIONAL_EXPONENTS(1.0,0.0,0.0,0.0,0.0,0.0,0.0);
#132=DIMENSIONAL_EXPONENTS(0.0,0.0,0.0,0.0,0.0,0.0,0.0);
#138=CURVE_STYLE('',#254,POSITIVE_LENGTH_MEASURE(1000.0),#255);
#139=VERTEX_POINT('',#256);
#140=CIRCLE('',#257,19.5);
#141=SURFACE_STYLE_USAGE(.BOTH.,#258);
#142=CURVE_STYLE('',#259,POSITIVE_LENGTH_MEASURE(1000.0),#260);
#143=FACE_BOUND('',#261,.T.);
#144=FACE_BOUND('',#262,.T.);
#145=CYLINDRICAL_SURFACE('',#263,15.0);
#146=CURVE_STYLE('',#264,POSITIVE_LENGTH_MEASURE(1000.0),#265);
#147=VERTEX_POINT('',#266);
#148=CIRCLE('',#267,15.0);
#149=SURFACE_STYLE_USAGE(.BOTH.,#268);
#150=CURVE_STYLE('',#269,POSITIVE_LENGTH_MEASURE(1000.0),#270);
#151=FACE_OUTER_BOUND('',#271,.T.);
#152=PLANE('',#272);
#153=CURVE_STYLE('',#273,POSITIVE_LENGTH_MEASURE(1000.0),#274);
#154=VERTEX_POINT('',#275);
#155=CIRCLE('',#276,15.15);
#156=CURVE_STYLE('',#277,POSITIVE_LENGTH_MEASURE(1000.0),#278);
#157=VERTEX_POINT('',#279);
#158=CIRCLE('',#280,15.15);
#159=SURFACE_STYLE_USAGE(.BOTH.,#281);
#160=CURVE_STYLE('',#282,POSITIVE_LENGTH_MEASURE(1000.0),#283);
#161=FACE_BOUND('',#284,.T.);
#162=FACE_BOUND('',#285,.T.);
#163=CYLINDRICAL_SURFACE('',#286,15.0);
#164=SURFACE_STYLE_USAGE(.BOTH.,#287);
#165=CURVE_STYLE('',#288,POSITIVE_LENGTH_MEASURE(1000.0),#289);
#166=FACE_OUTER_BOUND('',#290,.T.);
#167=PLANE('',#291);
#168=CURVE_STYLE('',#292,POSITIVE_LENGTH_MEASURE(1000.0),#293);
#169=VERTEX_POINT('',#294);
#170=CIRCLE('',#295,15.0);
#171=SURFACE_STYLE_USAGE(.BOTH.,#296);
#172=CURVE_STYLE('',#297,POSITIVE_LENGTH_MEASURE(1000.0),#298);
#173=FACE_OUTER_BOUND('',#299,.T.);
#174=FACE_BOUND('',#300,.T.);
#175=PLANE('',#301);
#176=SURFACE_STYLE_USAGE(.BOTH.,#302);
#177=CURVE_STYLE('',#303,POSITIVE_LENGTH_MEASURE(1000.0),#304);
#178=FACE_BOUND('',#305,.T.);
#179=FACE_BOUND('',#306,.T.);
#180=CYLINDRICAL_SURFACE('',#307,19.5);
#181=CURVE_STYLE('',#308,POSITIVE_LENGTH_MEASURE(1000.0),#309);
#182=VERTEX_POINT('',#310);
#183=CIRCLE('',#311,19.00000001);
#184=SURFACE_STYLE_USAGE(.BOTH.,#312);
#185=CURVE_STYLE('',#313,POSITIVE_LENGTH_MEASURE(1000.0),#314);
#186=FACE_BOUND('',#315,.T.);
#187=FACE_BOUND('',#316,.T.);
#188=CYLINDRICAL_SURFACE('',#317,15.0);
#189=CURVE_STYLE('',#318,POSITIVE_LENGTH_MEASURE(1000.0),#319);
#190=VERTEX_POINT('',#320);
#191=CIRCLE('',#321,11.7);
#192=CURVE_STYLE('',#322,POSITIVE_LENGTH_MEASURE(1000.0),#323);
#193=VERTEX_POINT('',#324);
#194=CIRCLE('',#325,15.0);
#195=SURFACE_STYLE_USAGE(.BOTH.,#326);
#196=CURVE_STYLE('',#327,POSITIVE_LENGTH_MEASURE(1000.0),#328);
#197=FACE_OUTER_BOUND('',#329,.T.);
#198=FACE_BOUND('',#330,.T.);
#199=PLANE('',#331);
#200=SURFACE_STYLE_USAGE(.BOTH.,#332);
#201=CURVE_STYLE('',#333,POSITIVE_LENGTH_MEASURE(1000.0),#334);
#202=CLOSED_SHELL('',(#60,#83,#90,#111,#78,#108,#67,#119,#114,#75,#96,#99,#55,#70));
#203=SURFACE_STYLE_USAGE(.BOTH.,#335);
#204=CURVE_STYLE('',#336,POSITIVE_LENGTH_MEASURE(1000.0),#337);
#205=FACE_BOUND('',#338,.T.);
#206=FACE_BOUND('',#339,.T.);
#207=CYLINDRICAL_SURFACE('',#340,15.15);
#208=SURFACE_STYLE_USAGE(.BOTH.,#341);
#209=CURVE_STYLE('',#342,POSITIVE_LENGTH_MEASURE(1000.0),#343);
#210=FACE_BOUND('',#344,.T.);
#211=FACE_BOUND('',#345,.T.);
#212=CONICAL_SURFACE('',#346,15.075,0.523598777490513);
#213=CURVE_STYLE('',#347,POSITIVE_LENGTH_MEASURE(1000.0),#348);
#214=VERTEX_POINT('',#349);
#215=CIRCLE('',#350,15.0);
#216=CURVE_STYLE('',#351,POSITIVE_LENGTH_MEASURE(1000.0),#352);
#217=VERTEX_POINT('',#353);
#218=CIRCLE('',#354,19.5);
#219=CURVE_STYLE('',#355,POSITIVE_LENGTH_MEASURE(1000.0),#356);
#220=VERTEX_POINT('',#357);
#221=CIRCLE('',#358,11.7);
#222=SURFACE_STYLE_USAGE(.BOTH.,#359);
#223=CURVE_STYLE('',#360,POSITIVE_LENGTH_MEASURE(1000.0),#361);
#224=FACE_BOUND('',#362,.T.);
#225=FACE_BOUND('',#363,.T.);
#226=CONICAL_SURFACE('',#364,17.25,1.15757511336881);
#227=SURFACE_STYLE_USAGE(.BOTH.,#365);
#228=CURVE_STYLE('',#366,POSITIVE_LENGTH_MEASURE(1000.0),#367);
#229=FACE_BOUND('',#368,.T.);
#230=FACE_BOUND('',#369,.T.);
#231=CONICAL_SURFACE('',#370,19.250000005,0.349065841567636);
#232=SURFACE_STYLE_USAGE(.BOTH.,#371);
#233=CURVE_STYLE('',#372,POSITIVE_LENGTH_MEASURE(1000.0),#373);
#234=FACE_BOUND('',#374,.T.);
#235=FACE_BOUND('',#375,.T.);
#236=CYLINDRICAL_SURFACE('',#376,11.7);
#237=CURVE_STYLE('',#377,POSITIVE_LENGTH_MEASURE(1000.0),#378);
#238=VERTEX_POINT('',#379);
#239=CIRCLE('',#380,15.0);
#240=SURFACE_STYLE_USAGE(.BOTH.,#381);
#241=CURVE_STYLE('',#382,POSITIVE_LENGTH_MEASURE(1000.0),#383);
#242=FACE_BOUND('',#384,.T.);
#243=FACE_OUTER_BOUND('',#385,.T.);
#244=PLANE('',#386);
#245=CURVE_STYLE('',#387,POSITIVE_LENGTH_MEASURE(1000.0),#388);
#246=VERTEX_POINT('',#389);
#247=CIRCLE('',#390,15.0);
#248=PRODUCT_CONTEXT('',#38,'mechanical');
#249=PRODUCT_DEFINITION_FORMATION_WITH_SPECIFIED_SOURCE(' ','NONE',#122,.NOT_KNOWN.);
#250=CARTESIAN_POINT('',(0.0,0.0,0.0));
#251=DIRECTION('',(0.0,0.0,1.0));
#252=DIRECTION('',(1.0,0.0,0.0));
#253= (NAMED_UNIT(#130)LENGTH_UNIT()SI_UNIT(.MILLI.,.METRE.));
#254=DRAUGHTING_PRE_DEFINED_CURVE_FONT('continuous');
#255=COLOUR_RGB('',0.0,1.0,0.0);
#256=CARTESIAN_POINT('',(-9.33180860933006E-015,19.5,152.399999997178));
#257=AXIS2_PLACEMENT_3D('',#392,#393,#394);
#258=SURFACE_SIDE_STYLE('',(#395));
#259=DRAUGHTING_PRE_DEFINED_CURVE_FONT('continuous');
#260=COLOUR_RGB('',0.0,1.0,0.0);
#261=EDGE_LOOP('',(#396));
#262=EDGE_LOOP('',(#397));
#263=AXIS2_PLACEMENT_3D('',#398,#399,#400);
#264=DRAUGHTING_PRE_DEFINED_CURVE_FONT('continuous');
#265=COLOUR_RGB('',0.0,1.0,0.0);
#266=CARTESIAN_POINT('',(-9.79105115918309E-015,15.0,159.9));
#267=AXIS2_PLACEMENT_3D('',#401,#402,#403);
#268=SURFACE_SIDE_STYLE('',(#404));
#269=DRAUGHTING_PRE_DEFINED_CURVE_FONT('continuous');
#270=COLOUR_RGB('',0.0,1.0,0.0);
#271=EDGE_LOOP('',(#405));
#272=AXIS2_PLACEMENT_3D('',#406,#407,#408);
#273=DRAUGHTING_PRE_DEFINED_CURVE_FONT('continuous');
#274=COLOUR_RGB('',0.0,1.0,0.0);
#275=CARTESIAN_POINT('',(-1.34711147906209E-015,15.15,22.0));
#276=AXIS2_PLACEMENT_3D('',#409,#410,#411);
#277=DRAUGHTING_PRE_DEFINED_CURVE_FONT('continuous');
#278=COLOUR_RGB('',0.0,1.0,0.0);
#279=CARTESIAN_POINT('',(-1.46957615897682E-015,15.15,24.0));
#280=AXIS2_PLACEMENT_3D('',#412,#413,#414);
#281=SURFACE_SIDE_STYLE('',(#415));
#282=DRAUGHTING_PRE_DEFINED_CURVE_FONT('continuous');
#283=COLOUR_RGB('',0.0,1.0,0.0);
#284=EDGE_LOOP('',(#416));
#285=EDGE_LOOP('',(#417));
#286=AXIS2_PLACEMENT_3D('',#418,#419,#420);
#287=SURFACE_SIDE_STYLE('',(#421));
#288=DRAUGHTING_PRE_DEFINED_CURVE_FONT('continuous');
#289=COLOUR_RGB('',0.0,1.0,0.0);
#290=EDGE_LOOP('',(#422));
#291=AXIS2_PLACEMENT_3D('',#423,#424,#425);
#292=DRAUGHTING_PRE_DEFINED_CURVE_FONT('continuous');
#293=COLOUR_RGB('',0.0,1.0,0.0);
#294=CARTESIAN_POINT('',(-1.33120285055073E-015,15.0,21.74019238));
#295=AXIS2_PLACEMENT_3D('',#426,#427,#428);
#296=SURFACE_SIDE_STYLE('',(#429));
#297=DRAUGHTING_PRE_DEFINED_CURVE_FONT('continuous');
#298=COLOUR_RGB('',0.0,1.0,0.0);
#299=EDGE_LOOP('',(#430));
#300=EDGE_LOOP('',(#431));
#301=AXIS2_PLACEMENT_3D('',#432,#433,#434);
#302=SURFACE_SIDE_STYLE('',(#435));
#303=DRAUGHTING_PRE_DEFINED_CURVE_FONT('continuous');
#304=COLOUR_RGB('',0.0,1.0,0.0);
#305=EDGE_LOOP('',(#436));
#306=EDGE_LOOP('',(#437));
#307=AXIS2_PLACEMENT_3D('',#438,#439,#440);
#308=DRAUGHTING_PRE_DEFINED_CURVE_FONT('continuous');
#309=COLOUR_RGB('',0.0,1.0,0.0);
#310=CARTESIAN_POINT('',(-9.79105115918309E-015,19.00000001,159.9));
#311=AXIS2_PLACEMENT_3D('',#441,#442,#443);
#312=SURFACE_SIDE_STYLE('',(#444));
#313=DRAUGHTING_PRE_DEFINED_CURVE_FONT('continuous');
#314=COLOUR_RGB('',0.0,1.0,0.0);
#315=EDGE_LOOP('',(#445));
#316=EDGE_LOOP('',(#446));
#317=AXIS2_PLACEMENT_3D('',#447,#448,#449);
#318=DRAUGHTING_PRE_DEFINED_CURVE_FONT('continuous');
#319=COLOUR_RGB('',0.0,1.0,0.0);
#320=CARTESIAN_POINT('',(-1.53080849893419E-015,11.7,25.0));
#321=AXIS2_PLACEMENT_3D('',#450,#451,#452);
#322=DRAUGHTING_PRE_DEFINED_CURVE_FONT('continuous');
#323=COLOUR_RGB('',0.0,1.0,0.0);
#324=CARTESIAN_POINT('',(-9.21099117995399E-015,15.0,150.42690164));
#325=AXIS2_PLACEMENT_3D('',#453,#454,#455);
#326=SURFACE_SIDE_STYLE('',(#456));
#327=DRAUGHTING_PRE_DEFINED_CURVE_FONT('continuous');
#328=COLOUR_RGB('',0.0,1.0,0.0);
#329=EDGE_LOOP('',(#457));
#330=EDGE_LOOP('',(#458));
#331=AXIS2_PLACEMENT_3D('',#459,#460,#461);
#332=SURFACE_SIDE_STYLE('',(#462));
#333=DRAUGHTING_PRE_DEFINED_CURVE_FONT('continuous');
#334=COLOUR_RGB('',0.0,1.0,0.0);
#335=SURFACE_SIDE_STYLE('',(#463));
#336=DRAUGHTING_PRE_DEFINED_CURVE_FONT('continuous');
#337=COLOUR_RGB('',0.0,1.0,0.0);
#338=EDGE_LOOP('',(#464));
#339=EDGE_LOOP('',(#465));
#340=AXIS2_PLACEMENT_3D('',#466,#467,#468);
#341=SURFACE_SIDE_STYLE('',(#469));
#342=DRAUGHTING_PRE_DEFINED_CURVE_FONT('continuous');
#343=COLOUR_RGB('',0.0,1.0,0.0);
#344=EDGE_LOOP('',(#470));
#345=EDGE_LOOP('',(#471));
#346=AXIS2_PLACEMENT_3D('',#472,#473,#474);
#347=DRAUGHTING_PRE_DEFINED_CURVE_FONT('continuous');
#348=COLOUR_RGB('',0.0,1.0,0.0);
#349=CARTESIAN_POINT('',(-1.35568400665612E-014,15.0,221.4));
#350=AXIS2_PLACEMENT_3D('',#475,#476,#477);
#351=DRAUGHTING_PRE_DEFINED_CURVE_FONT('continuous');
#352=COLOUR_RGB('',0.0,1.0,0.0);
#353=CARTESIAN_POINT('',(-9.70693392286745E-015,19.5,158.52626128));
#354=AXIS2_PLACEMENT_3D('',#478,#479,#480);
#355=DRAUGHTING_PRE_DEFINED_CURVE_FONT('continuous');
#356=COLOUR_RGB('',0.0,1.0,0.0);
#357=CARTESIAN_POINT('',(-1.46957615897682E-015,11.7,24.0));
#358=AXIS2_PLACEMENT_3D('',#481,#482,#483);
#359=SURFACE_SIDE_STYLE('',(#484));
#360=DRAUGHTING_PRE_DEFINED_CURVE_FONT('continuous');
#361=COLOUR_RGB('',0.0,1.0,0.0);
#362=EDGE_LOOP('',(#485));
#363=EDGE_LOOP('',(#486));
#364=AXIS2_PLACEMENT_3D('',#487,#488,#489);
#365=SURFACE_SIDE_STYLE('',(#490));
#366=DRAUGHTING_PRE_DEFINED_CURVE_FONT('continuous');
#367=COLOUR_RGB('',0.0,1.0,0.0);
#368=EDGE_LOOP('',(#491));
#369=EDGE_LOOP('',(#492));
#370=AXIS2_PLACEMENT_3D('',#493,#494,#495);
#371=SURFACE_SIDE_STYLE('',(#496));
#372=DRAUGHTING_PRE_DEFINED_CURVE_FONT('continuous');
#373=COLOUR_RGB('',0.0,1.0,0.0);
#374=EDGE_LOOP('',(#497));
#375=EDGE_LOOP('',(#498));
#376=AXIS2_PLACEMENT_3D('',#499,#500,#501);
#377=DRAUGHTING_PRE_DEFINED_CURVE_FONT('continuous');
#378=COLOUR_RGB('',0.0,1.0,0.0);
#379=CARTESIAN_POINT('',(-1.53080849893419E-015,15.0,25.0));
#380=AXIS2_PLACEMENT_3D('',#502,#503,#504);
#381=SURFACE_SIDE_STYLE('',(#505));
#382=DRAUGHTING_PRE_DEFINED_CURVE_FONT('continuous');
#383=COLOUR_RGB('',0.0,1.0,0.0);
#384=EDGE_LOOP('',(#506));
#385=EDGE_LOOP('',(#507));
#386=AXIS2_PLACEMENT_3D('',#508,#509,#510);
#387=DRAUGHTING_PRE_DEFINED_CURVE_FONT('continuous');
#388=COLOUR_RGB('',0.0,1.0,0.0);
#389=CARTESIAN_POINT('',(0.0,15.0,0.0));
#390=AXIS2_PLACEMENT_3D('',#511,#512,#513);
#392=CARTESIAN_POINT('',(-9.33180860933006E-015,-1.86636172186601E-014,152.399999997178));
#393=DIRECTION('',(6.12323399573677E-017,1.22464679914735E-016,-1.0));
#394=DIRECTION('',(-1.23259516440783E-032,1.0,1.22464679914735E-016));
#395=SURFACE_STYLE_FILL_AREA(#514);
#396=ORIENTED_EDGE('',*,*,#121,.F.);
#397=ORIENTED_EDGE('',*,*,#72,.T.);
#398=CARTESIAN_POINT('',(-6.65601425275367E-016,-1.33120285055073E-015,10.87009619));
#399=DIRECTION('',(6.12323399573677E-017,1.22464679914735E-016,-1.0));
#400=DIRECTION('',(-1.23259516440783E-032,1.0,1.22464679914735E-016));
#401=CARTESIAN_POINT('',(-9.79105115918309E-015,-1.95821023183662E-014,159.9));
#402=DIRECTION('',(6.12323399573677E-017,1.22464679914735E-016,-1.0));
#403=DIRECTION('',(-1.23259516440783E-032,1.0,1.22464679914735E-016));
#404=SURFACE_STYLE_FILL_AREA(#515);
#405=ORIENTED_EDGE('',*,*,#101,.F.);
#406=CARTESIAN_POINT('',(-1.35568400665612E-014,7.49999999999997,221.4));
#407=DIRECTION('',(-6.12323399573677E-017,-1.22464679914735E-016,1.0));
#408=DIRECTION('',(1.23259516440783E-032,-1.0,-1.22464679914735E-016));
#409=CARTESIAN_POINT('',(-1.34711147906209E-015,-2.69422295812418E-015,22.0));
#410=DIRECTION('',(6.12323399573677E-017,1.22464679914735E-016,-1.0));
#411=DIRECTION('',(-1.23259516440783E-032,1.0,1.22464679914735E-016));
#412=CARTESIAN_POINT('',(-1.46957615897682E-015,-2.93915231795365E-015,24.0));
#413=DIRECTION('',(6.12323399573677E-017,1.22464679914735E-016,-1.0));
#414=DIRECTION('',(-1.23259516440783E-032,1.0,1.22464679914735E-016));
#415=SURFACE_STYLE_FILL_AREA(#516);
#416=ORIENTED_EDGE('',*,*,#116,.F.);
#417=ORIENTED_EDGE('',*,*,#87,.T.);
#418=CARTESIAN_POINT('',(-5.37089983944409E-015,-1.07417996788882E-014,87.71345082));
#419=DIRECTION('',(6.12323399573677E-017,1.22464679914735E-016,-1.0));
#420=DIRECTION('',(-1.23259516440783E-032,1.0,1.22464679914735E-016));
#421=SURFACE_STYLE_FILL_AREA(#517);
#422=ORIENTED_EDGE('',*,*,#121,.T.);
#423=CARTESIAN_POINT('',(0.0,7.5,0.0));
#424=DIRECTION('',(6.12323399573677E-017,1.22464679914735E-016,-1.0));
#425=DIRECTION('',(-1.23259516440783E-032,1.0,1.22464679914735E-016));
#426=CARTESIAN_POINT('',(-1.33120285055073E-015,-2.66240570110147E-015,21.74019238));
#427=DIRECTION('',(6.12323399573677E-017,1.22464679914735E-016,-1.0));
#428=DIRECTION('',(-1.23259516440783E-032,1.0,1.22464679914735E-016));
#429=SURFACE_STYLE_FILL_AREA(#518);
#430=ORIENTED_EDGE('',*,*,#64,.F.);
#431=ORIENTED_EDGE('',*,*,#105,.T.);
#432=CARTESIAN_POINT('',(-1.46957615897682E-015,13.425,24.0));
#433=DIRECTION('',(-6.12323399573677E-017,-1.22464679914735E-016,1.0));
#434=DIRECTION('',(1.23259516440783E-032,-1.0,-1.22464679914735E-016));
#435=SURFACE_STYLE_FILL_AREA(#519);
#436=ORIENTED_EDGE('',*,*,#52,.F.);
#437=ORIENTED_EDGE('',*,*,#103,.T.);
#438=CARTESIAN_POINT('',(-9.51937126609875E-015,-1.90387425321975E-014,155.463130638589));
#439=DIRECTION('',(6.12323399573677E-017,1.22464679914735E-016,-1.0));
#440=DIRECTION('',(-1.23259516440783E-032,1.0,1.22464679914735E-016));
#441=CARTESIAN_POINT('',(-9.79105115918309E-015,-1.95821023183662E-014,159.9));
#442=DIRECTION('',(6.12323399573677E-017,1.22464679914735E-016,-1.0));
#443=DIRECTION('',(-1.23259516440783E-032,1.0,1.22464679914735E-016));
#444=SURFACE_STYLE_FILL_AREA(#520);
#445=ORIENTED_EDGE('',*,*,#57,.F.);
#446=ORIENTED_EDGE('',*,*,#101,.T.);
#447=CARTESIAN_POINT('',(-1.16739456128721E-014,-2.33478912257443E-014,190.65));
#448=DIRECTION('',(6.12323399573677E-017,1.22464679914735E-016,-1.0));
#449=DIRECTION('',(-1.23259516440783E-032,1.0,1.22464679914735E-016));
#450=CARTESIAN_POINT('',(-1.53080849893419E-015,-3.06161699786839E-015,25.0));
#451=DIRECTION('',(6.12323399573677E-017,1.22464679914735E-016,-1.0));
#452=DIRECTION('',(-1.23259516440783E-032,1.0,1.22464679914735E-016));
#453=CARTESIAN_POINT('',(-9.21099117995399E-015,-1.8421982359908E-014,150.42690164));
#454=DIRECTION('',(6.12323399573677E-017,1.22464679914735E-016,-1.0));
#455=DIRECTION('',(-1.23259516440783E-032,1.0,1.22464679914735E-016));
#456=SURFACE_STYLE_FILL_AREA(#521);
#457=ORIENTED_EDGE('',*,*,#80,.F.);
#458=ORIENTED_EDGE('',*,*,#57,.T.);
#459=CARTESIAN_POINT('',(-9.79105115918309E-015,17.000000005,159.9));
#460=DIRECTION('',(-6.12323399573677E-017,-1.22464679914735E-016,1.0));
#461=DIRECTION('',(1.23259516440783E-032,-1.0,-1.22464679914735E-016));
#462=SURFACE_STYLE_FILL_AREA(#522);
#463=SURFACE_STYLE_FILL_AREA(#523);
#464=ORIENTED_EDGE('',*,*,#62,.F.);
#465=ORIENTED_EDGE('',*,*,#64,.T.);
#466=CARTESIAN_POINT('',(-1.40834381901946E-015,-2.81668763803891E-015,23.0));
#467=DIRECTION('',(6.12323399573677E-017,1.22464679914735E-016,-1.0));
#468=DIRECTION('',(-1.23259516440783E-032,1.0,1.22464679914735E-016));
#469=SURFACE_STYLE_FILL_AREA(#524);
#470=ORIENTED_EDGE('',*,*,#72,.F.);
#471=ORIENTED_EDGE('',*,*,#62,.T.);
#472=CARTESIAN_POINT('',(-1.33915716480641E-015,-2.67831432961282E-015,21.87009619));
#473=DIRECTION('',(-6.12323399573677E-017,-1.22464679914735E-016,1.0));
#474=DIRECTION('',(-1.23259516440783E-032,1.0,1.22464679914735E-016));
#475=CARTESIAN_POINT('',(-1.35568400665612E-014,-2.71136801331224E-014,221.4));
#476=DIRECTION('',(6.12323399573677E-017,1.22464679914735E-016,-1.0));
#477=DIRECTION('',(-1.23259516440783E-032,1.0,1.22464679914735E-016));
#478=CARTESIAN_POINT('',(-9.70693392286745E-015,-1.94138678457349E-014,158.52626128));
#479=DIRECTION('',(6.12323399573677E-017,1.22464679914735E-016,-1.0));
#480=DIRECTION('',(-1.23259516440783E-032,1.0,1.22464679914735E-016));
#481=CARTESIAN_POINT('',(-1.46957615897682E-015,-2.93915231795365E-015,24.0));
#482=DIRECTION('',(6.12323399573677E-017,1.22464679914735E-016,-1.0));
#483=DIRECTION('',(-1.23259516440783E-032,1.0,1.22464679914735E-016));
#484=SURFACE_STYLE_FILL_AREA(#525);
#485=ORIENTED_EDGE('',*,*,#87,.F.);
#486=ORIENTED_EDGE('',*,*,#52,.T.);
#487=CARTESIAN_POINT('',(-9.27139989464202E-015,-1.8542799789284E-014,151.413450818589));
#488=DIRECTION('',(-6.12323399573677E-017,-1.22464679914735E-016,1.0));
#489=DIRECTION('',(-1.23259516440783E-032,1.0,1.22464679914735E-016));
#490=SURFACE_STYLE_FILL_AREA(#526);
#491=ORIENTED_EDGE('',*,*,#103,.F.);
#492=ORIENTED_EDGE('',*,*,#80,.T.);
#493=CARTESIAN_POINT('',(-9.74899254102527E-015,-1.94979850820505E-014,159.21313064));
#494=DIRECTION('',(6.12323399573677E-017,1.22464679914735E-016,-1.0));
#495=DIRECTION('',(-1.23259516440783E-032,1.0,1.22464679914735E-016));
#496=SURFACE_STYLE_FILL_AREA(#527);
#497=ORIENTED_EDGE('',*,*,#105,.F.);
#498=ORIENTED_EDGE('',*,*,#85,.T.);
#499=CARTESIAN_POINT('',(-1.50019232895551E-015,-3.00038465791102E-015,24.5));
#500=DIRECTION('',(6.12323399573677E-017,1.22464679914735E-016,-1.0));
#501=DIRECTION('',(-1.23259516440783E-032,1.0,1.22464679914735E-016));
#502=CARTESIAN_POINT('',(-1.53080849893419E-015,-3.06161699786839E-015,25.0));
#503=DIRECTION('',(6.12323399573677E-017,1.22464679914735E-016,-1.0));
#504=DIRECTION('',(-1.23259516440783E-032,1.0,1.22464679914735E-016));
#505=SURFACE_STYLE_FILL_AREA(#528);
#506=ORIENTED_EDGE('',*,*,#85,.F.);
#507=ORIENTED_EDGE('',*,*,#116,.T.);
#508=CARTESIAN_POINT('',(-1.53080849893419E-015,13.35,25.0));
#509=DIRECTION('',(6.12323399573677E-017,1.22464679914735E-016,-1.0));
#510=DIRECTION('',(-1.23259516440783E-032,1.0,1.22464679914735E-016));
#511=CARTESIAN_POINT('',(0.0,0.0,0.0));
#512=DIRECTION('',(6.12323399573677E-017,1.22464679914735E-016,-1.0));
#513=DIRECTION('',(-1.23259516440783E-032,1.0,1.22464679914735E-016));
#514=FILL_AREA_STYLE('',(#529));
#515=FILL_AREA_STYLE('',(#530));
#516=FILL_AREA_STYLE('',(#531));
#517=FILL_AREA_STYLE('',(#532));
#518=FILL_AREA_STYLE('',(#533));
#519=FILL_AREA_STYLE('',(#534));
#520=FILL_AREA_STYLE('',(#535));
#521=FILL_AREA_STYLE('',(#536));
#522=FILL_AREA_STYLE('',(#537));
#523=FILL_AREA_STYLE('',(#538));
#524=FILL_AREA_STYLE('',(#539));
#525=FILL_AREA_STYLE('',(#540));
#526=FILL_AREA_STYLE('',(#541));
#527=FILL_AREA_STYLE('',(#542));
#528=FILL_AREA_STYLE('',(#543));
#529=FILL_AREA_STYLE_COLOUR('',#544);
#530=FILL_AREA_STYLE_COLOUR('',#545);
#531=FILL_AREA_STYLE_COLOUR('',#546);
#532=FILL_AREA_STYLE_COLOUR('',#547);
#533=FILL_AREA_STYLE_COLOUR('',#548);
#534=FILL_AREA_STYLE_COLOUR('',#549);
#535=FILL_AREA_STYLE_COLOUR('',#550);
#536=FILL_AREA_STYLE_COLOUR('',#551);
#537=FILL_AREA_STYLE_COLOUR('',#552);
#538=FILL_AREA_STYLE_COLOUR('',#553);
#539=FILL_AREA_STYLE_COLOUR('',#554);
#540=FILL_AREA_STYLE_COLOUR('',#555);
#541=FILL_AREA_STYLE_COLOUR('',#556);
#542=FILL_AREA_STYLE_COLOUR('',#557);
#543=FILL_AREA_STYLE_COLOUR('',#558);
#544=COLOUR_RGB('',0.0,1.0,0.0);
#545=COLOUR_RGB('',0.0,1.0,0.0);
#546=COLOUR_RGB('',0.0,1.0,0.0);
#547=COLOUR_RGB('',0.0,1.0,0.0);
#548=COLOUR_RGB('',0.0,1.0,0.0);
#549=COLOUR_RGB('',0.0,1.0,0.0);
#550=COLOUR_RGB('',0.0,1.0,0.0);
#551=COLOUR_RGB('',0.0,1.0,0.0);
#552=COLOUR_RGB('',0.0,1.0,0.0);
#553=COLOUR_RGB('',0.0,1.0,0.0);
#554=COLOUR_RGB('',0.0,1.0,0.0);
#555=COLOUR_RGB('',0.0,1.0,0.0);
#556=COLOUR_RGB('',0.0,1.0,0.0);
#557=COLOUR_RGB('',0.0,1.0,0.0);
#558=COLOUR_RGB('',0.0,1.0,0.0);
ENDSEC;
END-ISO-10303-21;
