ISO-10303-21;
HEADER;
FILE_DESCRIPTION((''),'1');
FILE_NAME('V:/02_3D_Field-HP\X2\FF71FF6FFF8CFF9F5916\X0\2013/02_Step_Field-HP\X2\FF71FF6FFF8CFF9F5916\X0\2013/31_\X2\30E130AC30B730F330AF30ED30BF30C330D430F330B030DB30EB30C0\X0\ MGT/MGT_ANSI_STEP/MGT20-AU1_2-AP1_4-4.5.stp','2018-02-02T00:43:09',(''),(''),'Spatial Interop R21 SP3','Kubotek KeyCreator 2011 V10.0.2 (22737)',' ');
FILE_SCHEMA(('automotive_design'));
ENDSEC;
DATA;
#1=MECHANICAL_DESIGN_GEOMETRIC_PRESENTATION_REPRESENTATION(' ',(#10,#11,#12,#13,#14,#15,#16,#17,#18,#19,#20,#21,#22,#23,#24,#25,#26,#27,#28,#29,#30,#31,#32,#33,#34,#35,#36,#37),#6);
#2=PRODUCT_DEFINITION_CONTEXT('',#38,'design');
#3=APPLICATION_PROTOCOL_DEFINITION('INTERNATIONAL STANDARD','automotive_design',1994,#38);
#4=PRODUCT_CATEGORY_RELATIONSHIP('NONE','NONE',#39,#40);
#5=SHAPE_DEFINITION_REPRESENTATION(#41,#42);
#6= (GEOMETRIC_REPRESENTATION_CONTEXT(3)GLOBAL_UNCERTAINTY_ASSIGNED_CONTEXT((#45))GLOBAL_UNIT_ASSIGNED_CONTEXT((#47,#48,#49))REPRESENTATION_CONTEXT('NONE','WORKSPACE'));
#10=STYLED_ITEM('',(#51),#52);
#11=STYLED_ITEM('',(#53,#54),#55);
#12=STYLED_ITEM('',(#56),#57);
#13=STYLED_ITEM('',(#58),#59);
#14=STYLED_ITEM('',(#60),#61);
#15=STYLED_ITEM('',(#62),#63);
#16=STYLED_ITEM('',(#64,#65),#66);
#17=STYLED_ITEM('',(#67,#68),#69);
#18=STYLED_ITEM('',(#70),#71);
#19=STYLED_ITEM('',(#72,#73),#74);
#20=STYLED_ITEM('',(#75,#76),#77);
#21=STYLED_ITEM('',(#78,#79),#80);
#22=STYLED_ITEM('',(#81),#82);
#23=STYLED_ITEM('',(#83,#84),#85);
#24=STYLED_ITEM('',(#86),#87);
#25=STYLED_ITEM('',(#88,#89),#90);
#26=STYLED_ITEM('',(#91),#92);
#27=STYLED_ITEM('',(#93,#94),#95);
#28=STYLED_ITEM('',(#96),#97);
#29=STYLED_ITEM('',(#98,#99),#100);
#30=STYLED_ITEM('',(#101,#102),#103);
#31=STYLED_ITEM('',(#104,#105),#106);
#32=STYLED_ITEM('',(#107),#108);
#33=STYLED_ITEM('',(#109),#110);
#34=STYLED_ITEM('',(#111,#112),#113);
#35=STYLED_ITEM('',(#114,#115),#116);
#36=STYLED_ITEM('',(#117,#118),#119);
#37=STYLED_ITEM('',(#120),#121);
#38=APPLICATION_CONTEXT(' ');
#39=PRODUCT_CATEGORY('part','NONE');
#40=PRODUCT_RELATED_PRODUCT_CATEGORY('detail',' ',(#122));
#41=PRODUCT_DEFINITION_SHAPE('NONE','NONE',#123);
#42=ADVANCED_BREP_SHAPE_REPRESENTATION('Unnamed[1]',(#85,#124),#6);
#45=UNCERTAINTY_MEASURE_WITH_UNIT(LENGTH_MEASURE(1.0E-006),#47,'','');
#47= (CONVERSION_BASED_UNIT('MILLIMETRE',#127)LENGTH_UNIT()NAMED_UNIT(#130));
#48= (NAMED_UNIT(#132)PLANE_ANGLE_UNIT()SI_UNIT($,.RADIAN.));
#49= (NAMED_UNIT(#132)SOLID_ANGLE_UNIT()SI_UNIT($,.STERADIAN.));
#51=PRESENTATION_STYLE_ASSIGNMENT((#138));
#52=EDGE_CURVE('Unnamed[1]',#139,#139,#140,.T.);
#53=PRESENTATION_STYLE_ASSIGNMENT((#141));
#54=PRESENTATION_STYLE_ASSIGNMENT((#142));
#55=ADVANCED_FACE('Unnamed[1]',(#143,#144),#145,.T.);
#56=PRESENTATION_STYLE_ASSIGNMENT((#146));
#57=EDGE_CURVE('Unnamed[1]',#147,#147,#148,.T.);
#58=PRESENTATION_STYLE_ASSIGNMENT((#149));
#59=EDGE_CURVE('Unnamed[1]',#150,#150,#151,.T.);
#60=PRESENTATION_STYLE_ASSIGNMENT((#152));
#61=EDGE_CURVE('Unnamed[1]',#153,#153,#154,.T.);
#62=PRESENTATION_STYLE_ASSIGNMENT((#155));
#63=EDGE_CURVE('Unnamed[1]',#156,#156,#157,.T.);
#64=PRESENTATION_STYLE_ASSIGNMENT((#158));
#65=PRESENTATION_STYLE_ASSIGNMENT((#159));
#66=ADVANCED_FACE('Unnamed[1]',(#160,#161),#162,.T.);
#67=PRESENTATION_STYLE_ASSIGNMENT((#163));
#68=PRESENTATION_STYLE_ASSIGNMENT((#164));
#69=ADVANCED_FACE('Unnamed[1]',(#165,#166),#167,.T.);
#70=PRESENTATION_STYLE_ASSIGNMENT((#168));
#71=EDGE_CURVE('Unnamed[1]',#169,#169,#170,.T.);
#72=PRESENTATION_STYLE_ASSIGNMENT((#171));
#73=PRESENTATION_STYLE_ASSIGNMENT((#172));
#74=ADVANCED_FACE('Unnamed[1]',(#173),#174,.T.);
#75=PRESENTATION_STYLE_ASSIGNMENT((#175));
#76=PRESENTATION_STYLE_ASSIGNMENT((#176));
#77=ADVANCED_FACE('Unnamed[1]',(#177,#178),#179,.T.);
#78=PRESENTATION_STYLE_ASSIGNMENT((#180));
#79=PRESENTATION_STYLE_ASSIGNMENT((#181));
#80=ADVANCED_FACE('Unnamed[1]',(#182,#183),#184,.T.);
#81=PRESENTATION_STYLE_ASSIGNMENT((#185));
#82=EDGE_CURVE('Unnamed[1]',#186,#186,#187,.T.);
#83=PRESENTATION_STYLE_ASSIGNMENT((#188));
#84=PRESENTATION_STYLE_ASSIGNMENT((#189));
#85=MANIFOLD_SOLID_BREP('Unnamed[1]',#190);
#86=PRESENTATION_STYLE_ASSIGNMENT((#191));
#87=EDGE_CURVE('Unnamed[1]',#192,#192,#193,.T.);
#88=PRESENTATION_STYLE_ASSIGNMENT((#194));
#89=PRESENTATION_STYLE_ASSIGNMENT((#195));
#90=ADVANCED_FACE('Unnamed[1]',(#196,#197),#198,.T.);
#91=PRESENTATION_STYLE_ASSIGNMENT((#199));
#92=EDGE_CURVE('Unnamed[1]',#200,#200,#201,.T.);
#93=PRESENTATION_STYLE_ASSIGNMENT((#202));
#94=PRESENTATION_STYLE_ASSIGNMENT((#203));
#95=ADVANCED_FACE('Unnamed[1]',(#204,#205),#206,.T.);
#96=PRESENTATION_STYLE_ASSIGNMENT((#207));
#97=EDGE_CURVE('Unnamed[1]',#208,#208,#209,.T.);
#98=PRESENTATION_STYLE_ASSIGNMENT((#210));
#99=PRESENTATION_STYLE_ASSIGNMENT((#211));
#100=ADVANCED_FACE('Unnamed[1]',(#212,#213),#214,.T.);
#101=PRESENTATION_STYLE_ASSIGNMENT((#215));
#102=PRESENTATION_STYLE_ASSIGNMENT((#216));
#103=ADVANCED_FACE('Unnamed[1]',(#217,#218),#219,.T.);
#104=PRESENTATION_STYLE_ASSIGNMENT((#220));
#105=PRESENTATION_STYLE_ASSIGNMENT((#221));
#106=ADVANCED_FACE('Unnamed[1]',(#222,#223),#224,.T.);
#107=PRESENTATION_STYLE_ASSIGNMENT((#225));
#108=EDGE_CURVE('Unnamed[1]',#226,#226,#227,.T.);
#109=PRESENTATION_STYLE_ASSIGNMENT((#228));
#110=EDGE_CURVE('Unnamed[1]',#229,#229,#230,.T.);
#111=PRESENTATION_STYLE_ASSIGNMENT((#231));
#112=PRESENTATION_STYLE_ASSIGNMENT((#232));
#113=ADVANCED_FACE('Unnamed[1]',(#233,#234),#235,.T.);
#114=PRESENTATION_STYLE_ASSIGNMENT((#236));
#115=PRESENTATION_STYLE_ASSIGNMENT((#237));
#116=ADVANCED_FACE('Unnamed[1]',(#238),#239,.T.);
#117=PRESENTATION_STYLE_ASSIGNMENT((#240));
#118=PRESENTATION_STYLE_ASSIGNMENT((#241));
#119=ADVANCED_FACE('Unnamed[1]',(#242,#243),#244,.T.);
#120=PRESENTATION_STYLE_ASSIGNMENT((#245));
#121=EDGE_CURVE('Unnamed[1]',#246,#246,#247,.T.);
#122=PRODUCT('Unnamed[1]','Unnamed[1]','PART-Unnamed[1]-DESC',(#248));
#123=PRODUCT_DEFINITION('NONE','NONE',#249,#2);
#124=AXIS2_PLACEMENT_3D('',#250,#251,#252);
#127=LENGTH_MEASURE_WITH_UNIT(LENGTH_MEASURE(1.0),#253);
#130=DIMENSIONAL_EXPONENTS(1.0,0.0,0.0,0.0,0.0,0.0,0.0);
#132=DIMENSIONAL_EXPONENTS(0.0,0.0,0.0,0.0,0.0,0.0,0.0);
#138=CURVE_STYLE('',#254,POSITIVE_LENGTH_MEASURE(1000.0),#255);
#139=VERTEX_POINT('',#256);
#140=CIRCLE('',#257,15.0);
#141=SURFACE_STYLE_USAGE(.BOTH.,#258);
#142=CURVE_STYLE('',#259,POSITIVE_LENGTH_MEASURE(1000.0),#260);
#143=FACE_BOUND('',#261,.T.);
#144=FACE_BOUND('',#262,.T.);
#145=CYLINDRICAL_SURFACE('',#263,15.0);
#146=CURVE_STYLE('',#264,POSITIVE_LENGTH_MEASURE(1000.0),#265);
#147=VERTEX_POINT('',#266);
#148=CIRCLE('',#267,19.5);
#149=CURVE_STYLE('',#268,POSITIVE_LENGTH_MEASURE(1000.0),#269);
#150=VERTEX_POINT('',#270);
#151=CIRCLE('',#271,15.0);
#152=CURVE_STYLE('',#272,POSITIVE_LENGTH_MEASURE(1000.0),#273);
#153=VERTEX_POINT('',#274);
#154=CIRCLE('',#275,11.7);
#155=CURVE_STYLE('',#276,POSITIVE_LENGTH_MEASURE(1000.0),#277);
#156=VERTEX_POINT('',#278);
#157=CIRCLE('',#279,15.0);
#158=SURFACE_STYLE_USAGE(.BOTH.,#280);
#159=CURVE_STYLE('',#281,POSITIVE_LENGTH_MEASURE(1000.0),#282);
#160=FACE_BOUND('',#283,.T.);
#161=FACE_BOUND('',#284,.T.);
#162=CYLINDRICAL_SURFACE('',#285,15.0);
#163=SURFACE_STYLE_USAGE(.BOTH.,#286);
#164=CURVE_STYLE('',#287,POSITIVE_LENGTH_MEASURE(1000.0),#288);
#165=FACE_BOUND('',#289,.T.);
#166=FACE_BOUND('',#290,.T.);
#167=CYLINDRICAL_SURFACE('',#291,19.5);
#168=CURVE_STYLE('',#292,POSITIVE_LENGTH_MEASURE(1000.0),#293);
#169=VERTEX_POINT('',#294);
#170=CIRCLE('',#295,19.00000001);
#171=SURFACE_STYLE_USAGE(.BOTH.,#296);
#172=CURVE_STYLE('',#297,POSITIVE_LENGTH_MEASURE(1000.0),#298);
#173=FACE_OUTER_BOUND('',#299,.T.);
#174=PLANE('',#300);
#175=SURFACE_STYLE_USAGE(.BOTH.,#301);
#176=CURVE_STYLE('',#302,POSITIVE_LENGTH_MEASURE(1000.0),#303);
#177=FACE_BOUND('',#304,.T.);
#178=FACE_OUTER_BOUND('',#305,.T.);
#179=PLANE('',#306);
#180=SURFACE_STYLE_USAGE(.BOTH.,#307);
#181=CURVE_STYLE('',#308,POSITIVE_LENGTH_MEASURE(1000.0),#309);
#182=FACE_BOUND('',#310,.T.);
#183=FACE_BOUND('',#311,.T.);
#184=CYLINDRICAL_SURFACE('',#312,15.15);
#185=CURVE_STYLE('',#313,POSITIVE_LENGTH_MEASURE(1000.0),#314);
#186=VERTEX_POINT('',#315);
#187=CIRCLE('',#316,19.5);
#188=SURFACE_STYLE_USAGE(.BOTH.,#317);
#189=CURVE_STYLE('',#318,POSITIVE_LENGTH_MEASURE(1000.0),#319);
#190=CLOSED_SHELL('',(#74,#66,#100,#103,#69,#90,#55,#77,#119,#95,#80,#113,#106,#116));
#191=CURVE_STYLE('',#320,POSITIVE_LENGTH_MEASURE(1000.0),#321);
#192=VERTEX_POINT('',#322);
#193=CIRCLE('',#323,15.15);
#194=SURFACE_STYLE_USAGE(.BOTH.,#324);
#195=CURVE_STYLE('',#325,POSITIVE_LENGTH_MEASURE(1000.0),#326);
#196=FACE_BOUND('',#327,.T.);
#197=FACE_BOUND('',#328,.T.);
#198=CONICAL_SURFACE('',#329,17.25,1.15757511336881);
#199=CURVE_STYLE('',#330,POSITIVE_LENGTH_MEASURE(1000.0),#331);
#200=VERTEX_POINT('',#332);
#201=CIRCLE('',#333,15.0);
#202=SURFACE_STYLE_USAGE(.BOTH.,#334);
#203=CURVE_STYLE('',#335,POSITIVE_LENGTH_MEASURE(1000.0),#336);
#204=FACE_OUTER_BOUND('',#337,.T.);
#205=FACE_BOUND('',#338,.T.);
#206=PLANE('',#339);
#207=CURVE_STYLE('',#340,POSITIVE_LENGTH_MEASURE(1000.0),#341);
#208=VERTEX_POINT('',#342);
#209=CIRCLE('',#343,15.15);
#210=SURFACE_STYLE_USAGE(.BOTH.,#344);
#211=CURVE_STYLE('',#345,POSITIVE_LENGTH_MEASURE(1000.0),#346);
#212=FACE_OUTER_BOUND('',#347,.T.);
#213=FACE_BOUND('',#348,.T.);
#214=PLANE('',#349);
#215=SURFACE_STYLE_USAGE(.BOTH.,#350);
#216=CURVE_STYLE('',#351,POSITIVE_LENGTH_MEASURE(1000.0),#352);
#217=FACE_BOUND('',#353,.T.);
#218=FACE_BOUND('',#354,.T.);
#219=CONICAL_SURFACE('',#355,19.250000005,0.349065841567636);
#220=SURFACE_STYLE_USAGE(.BOTH.,#356);
#221=CURVE_STYLE('',#357,POSITIVE_LENGTH_MEASURE(1000.0),#358);
#222=FACE_BOUND('',#359,.T.);
#223=FACE_BOUND('',#360,.T.);
#224=CYLINDRICAL_SURFACE('',#361,15.0);
#225=CURVE_STYLE('',#362,POSITIVE_LENGTH_MEASURE(1000.0),#363);
#226=VERTEX_POINT('',#364);
#227=CIRCLE('',#365,15.0);
#228=CURVE_STYLE('',#366,POSITIVE_LENGTH_MEASURE(1000.0),#367);
#229=VERTEX_POINT('',#368);
#230=CIRCLE('',#369,15.0);
#231=SURFACE_STYLE_USAGE(.BOTH.,#370);
#232=CURVE_STYLE('',#371,POSITIVE_LENGTH_MEASURE(1000.0),#372);
#233=FACE_BOUND('',#373,.T.);
#234=FACE_BOUND('',#374,.T.);
#235=CONICAL_SURFACE('',#375,15.075,0.523598777490513);
#236=SURFACE_STYLE_USAGE(.BOTH.,#376);
#237=CURVE_STYLE('',#377,POSITIVE_LENGTH_MEASURE(1000.0),#378);
#238=FACE_OUTER_BOUND('',#379,.T.);
#239=PLANE('',#380);
#240=SURFACE_STYLE_USAGE(.BOTH.,#381);
#241=CURVE_STYLE('',#382,POSITIVE_LENGTH_MEASURE(1000.0),#383);
#242=FACE_BOUND('',#384,.T.);
#243=FACE_BOUND('',#385,.T.);
#244=CYLINDRICAL_SURFACE('',#386,11.7);
#245=CURVE_STYLE('',#387,POSITIVE_LENGTH_MEASURE(1000.0),#388);
#246=VERTEX_POINT('',#389);
#247=CIRCLE('',#390,11.7);
#248=PRODUCT_CONTEXT('',#38,'mechanical');
#249=PRODUCT_DEFINITION_FORMATION_WITH_SPECIFIED_SOURCE(' ','NONE',#122,.NOT_KNOWN.);
#250=CARTESIAN_POINT('',(0.0,0.0,0.0));
#251=DIRECTION('',(0.0,0.0,1.0));
#252=DIRECTION('',(1.0,0.0,0.0));
#253= (NAMED_UNIT(#130)LENGTH_UNIT()SI_UNIT(.MILLI.,.METRE.));
#254=DRAUGHTING_PRE_DEFINED_CURVE_FONT('continuous');
#255=COLOUR_RGB('',0.0,1.0,0.0);
#256=CARTESIAN_POINT('',(0.0,15.0,0.0));
#257=AXIS2_PLACEMENT_3D('',#392,#393,#394);
#258=SURFACE_SIDE_STYLE('',(#395));
#259=DRAUGHTING_PRE_DEFINED_CURVE_FONT('continuous');
#260=COLOUR_RGB('',0.0,1.0,0.0);
#261=EDGE_LOOP('',(#396));
#262=EDGE_LOOP('',(#397));
#263=AXIS2_PLACEMENT_3D('',#398,#399,#400);
#264=DRAUGHTING_PRE_DEFINED_CURVE_FONT('continuous');
#265=COLOUR_RGB('',0.0,1.0,0.0);
#266=CARTESIAN_POINT('',(-7.37398177049174E-015,19.5,120.42626128));
#267=AXIS2_PLACEMENT_3D('',#401,#402,#403);
#268=DRAUGHTING_PRE_DEFINED_CURVE_FONT('continuous');
#269=COLOUR_RGB('',0.0,1.0,0.0);
#270=CARTESIAN_POINT('',(-6.87803902757828E-015,15.0,112.32690164));
#271=AXIS2_PLACEMENT_3D('',#404,#405,#406);
#272=DRAUGHTING_PRE_DEFINED_CURVE_FONT('continuous');
#273=COLOUR_RGB('',0.0,1.0,0.0);
#274=CARTESIAN_POINT('',(-1.53080849893419E-015,11.7,25.0));
#275=AXIS2_PLACEMENT_3D('',#407,#408,#409);
#276=DRAUGHTING_PRE_DEFINED_CURVE_FONT('continuous');
#277=COLOUR_RGB('',0.0,1.0,0.0);
#278=CARTESIAN_POINT('',(-1.33120285055073E-015,15.0,21.74019238));
#279=AXIS2_PLACEMENT_3D('',#410,#411,#412);
#280=SURFACE_SIDE_STYLE('',(#413));
#281=DRAUGHTING_PRE_DEFINED_CURVE_FONT('continuous');
#282=COLOUR_RGB('',0.0,1.0,0.0);
#283=EDGE_LOOP('',(#414));
#284=EDGE_LOOP('',(#415));
#285=AXIS2_PLACEMENT_3D('',#416,#417,#418);
#286=SURFACE_SIDE_STYLE('',(#419));
#287=DRAUGHTING_PRE_DEFINED_CURVE_FONT('continuous');
#288=COLOUR_RGB('',0.0,1.0,0.0);
#289=EDGE_LOOP('',(#420));
#290=EDGE_LOOP('',(#421));
#291=AXIS2_PLACEMENT_3D('',#422,#423,#424);
#292=DRAUGHTING_PRE_DEFINED_CURVE_FONT('continuous');
#293=COLOUR_RGB('',0.0,1.0,0.0);
#294=CARTESIAN_POINT('',(-7.45809900680738E-015,19.00000001,121.8));
#295=AXIS2_PLACEMENT_3D('',#425,#426,#427);
#296=SURFACE_SIDE_STYLE('',(#428));
#297=DRAUGHTING_PRE_DEFINED_CURVE_FONT('continuous');
#298=COLOUR_RGB('',0.0,1.0,0.0);
#299=EDGE_LOOP('',(#429));
#300=AXIS2_PLACEMENT_3D('',#430,#431,#432);
#301=SURFACE_SIDE_STYLE('',(#433));
#302=DRAUGHTING_PRE_DEFINED_CURVE_FONT('continuous');
#303=COLOUR_RGB('',0.0,1.0,0.0);
#304=EDGE_LOOP('',(#434));
#305=EDGE_LOOP('',(#435));
#306=AXIS2_PLACEMENT_3D('',#436,#437,#438);
#307=SURFACE_SIDE_STYLE('',(#439));
#308=DRAUGHTING_PRE_DEFINED_CURVE_FONT('continuous');
#309=COLOUR_RGB('',0.0,1.0,0.0);
#310=EDGE_LOOP('',(#440));
#311=EDGE_LOOP('',(#441));
#312=AXIS2_PLACEMENT_3D('',#442,#443,#444);
#313=DRAUGHTING_PRE_DEFINED_CURVE_FONT('continuous');
#314=COLOUR_RGB('',0.0,1.0,0.0);
#315=CARTESIAN_POINT('',(-6.99885645695435E-015,19.5,114.299999997178));
#316=AXIS2_PLACEMENT_3D('',#445,#446,#447);
#317=SURFACE_SIDE_STYLE('',(#448));
#318=DRAUGHTING_PRE_DEFINED_CURVE_FONT('continuous');
#319=COLOUR_RGB('',0.0,1.0,0.0);
#320=DRAUGHTING_PRE_DEFINED_CURVE_FONT('continuous');
#321=COLOUR_RGB('',0.0,1.0,0.0);
#322=CARTESIAN_POINT('',(-1.46957615897682E-015,15.15,24.0));
#323=AXIS2_PLACEMENT_3D('',#449,#450,#451);
#324=SURFACE_SIDE_STYLE('',(#452));
#325=DRAUGHTING_PRE_DEFINED_CURVE_FONT('continuous');
#326=COLOUR_RGB('',0.0,1.0,0.0);
#327=EDGE_LOOP('',(#453));
#328=EDGE_LOOP('',(#454));
#329=AXIS2_PLACEMENT_3D('',#455,#456,#457);
#330=DRAUGHTING_PRE_DEFINED_CURVE_FONT('continuous');
#331=COLOUR_RGB('',0.0,1.0,0.0);
#332=CARTESIAN_POINT('',(-1.12238879141855E-014,15.0,183.3));
#333=AXIS2_PLACEMENT_3D('',#458,#459,#460);
#334=SURFACE_SIDE_STYLE('',(#461));
#335=DRAUGHTING_PRE_DEFINED_CURVE_FONT('continuous');
#336=COLOUR_RGB('',0.0,1.0,0.0);
#337=EDGE_LOOP('',(#462));
#338=EDGE_LOOP('',(#463));
#339=AXIS2_PLACEMENT_3D('',#464,#465,#466);
#340=DRAUGHTING_PRE_DEFINED_CURVE_FONT('continuous');
#341=COLOUR_RGB('',0.0,1.0,0.0);
#342=CARTESIAN_POINT('',(-1.34711147906209E-015,15.15,22.0));
#343=AXIS2_PLACEMENT_3D('',#467,#468,#469);
#344=SURFACE_SIDE_STYLE('',(#470));
#345=DRAUGHTING_PRE_DEFINED_CURVE_FONT('continuous');
#346=COLOUR_RGB('',0.0,1.0,0.0);
#347=EDGE_LOOP('',(#471));
#348=EDGE_LOOP('',(#472));
#349=AXIS2_PLACEMENT_3D('',#473,#474,#475);
#350=SURFACE_SIDE_STYLE('',(#476));
#351=DRAUGHTING_PRE_DEFINED_CURVE_FONT('continuous');
#352=COLOUR_RGB('',0.0,1.0,0.0);
#353=EDGE_LOOP('',(#477));
#354=EDGE_LOOP('',(#478));
#355=AXIS2_PLACEMENT_3D('',#479,#480,#481);
#356=SURFACE_SIDE_STYLE('',(#482));
#357=DRAUGHTING_PRE_DEFINED_CURVE_FONT('continuous');
#358=COLOUR_RGB('',0.0,1.0,0.0);
#359=EDGE_LOOP('',(#483));
#360=EDGE_LOOP('',(#484));
#361=AXIS2_PLACEMENT_3D('',#485,#486,#487);
#362=DRAUGHTING_PRE_DEFINED_CURVE_FONT('continuous');
#363=COLOUR_RGB('',0.0,1.0,0.0);
#364=CARTESIAN_POINT('',(-7.45809900680738E-015,15.0,121.8));
#365=AXIS2_PLACEMENT_3D('',#488,#489,#490);
#366=DRAUGHTING_PRE_DEFINED_CURVE_FONT('continuous');
#367=COLOUR_RGB('',0.0,1.0,0.0);
#368=CARTESIAN_POINT('',(-1.53080849893419E-015,15.0,25.0));
#369=AXIS2_PLACEMENT_3D('',#491,#492,#493);
#370=SURFACE_SIDE_STYLE('',(#494));
#371=DRAUGHTING_PRE_DEFINED_CURVE_FONT('continuous');
#372=COLOUR_RGB('',0.0,1.0,0.0);
#373=EDGE_LOOP('',(#495));
#374=EDGE_LOOP('',(#496));
#375=AXIS2_PLACEMENT_3D('',#497,#498,#499);
#376=SURFACE_SIDE_STYLE('',(#500));
#377=DRAUGHTING_PRE_DEFINED_CURVE_FONT('continuous');
#378=COLOUR_RGB('',0.0,1.0,0.0);
#379=EDGE_LOOP('',(#501));
#380=AXIS2_PLACEMENT_3D('',#502,#503,#504);
#381=SURFACE_SIDE_STYLE('',(#505));
#382=DRAUGHTING_PRE_DEFINED_CURVE_FONT('continuous');
#383=COLOUR_RGB('',0.0,1.0,0.0);
#384=EDGE_LOOP('',(#506));
#385=EDGE_LOOP('',(#507));
#386=AXIS2_PLACEMENT_3D('',#508,#509,#510);
#387=DRAUGHTING_PRE_DEFINED_CURVE_FONT('continuous');
#388=COLOUR_RGB('',0.0,1.0,0.0);
#389=CARTESIAN_POINT('',(-1.46957615897682E-015,11.7,24.0));
#390=AXIS2_PLACEMENT_3D('',#511,#512,#513);
#392=CARTESIAN_POINT('',(0.0,0.0,0.0));
#393=DIRECTION('',(6.12323399573677E-017,1.22464679914693E-016,-1.0));
#394=DIRECTION('',(-1.23259516440783E-032,1.0,1.22464679914693E-016));
#395=SURFACE_STYLE_FILL_AREA(#514);
#396=ORIENTED_EDGE('',*,*,#110,.F.);
#397=ORIENTED_EDGE('',*,*,#59,.T.);
#398=CARTESIAN_POINT('',(-4.20442376325624E-015,-8.40884752651247E-015,68.66345082));
#399=DIRECTION('',(6.12323399573677E-017,1.22464679914693E-016,-1.0));
#400=DIRECTION('',(-1.23259516440783E-032,1.0,1.22464679914693E-016));
#401=CARTESIAN_POINT('',(-7.37398177049174E-015,-1.47479635409835E-014,120.42626128));
#402=DIRECTION('',(6.12323399573677E-017,1.22464679914817E-016,-1.0));
#403=DIRECTION('',(-1.23259516440783E-032,1.0,1.22464679914817E-016));
#404=CARTESIAN_POINT('',(-6.87803902757828E-015,-1.37560780551566E-014,112.32690164));
#405=DIRECTION('',(6.12323399573677E-017,1.22464679914693E-016,-1.0));
#406=DIRECTION('',(-1.23259516440783E-032,1.0,1.22464679914693E-016));
#407=CARTESIAN_POINT('',(-1.53080849893419E-015,-3.06161699786839E-015,25.0));
#408=DIRECTION('',(6.12323399573677E-017,1.2246467991479E-016,-1.0));
#409=DIRECTION('',(-1.23259516440752E-032,1.0,1.2246467991479E-016));
#410=CARTESIAN_POINT('',(-1.33120285055073E-015,-2.66240570110147E-015,21.74019238));
#411=DIRECTION('',(6.12323399573677E-017,1.22464679914693E-016,-1.0));
#412=DIRECTION('',(-1.23259516440783E-032,1.0,1.22464679914693E-016));
#413=SURFACE_STYLE_FILL_AREA(#515);
#414=ORIENTED_EDGE('',*,*,#108,.F.);
#415=ORIENTED_EDGE('',*,*,#92,.T.);
#416=CARTESIAN_POINT('',(-9.34099346049644E-015,-1.86819869209929E-014,152.55));
#417=DIRECTION('',(6.12323399573677E-017,1.22464679914693E-016,-1.0));
#418=DIRECTION('',(-1.23259516440783E-032,1.0,1.22464679914693E-016));
#419=SURFACE_STYLE_FILL_AREA(#516);
#420=ORIENTED_EDGE('',*,*,#82,.F.);
#421=ORIENTED_EDGE('',*,*,#57,.T.);
#422=CARTESIAN_POINT('',(-7.18641911372304E-015,-1.43728382274461E-014,117.363130638589));
#423=DIRECTION('',(6.12323399573677E-017,1.22464679914817E-016,-1.0));
#424=DIRECTION('',(-1.23259516440783E-032,1.0,1.22464679914817E-016));
#425=CARTESIAN_POINT('',(-7.45809900680738E-015,-1.49161980136148E-014,121.8));
#426=DIRECTION('',(6.12323399573677E-017,1.22464679914663E-016,-1.0));
#427=DIRECTION('',(-1.23259516440765E-032,1.0,1.22464679914663E-016));
#428=SURFACE_STYLE_FILL_AREA(#517);
#429=ORIENTED_EDGE('',*,*,#92,.F.);
#430=CARTESIAN_POINT('',(-1.12238879141855E-014,7.49999999999998,183.3));
#431=DIRECTION('',(-6.12323399573677E-017,-1.22464679914735E-016,1.0));
#432=DIRECTION('',(1.23259516440783E-032,-1.0,-1.22464679914735E-016));
#433=SURFACE_STYLE_FILL_AREA(#518);
#434=ORIENTED_EDGE('',*,*,#61,.F.);
#435=ORIENTED_EDGE('',*,*,#110,.T.);
#436=CARTESIAN_POINT('',(-1.53080849893419E-015,13.35,25.0));
#437=DIRECTION('',(6.12323399573677E-017,1.22464679914735E-016,-1.0));
#438=DIRECTION('',(-1.23259516440783E-032,1.0,1.22464679914735E-016));
#439=SURFACE_STYLE_FILL_AREA(#519);
#440=ORIENTED_EDGE('',*,*,#97,.F.);
#441=ORIENTED_EDGE('',*,*,#87,.T.);
#442=CARTESIAN_POINT('',(-1.40834381901946E-015,-2.81668763803891E-015,23.0));
#443=DIRECTION('',(6.12323399573677E-017,1.22464679914709E-016,-1.0));
#444=DIRECTION('',(-1.23259516440795E-032,1.0,1.22464679914709E-016));
#445=CARTESIAN_POINT('',(-6.99885645695435E-015,-1.39977129139087E-014,114.299999997178));
#446=DIRECTION('',(6.12323399573677E-017,1.22464679914817E-016,-1.0));
#447=DIRECTION('',(-1.23259516440783E-032,1.0,1.22464679914817E-016));
#448=SURFACE_STYLE_FILL_AREA(#520);
#449=CARTESIAN_POINT('',(-1.46957615897682E-015,-2.93915231795365E-015,24.0));
#450=DIRECTION('',(6.12323399573677E-017,1.22464679914709E-016,-1.0));
#451=DIRECTION('',(-1.23259516440795E-032,1.0,1.22464679914709E-016));
#452=SURFACE_STYLE_FILL_AREA(#521);
#453=ORIENTED_EDGE('',*,*,#59,.F.);
#454=ORIENTED_EDGE('',*,*,#82,.T.);
#455=CARTESIAN_POINT('',(-6.93844774226631E-015,-1.38768954845326E-014,113.313450818589));
#456=DIRECTION('',(-6.12323399573677E-017,-1.22464679914716E-016,1.0));
#457=DIRECTION('',(-1.23259516440783E-032,1.0,1.22464679914716E-016));
#458=CARTESIAN_POINT('',(-1.12238879141855E-014,-2.2447775828371E-014,183.3));
#459=DIRECTION('',(6.12323399573677E-017,1.22464679914693E-016,-1.0));
#460=DIRECTION('',(-1.23259516440783E-032,1.0,1.22464679914693E-016));
#461=SURFACE_STYLE_FILL_AREA(#522);
#462=ORIENTED_EDGE('',*,*,#87,.F.);
#463=ORIENTED_EDGE('',*,*,#121,.T.);
#464=CARTESIAN_POINT('',(-1.46957615897682E-015,13.425,24.0));
#465=DIRECTION('',(-6.12323399573677E-017,-1.22464679914735E-016,1.0));
#466=DIRECTION('',(1.23259516440783E-032,-1.0,-1.22464679914735E-016));
#467=CARTESIAN_POINT('',(-1.34711147906209E-015,-2.69422295812418E-015,22.0));
#468=DIRECTION('',(6.12323399573677E-017,1.22464679914709E-016,-1.0));
#469=DIRECTION('',(-1.23259516440795E-032,1.0,1.22464679914709E-016));
#470=SURFACE_STYLE_FILL_AREA(#523);
#471=ORIENTED_EDGE('',*,*,#71,.F.);
#472=ORIENTED_EDGE('',*,*,#108,.T.);
#473=CARTESIAN_POINT('',(-7.45809900680738E-015,17.000000005,121.8));
#474=DIRECTION('',(-6.12323399573677E-017,-1.22464679914735E-016,1.0));
#475=DIRECTION('',(1.23259516440783E-032,-1.0,-1.22464679914735E-016));
#476=SURFACE_STYLE_FILL_AREA(#524);
#477=ORIENTED_EDGE('',*,*,#57,.F.);
#478=ORIENTED_EDGE('',*,*,#71,.T.);
#479=CARTESIAN_POINT('',(-7.41604038864956E-015,-1.48320807772991E-014,121.11313064));
#480=DIRECTION('',(6.12323399573677E-017,1.22464679914657E-016,-1.0));
#481=DIRECTION('',(-1.23259516440821E-032,1.0,1.22464679914657E-016));
#482=SURFACE_STYLE_FILL_AREA(#525);
#483=ORIENTED_EDGE('',*,*,#52,.F.);
#484=ORIENTED_EDGE('',*,*,#63,.T.);
#485=CARTESIAN_POINT('',(-6.65601425275368E-016,-1.33120285055073E-015,10.87009619));
#486=DIRECTION('',(6.12323399573677E-017,1.22464679914693E-016,-1.0));
#487=DIRECTION('',(-1.23259516440783E-032,1.0,1.22464679914693E-016));
#488=CARTESIAN_POINT('',(-7.45809900680738E-015,-1.49161980136148E-014,121.8));
#489=DIRECTION('',(6.12323399573677E-017,1.22464679914693E-016,-1.0));
#490=DIRECTION('',(-1.23259516440783E-032,1.0,1.22464679914693E-016));
#491=CARTESIAN_POINT('',(-1.53080849893419E-015,-3.06161699786839E-015,25.0));
#492=DIRECTION('',(6.12323399573677E-017,1.22464679914693E-016,-1.0));
#493=DIRECTION('',(-1.23259516440783E-032,1.0,1.22464679914693E-016));
#494=SURFACE_STYLE_FILL_AREA(#526);
#495=ORIENTED_EDGE('',*,*,#63,.F.);
#496=ORIENTED_EDGE('',*,*,#97,.T.);
#497=CARTESIAN_POINT('',(-1.33915716480641E-015,-2.67831432961282E-015,21.87009619));
#498=DIRECTION('',(-6.12323399573677E-017,-1.22464679914701E-016,1.0));
#499=DIRECTION('',(-1.23259516440759E-032,1.0,1.22464679914701E-016));
#500=SURFACE_STYLE_FILL_AREA(#527);
#501=ORIENTED_EDGE('',*,*,#52,.T.);
#502=CARTESIAN_POINT('',(0.0,7.5,0.0));
#503=DIRECTION('',(6.12323399573677E-017,1.22464679914735E-016,-1.0));
#504=DIRECTION('',(-1.23259516440783E-032,1.0,1.22464679914735E-016));
#505=SURFACE_STYLE_FILL_AREA(#528);
#506=ORIENTED_EDGE('',*,*,#121,.F.);
#507=ORIENTED_EDGE('',*,*,#61,.T.);
#508=CARTESIAN_POINT('',(-1.50019232895551E-015,-3.00038465791102E-015,24.5));
#509=DIRECTION('',(6.12323399573677E-017,1.2246467991479E-016,-1.0));
#510=DIRECTION('',(-1.23259516440752E-032,1.0,1.2246467991479E-016));
#511=CARTESIAN_POINT('',(-1.46957615897682E-015,-2.93915231795365E-015,24.0));
#512=DIRECTION('',(6.12323399573677E-017,1.2246467991479E-016,-1.0));
#513=DIRECTION('',(-1.23259516440752E-032,1.0,1.2246467991479E-016));
#514=FILL_AREA_STYLE('',(#529));
#515=FILL_AREA_STYLE('',(#530));
#516=FILL_AREA_STYLE('',(#531));
#517=FILL_AREA_STYLE('',(#532));
#518=FILL_AREA_STYLE('',(#533));
#519=FILL_AREA_STYLE('',(#534));
#520=FILL_AREA_STYLE('',(#535));
#521=FILL_AREA_STYLE('',(#536));
#522=FILL_AREA_STYLE('',(#537));
#523=FILL_AREA_STYLE('',(#538));
#524=FILL_AREA_STYLE('',(#539));
#525=FILL_AREA_STYLE('',(#540));
#526=FILL_AREA_STYLE('',(#541));
#527=FILL_AREA_STYLE('',(#542));
#528=FILL_AREA_STYLE('',(#543));
#529=FILL_AREA_STYLE_COLOUR('',#544);
#530=FILL_AREA_STYLE_COLOUR('',#545);
#531=FILL_AREA_STYLE_COLOUR('',#546);
#532=FILL_AREA_STYLE_COLOUR('',#547);
#533=FILL_AREA_STYLE_COLOUR('',#548);
#534=FILL_AREA_STYLE_COLOUR('',#549);
#535=FILL_AREA_STYLE_COLOUR('',#550);
#536=FILL_AREA_STYLE_COLOUR('',#551);
#537=FILL_AREA_STYLE_COLOUR('',#552);
#538=FILL_AREA_STYLE_COLOUR('',#553);
#539=FILL_AREA_STYLE_COLOUR('',#554);
#540=FILL_AREA_STYLE_COLOUR('',#555);
#541=FILL_AREA_STYLE_COLOUR('',#556);
#542=FILL_AREA_STYLE_COLOUR('',#557);
#543=FILL_AREA_STYLE_COLOUR('',#558);
#544=COLOUR_RGB('',0.0,1.0,0.0);
#545=COLOUR_RGB('',0.0,1.0,0.0);
#546=COLOUR_RGB('',0.0,1.0,0.0);
#547=COLOUR_RGB('',0.0,1.0,0.0);
#548=COLOUR_RGB('',0.0,1.0,0.0);
#549=COLOUR_RGB('',0.0,1.0,0.0);
#550=COLOUR_RGB('',0.0,1.0,0.0);
#551=COLOUR_RGB('',0.0,1.0,0.0);
#552=COLOUR_RGB('',0.0,1.0,0.0);
#553=COLOUR_RGB('',0.0,1.0,0.0);
#554=COLOUR_RGB('',0.0,1.0,0.0);
#555=COLOUR_RGB('',0.0,1.0,0.0);
#556=COLOUR_RGB('',0.0,1.0,0.0);
#557=COLOUR_RGB('',0.0,1.0,0.0);
#558=COLOUR_RGB('',0.0,1.0,0.0);
ENDSEC;
END-ISO-10303-21;
