ISO-10303-21;
HEADER;
FILE_DESCRIPTION((''),'1');
FILE_NAME('V:/02_3D_Field-HP\X2\FF71FF6FFF8CFF9F5916\X0\2013/02_Step_Field-HP\X2\FF71FF6FFF8CFF9F5916\X0\2013/31_\X2\30E130AC30B730F330AF30ED30BF30C330D430F330B030DB30EB30C0\X0\ MGT/MGT_ANSI_STEP/MGT20-AU1_2-AP1_4-3.5.stp','2018-02-02T00:40:42',(''),(''),'Spatial Interop R21 SP3','Kubotek KeyCreator 2011 V10.0.2 (22737)',' ');
FILE_SCHEMA(('automotive_design'));
ENDSEC;
DATA;
#1=MECHANICAL_DESIGN_GEOMETRIC_PRESENTATION_REPRESENTATION(' ',(#10,#11,#12,#13,#14,#15,#16,#17,#18,#19,#20,#21,#22,#23,#24,#25,#26,#27,#28,#29,#30,#31,#32,#33,#34,#35,#36,#37),#6);
#2=PRODUCT_DEFINITION_CONTEXT('',#38,'design');
#3=APPLICATION_PROTOCOL_DEFINITION('INTERNATIONAL STANDARD','automotive_design',1994,#38);
#4=PRODUCT_CATEGORY_RELATIONSHIP('NONE','NONE',#39,#40);
#5=SHAPE_DEFINITION_REPRESENTATION(#41,#42);
#6= (GEOMETRIC_REPRESENTATION_CONTEXT(3)GLOBAL_UNCERTAINTY_ASSIGNED_CONTEXT((#45))GLOBAL_UNIT_ASSIGNED_CONTEXT((#47,#48,#49))REPRESENTATION_CONTEXT('NONE','WORKSPACE'));
#10=STYLED_ITEM('',(#51),#52);
#11=STYLED_ITEM('',(#53,#54),#55);
#12=STYLED_ITEM('',(#56,#57),#58);
#13=STYLED_ITEM('',(#59),#60);
#14=STYLED_ITEM('',(#61,#62),#63);
#15=STYLED_ITEM('',(#64,#65),#66);
#16=STYLED_ITEM('',(#67),#68);
#17=STYLED_ITEM('',(#69,#70),#71);
#18=STYLED_ITEM('',(#72,#73),#74);
#19=STYLED_ITEM('',(#75,#76),#77);
#20=STYLED_ITEM('',(#78),#79);
#21=STYLED_ITEM('',(#80,#81),#82);
#22=STYLED_ITEM('',(#83,#84),#85);
#23=STYLED_ITEM('',(#86,#87),#88);
#24=STYLED_ITEM('',(#89),#90);
#25=STYLED_ITEM('',(#91),#92);
#26=STYLED_ITEM('',(#93,#94),#95);
#27=STYLED_ITEM('',(#96,#97),#98);
#28=STYLED_ITEM('',(#99),#100);
#29=STYLED_ITEM('',(#101),#102);
#30=STYLED_ITEM('',(#103,#104),#105);
#31=STYLED_ITEM('',(#106),#107);
#32=STYLED_ITEM('',(#108),#109);
#33=STYLED_ITEM('',(#110,#111),#112);
#34=STYLED_ITEM('',(#113),#114);
#35=STYLED_ITEM('',(#115,#116),#117);
#36=STYLED_ITEM('',(#118),#119);
#37=STYLED_ITEM('',(#120),#121);
#38=APPLICATION_CONTEXT(' ');
#39=PRODUCT_CATEGORY('part','NONE');
#40=PRODUCT_RELATED_PRODUCT_CATEGORY('detail',' ',(#122));
#41=PRODUCT_DEFINITION_SHAPE('NONE','NONE',#123);
#42=ADVANCED_BREP_SHAPE_REPRESENTATION('Unnamed[1]',(#98,#124),#6);
#45=UNCERTAINTY_MEASURE_WITH_UNIT(LENGTH_MEASURE(1.0E-006),#47,'','');
#47= (CONVERSION_BASED_UNIT('MILLIMETRE',#127)LENGTH_UNIT()NAMED_UNIT(#130));
#48= (NAMED_UNIT(#132)PLANE_ANGLE_UNIT()SI_UNIT($,.RADIAN.));
#49= (NAMED_UNIT(#132)SOLID_ANGLE_UNIT()SI_UNIT($,.STERADIAN.));
#51=PRESENTATION_STYLE_ASSIGNMENT((#138));
#52=EDGE_CURVE('Unnamed[1]',#139,#139,#140,.T.);
#53=PRESENTATION_STYLE_ASSIGNMENT((#141));
#54=PRESENTATION_STYLE_ASSIGNMENT((#142));
#55=ADVANCED_FACE('Unnamed[1]',(#143),#144,.T.);
#56=PRESENTATION_STYLE_ASSIGNMENT((#145));
#57=PRESENTATION_STYLE_ASSIGNMENT((#146));
#58=ADVANCED_FACE('Unnamed[1]',(#147,#148),#149,.T.);
#59=PRESENTATION_STYLE_ASSIGNMENT((#150));
#60=EDGE_CURVE('Unnamed[1]',#151,#151,#152,.T.);
#61=PRESENTATION_STYLE_ASSIGNMENT((#153));
#62=PRESENTATION_STYLE_ASSIGNMENT((#154));
#63=ADVANCED_FACE('Unnamed[1]',(#155),#156,.T.);
#64=PRESENTATION_STYLE_ASSIGNMENT((#157));
#65=PRESENTATION_STYLE_ASSIGNMENT((#158));
#66=ADVANCED_FACE('Unnamed[1]',(#159,#160),#161,.T.);
#67=PRESENTATION_STYLE_ASSIGNMENT((#162));
#68=EDGE_CURVE('Unnamed[1]',#163,#163,#164,.T.);
#69=PRESENTATION_STYLE_ASSIGNMENT((#165));
#70=PRESENTATION_STYLE_ASSIGNMENT((#166));
#71=ADVANCED_FACE('Unnamed[1]',(#167,#168),#169,.T.);
#72=PRESENTATION_STYLE_ASSIGNMENT((#170));
#73=PRESENTATION_STYLE_ASSIGNMENT((#171));
#74=ADVANCED_FACE('Unnamed[1]',(#172,#173),#174,.T.);
#75=PRESENTATION_STYLE_ASSIGNMENT((#175));
#76=PRESENTATION_STYLE_ASSIGNMENT((#176));
#77=ADVANCED_FACE('Unnamed[1]',(#177,#178),#179,.T.);
#78=PRESENTATION_STYLE_ASSIGNMENT((#180));
#79=EDGE_CURVE('Unnamed[1]',#181,#181,#182,.T.);
#80=PRESENTATION_STYLE_ASSIGNMENT((#183));
#81=PRESENTATION_STYLE_ASSIGNMENT((#184));
#82=ADVANCED_FACE('Unnamed[1]',(#185,#186),#187,.T.);
#83=PRESENTATION_STYLE_ASSIGNMENT((#188));
#84=PRESENTATION_STYLE_ASSIGNMENT((#189));
#85=ADVANCED_FACE('Unnamed[1]',(#190,#191),#192,.T.);
#86=PRESENTATION_STYLE_ASSIGNMENT((#193));
#87=PRESENTATION_STYLE_ASSIGNMENT((#194));
#88=ADVANCED_FACE('Unnamed[1]',(#195,#196),#197,.T.);
#89=PRESENTATION_STYLE_ASSIGNMENT((#198));
#90=EDGE_CURVE('Unnamed[1]',#199,#199,#200,.T.);
#91=PRESENTATION_STYLE_ASSIGNMENT((#201));
#92=EDGE_CURVE('Unnamed[1]',#202,#202,#203,.T.);
#93=PRESENTATION_STYLE_ASSIGNMENT((#204));
#94=PRESENTATION_STYLE_ASSIGNMENT((#205));
#95=ADVANCED_FACE('Unnamed[1]',(#206,#207),#208,.T.);
#96=PRESENTATION_STYLE_ASSIGNMENT((#209));
#97=PRESENTATION_STYLE_ASSIGNMENT((#210));
#98=MANIFOLD_SOLID_BREP('Unnamed[1]',#211);
#99=PRESENTATION_STYLE_ASSIGNMENT((#212));
#100=EDGE_CURVE('Unnamed[1]',#213,#213,#214,.T.);
#101=PRESENTATION_STYLE_ASSIGNMENT((#215));
#102=EDGE_CURVE('Unnamed[1]',#216,#216,#217,.T.);
#103=PRESENTATION_STYLE_ASSIGNMENT((#218));
#104=PRESENTATION_STYLE_ASSIGNMENT((#219));
#105=ADVANCED_FACE('Unnamed[1]',(#220,#221),#222,.T.);
#106=PRESENTATION_STYLE_ASSIGNMENT((#223));
#107=EDGE_CURVE('Unnamed[1]',#224,#224,#225,.T.);
#108=PRESENTATION_STYLE_ASSIGNMENT((#226));
#109=EDGE_CURVE('Unnamed[1]',#227,#227,#228,.T.);
#110=PRESENTATION_STYLE_ASSIGNMENT((#229));
#111=PRESENTATION_STYLE_ASSIGNMENT((#230));
#112=ADVANCED_FACE('Unnamed[1]',(#231,#232),#233,.T.);
#113=PRESENTATION_STYLE_ASSIGNMENT((#234));
#114=EDGE_CURVE('Unnamed[1]',#235,#235,#236,.T.);
#115=PRESENTATION_STYLE_ASSIGNMENT((#237));
#116=PRESENTATION_STYLE_ASSIGNMENT((#238));
#117=ADVANCED_FACE('Unnamed[1]',(#239,#240),#241,.T.);
#118=PRESENTATION_STYLE_ASSIGNMENT((#242));
#119=EDGE_CURVE('Unnamed[1]',#243,#243,#244,.T.);
#120=PRESENTATION_STYLE_ASSIGNMENT((#245));
#121=EDGE_CURVE('Unnamed[1]',#246,#246,#247,.T.);
#122=PRODUCT('Unnamed[1]','Unnamed[1]','PART-Unnamed[1]-DESC',(#248));
#123=PRODUCT_DEFINITION('NONE','NONE',#249,#2);
#124=AXIS2_PLACEMENT_3D('',#250,#251,#252);
#127=LENGTH_MEASURE_WITH_UNIT(LENGTH_MEASURE(1.0),#253);
#130=DIMENSIONAL_EXPONENTS(1.0,0.0,0.0,0.0,0.0,0.0,0.0);
#132=DIMENSIONAL_EXPONENTS(0.0,0.0,0.0,0.0,0.0,0.0,0.0);
#138=CURVE_STYLE('',#254,POSITIVE_LENGTH_MEASURE(1000.0),#255);
#139=VERTEX_POINT('',#256);
#140=CIRCLE('',#257,15.0);
#141=SURFACE_STYLE_USAGE(.BOTH.,#258);
#142=CURVE_STYLE('',#259,POSITIVE_LENGTH_MEASURE(1000.0),#260);
#143=FACE_OUTER_BOUND('',#261,.T.);
#144=PLANE('',#262);
#145=SURFACE_STYLE_USAGE(.BOTH.,#263);
#146=CURVE_STYLE('',#264,POSITIVE_LENGTH_MEASURE(1000.0),#265);
#147=FACE_OUTER_BOUND('',#266,.T.);
#148=FACE_BOUND('',#267,.T.);
#149=PLANE('',#268);
#150=CURVE_STYLE('',#269,POSITIVE_LENGTH_MEASURE(1000.0),#270);
#151=VERTEX_POINT('',#271);
#152=CIRCLE('',#272,11.7);
#153=SURFACE_STYLE_USAGE(.BOTH.,#273);
#154=CURVE_STYLE('',#274,POSITIVE_LENGTH_MEASURE(1000.0),#275);
#155=FACE_OUTER_BOUND('',#276,.T.);
#156=PLANE('',#277);
#157=SURFACE_STYLE_USAGE(.BOTH.,#278);
#158=CURVE_STYLE('',#279,POSITIVE_LENGTH_MEASURE(1000.0),#280);
#159=FACE_BOUND('',#281,.T.);
#160=FACE_BOUND('',#282,.T.);
#161=CYLINDRICAL_SURFACE('',#283,15.15);
#162=CURVE_STYLE('',#284,POSITIVE_LENGTH_MEASURE(1000.0),#285);
#163=VERTEX_POINT('',#286);
#164=CIRCLE('',#287,15.0);
#165=SURFACE_STYLE_USAGE(.BOTH.,#288);
#166=CURVE_STYLE('',#289,POSITIVE_LENGTH_MEASURE(1000.0),#290);
#167=FACE_OUTER_BOUND('',#291,.T.);
#168=FACE_BOUND('',#292,.T.);
#169=PLANE('',#293);
#170=SURFACE_STYLE_USAGE(.BOTH.,#294);
#171=CURVE_STYLE('',#295,POSITIVE_LENGTH_MEASURE(1000.0),#296);
#172=FACE_BOUND('',#297,.T.);
#173=FACE_BOUND('',#298,.T.);
#174=CYLINDRICAL_SURFACE('',#299,11.7);
#175=SURFACE_STYLE_USAGE(.BOTH.,#300);
#176=CURVE_STYLE('',#301,POSITIVE_LENGTH_MEASURE(1000.0),#302);
#177=FACE_BOUND('',#303,.T.);
#178=FACE_BOUND('',#304,.T.);
#179=CONICAL_SURFACE('',#305,15.075,0.523598777490537);
#180=CURVE_STYLE('',#306,POSITIVE_LENGTH_MEASURE(1000.0),#307);
#181=VERTEX_POINT('',#308);
#182=CIRCLE('',#309,19.5);
#183=SURFACE_STYLE_USAGE(.BOTH.,#310);
#184=CURVE_STYLE('',#311,POSITIVE_LENGTH_MEASURE(1000.0),#312);
#185=FACE_BOUND('',#313,.T.);
#186=FACE_BOUND('',#314,.T.);
#187=CONICAL_SURFACE('',#315,19.250000005,0.349065841567636);
#188=SURFACE_STYLE_USAGE(.BOTH.,#316);
#189=CURVE_STYLE('',#317,POSITIVE_LENGTH_MEASURE(1000.0),#318);
#190=FACE_BOUND('',#319,.T.);
#191=FACE_BOUND('',#320,.T.);
#192=CONICAL_SURFACE('',#321,17.25,1.15757511336881);
#193=SURFACE_STYLE_USAGE(.BOTH.,#322);
#194=CURVE_STYLE('',#323,POSITIVE_LENGTH_MEASURE(1000.0),#324);
#195=FACE_BOUND('',#325,.T.);
#196=FACE_BOUND('',#326,.T.);
#197=CYLINDRICAL_SURFACE('',#327,15.0);
#198=CURVE_STYLE('',#328,POSITIVE_LENGTH_MEASURE(1000.0),#329);
#199=VERTEX_POINT('',#330);
#200=CIRCLE('',#331,15.0);
#201=CURVE_STYLE('',#332,POSITIVE_LENGTH_MEASURE(1000.0),#333);
#202=VERTEX_POINT('',#334);
#203=CIRCLE('',#335,11.7);
#204=SURFACE_STYLE_USAGE(.BOTH.,#336);
#205=CURVE_STYLE('',#337,POSITIVE_LENGTH_MEASURE(1000.0),#338);
#206=FACE_BOUND('',#339,.T.);
#207=FACE_OUTER_BOUND('',#340,.T.);
#208=PLANE('',#341);
#209=SURFACE_STYLE_USAGE(.BOTH.,#342);
#210=CURVE_STYLE('',#343,POSITIVE_LENGTH_MEASURE(1000.0),#344);
#211=CLOSED_SHELL('',(#55,#105,#71,#82,#112,#85,#117,#95,#74,#58,#66,#77,#88,#63));
#212=CURVE_STYLE('',#345,POSITIVE_LENGTH_MEASURE(1000.0),#346);
#213=VERTEX_POINT('',#347);
#214=CIRCLE('',#348,19.00000001);
#215=CURVE_STYLE('',#349,POSITIVE_LENGTH_MEASURE(1000.0),#350);
#216=VERTEX_POINT('',#351);
#217=CIRCLE('',#352,15.0);
#218=SURFACE_STYLE_USAGE(.BOTH.,#353);
#219=CURVE_STYLE('',#354,POSITIVE_LENGTH_MEASURE(1000.0),#355);
#220=FACE_BOUND('',#356,.T.);
#221=FACE_BOUND('',#357,.T.);
#222=CYLINDRICAL_SURFACE('',#358,15.0);
#223=CURVE_STYLE('',#359,POSITIVE_LENGTH_MEASURE(1000.0),#360);
#224=VERTEX_POINT('',#361);
#225=CIRCLE('',#362,15.0);
#226=CURVE_STYLE('',#363,POSITIVE_LENGTH_MEASURE(1000.0),#364);
#227=VERTEX_POINT('',#365);
#228=CIRCLE('',#366,19.5);
#229=SURFACE_STYLE_USAGE(.BOTH.,#367);
#230=CURVE_STYLE('',#368,POSITIVE_LENGTH_MEASURE(1000.0),#369);
#231=FACE_BOUND('',#370,.T.);
#232=FACE_BOUND('',#371,.T.);
#233=CYLINDRICAL_SURFACE('',#372,19.5);
#234=CURVE_STYLE('',#373,POSITIVE_LENGTH_MEASURE(1000.0),#374);
#235=VERTEX_POINT('',#375);
#236=CIRCLE('',#376,15.0);
#237=SURFACE_STYLE_USAGE(.BOTH.,#377);
#238=CURVE_STYLE('',#378,POSITIVE_LENGTH_MEASURE(1000.0),#379);
#239=FACE_BOUND('',#380,.T.);
#240=FACE_BOUND('',#381,.T.);
#241=CYLINDRICAL_SURFACE('',#382,15.0);
#242=CURVE_STYLE('',#383,POSITIVE_LENGTH_MEASURE(1000.0),#384);
#243=VERTEX_POINT('',#385);
#244=CIRCLE('',#386,15.15);
#245=CURVE_STYLE('',#387,POSITIVE_LENGTH_MEASURE(1000.0),#388);
#246=VERTEX_POINT('',#389);
#247=CIRCLE('',#390,15.15);
#248=PRODUCT_CONTEXT('',#38,'mechanical');
#249=PRODUCT_DEFINITION_FORMATION_WITH_SPECIFIED_SOURCE(' ','NONE',#122,.NOT_KNOWN.);
#250=CARTESIAN_POINT('',(0.0,0.0,0.0));
#251=DIRECTION('',(0.0,0.0,1.0));
#252=DIRECTION('',(1.0,0.0,0.0));
#253= (NAMED_UNIT(#130)LENGTH_UNIT()SI_UNIT(.MILLI.,.METRE.));
#254=DRAUGHTING_PRE_DEFINED_CURVE_FONT('continuous');
#255=COLOUR_RGB('',0.0,1.0,0.0);
#256=CARTESIAN_POINT('',(0.0,15.0,0.0));
#257=AXIS2_PLACEMENT_3D('',#392,#393,#394);
#258=SURFACE_SIDE_STYLE('',(#395));
#259=DRAUGHTING_PRE_DEFINED_CURVE_FONT('continuous');
#260=COLOUR_RGB('',0.0,1.0,0.0);
#261=EDGE_LOOP('',(#396));
#262=AXIS2_PLACEMENT_3D('',#397,#398,#399);
#263=SURFACE_SIDE_STYLE('',(#400));
#264=DRAUGHTING_PRE_DEFINED_CURVE_FONT('continuous');
#265=COLOUR_RGB('',0.0,1.0,0.0);
#266=EDGE_LOOP('',(#401));
#267=EDGE_LOOP('',(#402));
#268=AXIS2_PLACEMENT_3D('',#403,#404,#405);
#269=DRAUGHTING_PRE_DEFINED_CURVE_FONT('continuous');
#270=COLOUR_RGB('',0.0,1.0,0.0);
#271=CARTESIAN_POINT('',(-1.53080849893419E-015,11.7,25.0));
#272=AXIS2_PLACEMENT_3D('',#406,#407,#408);
#273=SURFACE_SIDE_STYLE('',(#409));
#274=DRAUGHTING_PRE_DEFINED_CURVE_FONT('continuous');
#275=COLOUR_RGB('',0.0,1.0,0.0);
#276=EDGE_LOOP('',(#410));
#277=AXIS2_PLACEMENT_3D('',#411,#412,#413);
#278=SURFACE_SIDE_STYLE('',(#414));
#279=DRAUGHTING_PRE_DEFINED_CURVE_FONT('continuous');
#280=COLOUR_RGB('',0.0,1.0,0.0);
#281=EDGE_LOOP('',(#415));
#282=EDGE_LOOP('',(#416));
#283=AXIS2_PLACEMENT_3D('',#417,#418,#419);
#284=DRAUGHTING_PRE_DEFINED_CURVE_FONT('continuous');
#285=COLOUR_RGB('',0.0,1.0,0.0);
#286=CARTESIAN_POINT('',(-1.33120285055073E-015,15.0,21.74019238));
#287=AXIS2_PLACEMENT_3D('',#420,#421,#422);
#288=SURFACE_SIDE_STYLE('',(#423));
#289=DRAUGHTING_PRE_DEFINED_CURVE_FONT('continuous');
#290=COLOUR_RGB('',0.0,1.0,0.0);
#291=EDGE_LOOP('',(#424));
#292=EDGE_LOOP('',(#425));
#293=AXIS2_PLACEMENT_3D('',#426,#427,#428);
#294=SURFACE_SIDE_STYLE('',(#429));
#295=DRAUGHTING_PRE_DEFINED_CURVE_FONT('continuous');
#296=COLOUR_RGB('',0.0,1.0,0.0);
#297=EDGE_LOOP('',(#430));
#298=EDGE_LOOP('',(#431));
#299=AXIS2_PLACEMENT_3D('',#432,#433,#434);
#300=SURFACE_SIDE_STYLE('',(#435));
#301=DRAUGHTING_PRE_DEFINED_CURVE_FONT('continuous');
#302=COLOUR_RGB('',0.0,1.0,0.0);
#303=EDGE_LOOP('',(#436));
#304=EDGE_LOOP('',(#437));
#305=AXIS2_PLACEMENT_3D('',#438,#439,#440);
#306=DRAUGHTING_PRE_DEFINED_CURVE_FONT('continuous');
#307=COLOUR_RGB('',0.0,1.0,0.0);
#308=CARTESIAN_POINT('',(-5.8186803355746E-015,19.5,95.02626128));
#309=AXIS2_PLACEMENT_3D('',#441,#442,#443);
#310=SURFACE_SIDE_STYLE('',(#444));
#311=DRAUGHTING_PRE_DEFINED_CURVE_FONT('continuous');
#312=COLOUR_RGB('',0.0,1.0,0.0);
#313=EDGE_LOOP('',(#445));
#314=EDGE_LOOP('',(#446));
#315=AXIS2_PLACEMENT_3D('',#447,#448,#449);
#316=SURFACE_SIDE_STYLE('',(#450));
#317=DRAUGHTING_PRE_DEFINED_CURVE_FONT('continuous');
#318=COLOUR_RGB('',0.0,1.0,0.0);
#319=EDGE_LOOP('',(#451));
#320=EDGE_LOOP('',(#452));
#321=AXIS2_PLACEMENT_3D('',#453,#454,#455);
#322=SURFACE_SIDE_STYLE('',(#456));
#323=DRAUGHTING_PRE_DEFINED_CURVE_FONT('continuous');
#324=COLOUR_RGB('',0.0,1.0,0.0);
#325=EDGE_LOOP('',(#457));
#326=EDGE_LOOP('',(#458));
#327=AXIS2_PLACEMENT_3D('',#459,#460,#461);
#328=DRAUGHTING_PRE_DEFINED_CURVE_FONT('continuous');
#329=COLOUR_RGB('',0.0,1.0,0.0);
#330=CARTESIAN_POINT('',(-9.66858647926835E-015,15.0,157.9));
#331=AXIS2_PLACEMENT_3D('',#462,#463,#464);
#332=DRAUGHTING_PRE_DEFINED_CURVE_FONT('continuous');
#333=COLOUR_RGB('',0.0,1.0,0.0);
#334=CARTESIAN_POINT('',(-1.46957615897682E-015,11.7,24.0));
#335=AXIS2_PLACEMENT_3D('',#465,#466,#467);
#336=SURFACE_SIDE_STYLE('',(#468));
#337=DRAUGHTING_PRE_DEFINED_CURVE_FONT('continuous');
#338=COLOUR_RGB('',0.0,1.0,0.0);
#339=EDGE_LOOP('',(#469));
#340=EDGE_LOOP('',(#470));
#341=AXIS2_PLACEMENT_3D('',#471,#472,#473);
#342=SURFACE_SIDE_STYLE('',(#474));
#343=DRAUGHTING_PRE_DEFINED_CURVE_FONT('continuous');
#344=COLOUR_RGB('',0.0,1.0,0.0);
#345=DRAUGHTING_PRE_DEFINED_CURVE_FONT('continuous');
#346=COLOUR_RGB('',0.0,1.0,0.0);
#347=CARTESIAN_POINT('',(-5.90279757189024E-015,19.00000001,96.4));
#348=AXIS2_PLACEMENT_3D('',#475,#476,#477);
#349=DRAUGHTING_PRE_DEFINED_CURVE_FONT('continuous');
#350=COLOUR_RGB('',0.0,1.0,0.0);
#351=CARTESIAN_POINT('',(-5.90279757189024E-015,15.0,96.4));
#352=AXIS2_PLACEMENT_3D('',#478,#479,#480);
#353=SURFACE_SIDE_STYLE('',(#481));
#354=DRAUGHTING_PRE_DEFINED_CURVE_FONT('continuous');
#355=COLOUR_RGB('',0.0,1.0,0.0);
#356=EDGE_LOOP('',(#482));
#357=EDGE_LOOP('',(#483));
#358=AXIS2_PLACEMENT_3D('',#484,#485,#486);
#359=DRAUGHTING_PRE_DEFINED_CURVE_FONT('continuous');
#360=COLOUR_RGB('',0.0,1.0,0.0);
#361=CARTESIAN_POINT('',(-5.32273759266114E-015,15.0,86.92690164));
#362=AXIS2_PLACEMENT_3D('',#487,#488,#489);
#363=DRAUGHTING_PRE_DEFINED_CURVE_FONT('continuous');
#364=COLOUR_RGB('',0.0,1.0,0.0);
#365=CARTESIAN_POINT('',(-5.44355502203721E-015,19.5,88.8999999971784));
#366=AXIS2_PLACEMENT_3D('',#490,#491,#492);
#367=SURFACE_SIDE_STYLE('',(#493));
#368=DRAUGHTING_PRE_DEFINED_CURVE_FONT('continuous');
#369=COLOUR_RGB('',0.0,1.0,0.0);
#370=EDGE_LOOP('',(#494));
#371=EDGE_LOOP('',(#495));
#372=AXIS2_PLACEMENT_3D('',#496,#497,#498);
#373=DRAUGHTING_PRE_DEFINED_CURVE_FONT('continuous');
#374=COLOUR_RGB('',0.0,1.0,0.0);
#375=CARTESIAN_POINT('',(-1.53080849893419E-015,15.0,25.0));
#376=AXIS2_PLACEMENT_3D('',#499,#500,#501);
#377=SURFACE_SIDE_STYLE('',(#502));
#378=DRAUGHTING_PRE_DEFINED_CURVE_FONT('continuous');
#379=COLOUR_RGB('',0.0,1.0,0.0);
#380=EDGE_LOOP('',(#503));
#381=EDGE_LOOP('',(#504));
#382=AXIS2_PLACEMENT_3D('',#505,#506,#507);
#383=DRAUGHTING_PRE_DEFINED_CURVE_FONT('continuous');
#384=COLOUR_RGB('',0.0,1.0,0.0);
#385=CARTESIAN_POINT('',(-1.34711147906209E-015,15.15,22.0));
#386=AXIS2_PLACEMENT_3D('',#508,#509,#510);
#387=DRAUGHTING_PRE_DEFINED_CURVE_FONT('continuous');
#388=COLOUR_RGB('',0.0,1.0,0.0);
#389=CARTESIAN_POINT('',(-1.46957615897682E-015,15.15,24.0));
#390=AXIS2_PLACEMENT_3D('',#511,#512,#513);
#392=CARTESIAN_POINT('',(0.0,0.0,0.0));
#393=DIRECTION('',(6.12323399573677E-017,1.22464679914735E-016,-1.0));
#394=DIRECTION('',(-1.23259516440783E-032,1.0,1.22464679914735E-016));
#395=SURFACE_STYLE_FILL_AREA(#514);
#396=ORIENTED_EDGE('',*,*,#90,.F.);
#397=CARTESIAN_POINT('',(-9.66858647926835E-015,7.49999999999998,157.9));
#398=DIRECTION('',(-6.12323399573677E-017,-1.22464679914735E-016,1.0));
#399=DIRECTION('',(1.23259516440783E-032,-1.0,-1.22464679914735E-016));
#400=SURFACE_STYLE_FILL_AREA(#515);
#401=ORIENTED_EDGE('',*,*,#121,.F.);
#402=ORIENTED_EDGE('',*,*,#92,.T.);
#403=CARTESIAN_POINT('',(-1.46957615897682E-015,13.425,24.0));
#404=DIRECTION('',(-6.12323399573677E-017,-1.22464679914735E-016,1.0));
#405=DIRECTION('',(1.23259516440783E-032,-1.0,-1.22464679914735E-016));
#406=CARTESIAN_POINT('',(-1.53080849893419E-015,-3.06161699786838E-015,25.0));
#407=DIRECTION('',(6.12323399573677E-017,1.22464679914735E-016,-1.0));
#408=DIRECTION('',(-1.23259516440783E-032,1.0,1.22464679914735E-016));
#409=SURFACE_STYLE_FILL_AREA(#516);
#410=ORIENTED_EDGE('',*,*,#52,.T.);
#411=CARTESIAN_POINT('',(0.0,7.5,0.0));
#412=DIRECTION('',(6.12323399573677E-017,1.22464679914735E-016,-1.0));
#413=DIRECTION('',(-1.23259516440783E-032,1.0,1.22464679914735E-016));
#414=SURFACE_STYLE_FILL_AREA(#517);
#415=ORIENTED_EDGE('',*,*,#119,.F.);
#416=ORIENTED_EDGE('',*,*,#121,.T.);
#417=CARTESIAN_POINT('',(-1.40834381901946E-015,-2.81668763803891E-015,23.0));
#418=DIRECTION('',(6.12323399573677E-017,1.22464679914735E-016,-1.0));
#419=DIRECTION('',(-1.23259516440783E-032,1.0,1.22464679914735E-016));
#420=CARTESIAN_POINT('',(-1.33120285055073E-015,-2.66240570110147E-015,21.74019238));
#421=DIRECTION('',(6.12323399573677E-017,1.22464679914735E-016,-1.0));
#422=DIRECTION('',(-1.23259516440783E-032,1.0,1.22464679914735E-016));
#423=SURFACE_STYLE_FILL_AREA(#518);
#424=ORIENTED_EDGE('',*,*,#100,.F.);
#425=ORIENTED_EDGE('',*,*,#102,.T.);
#426=CARTESIAN_POINT('',(-5.90279757189024E-015,17.000000005,96.4));
#427=DIRECTION('',(-6.12323399573677E-017,-1.22464679914735E-016,1.0));
#428=DIRECTION('',(1.23259516440783E-032,-1.0,-1.22464679914735E-016));
#429=SURFACE_STYLE_FILL_AREA(#519);
#430=ORIENTED_EDGE('',*,*,#92,.F.);
#431=ORIENTED_EDGE('',*,*,#60,.T.);
#432=CARTESIAN_POINT('',(-1.50019232895551E-015,-3.00038465791101E-015,24.5));
#433=DIRECTION('',(6.12323399573677E-017,1.22464679914735E-016,-1.0));
#434=DIRECTION('',(-1.23259516440783E-032,1.0,1.22464679914735E-016));
#435=SURFACE_STYLE_FILL_AREA(#520);
#436=ORIENTED_EDGE('',*,*,#68,.F.);
#437=ORIENTED_EDGE('',*,*,#119,.T.);
#438=CARTESIAN_POINT('',(-1.33915716480641E-015,-2.67831432961282E-015,21.87009619));
#439=DIRECTION('',(-6.12323399573677E-017,-1.22464679914735E-016,1.0));
#440=DIRECTION('',(-1.23259516440783E-032,1.0,1.22464679914735E-016));
#441=CARTESIAN_POINT('',(-5.8186803355746E-015,-1.16373606711492E-014,95.02626128));
#442=DIRECTION('',(6.12323399573677E-017,1.22464679914735E-016,-1.0));
#443=DIRECTION('',(-1.23259516440783E-032,1.0,1.22464679914735E-016));
#444=SURFACE_STYLE_FILL_AREA(#521);
#445=ORIENTED_EDGE('',*,*,#79,.F.);
#446=ORIENTED_EDGE('',*,*,#100,.T.);
#447=CARTESIAN_POINT('',(-5.86073895373242E-015,-1.17214779074648E-014,95.71313064));
#448=DIRECTION('',(6.12323399573677E-017,1.22464679914735E-016,-1.0));
#449=DIRECTION('',(-1.23259516440783E-032,1.0,1.22464679914735E-016));
#450=SURFACE_STYLE_FILL_AREA(#522);
#451=ORIENTED_EDGE('',*,*,#107,.F.);
#452=ORIENTED_EDGE('',*,*,#109,.T.);
#453=CARTESIAN_POINT('',(-5.38314630734918E-015,-1.07662926146983E-014,87.9134508185892));
#454=DIRECTION('',(-6.12323399573677E-017,-1.22464679914735E-016,1.0));
#455=DIRECTION('',(-1.23259516440783E-032,1.0,1.22464679914735E-016));
#456=SURFACE_STYLE_FILL_AREA(#523);
#457=ORIENTED_EDGE('',*,*,#52,.F.);
#458=ORIENTED_EDGE('',*,*,#68,.T.);
#459=CARTESIAN_POINT('',(-6.65601425275367E-016,-1.33120285055073E-015,10.87009619));
#460=DIRECTION('',(6.12323399573677E-017,1.22464679914735E-016,-1.0));
#461=DIRECTION('',(-1.23259516440783E-032,1.0,1.22464679914735E-016));
#462=CARTESIAN_POINT('',(-9.66858647926835E-015,-1.93371729585367E-014,157.9));
#463=DIRECTION('',(6.12323399573677E-017,1.22464679914735E-016,-1.0));
#464=DIRECTION('',(-1.23259516440783E-032,1.0,1.22464679914735E-016));
#465=CARTESIAN_POINT('',(-1.46957615897682E-015,-2.93915231795365E-015,24.0));
#466=DIRECTION('',(6.12323399573677E-017,1.22464679914735E-016,-1.0));
#467=DIRECTION('',(-1.23259516440783E-032,1.0,1.22464679914735E-016));
#468=SURFACE_STYLE_FILL_AREA(#524);
#469=ORIENTED_EDGE('',*,*,#60,.F.);
#470=ORIENTED_EDGE('',*,*,#114,.T.);
#471=CARTESIAN_POINT('',(-1.53080849893419E-015,13.35,25.0));
#472=DIRECTION('',(6.12323399573677E-017,1.22464679914735E-016,-1.0));
#473=DIRECTION('',(-1.23259516440783E-032,1.0,1.22464679914735E-016));
#474=SURFACE_STYLE_FILL_AREA(#525);
#475=CARTESIAN_POINT('',(-5.90279757189024E-015,-1.18055951437805E-014,96.4));
#476=DIRECTION('',(6.12323399573677E-017,1.22464679914735E-016,-1.0));
#477=DIRECTION('',(-1.23259516440783E-032,1.0,1.22464679914735E-016));
#478=CARTESIAN_POINT('',(-5.90279757189024E-015,-1.18055951437805E-014,96.4));
#479=DIRECTION('',(6.12323399573677E-017,1.22464679914735E-016,-1.0));
#480=DIRECTION('',(-1.23259516440783E-032,1.0,1.22464679914735E-016));
#481=SURFACE_STYLE_FILL_AREA(#526);
#482=ORIENTED_EDGE('',*,*,#102,.F.);
#483=ORIENTED_EDGE('',*,*,#90,.T.);
#484=CARTESIAN_POINT('',(-7.7856920255793E-015,-1.55713840511586E-014,127.15));
#485=DIRECTION('',(6.12323399573677E-017,1.22464679914735E-016,-1.0));
#486=DIRECTION('',(-1.23259516440783E-032,1.0,1.22464679914735E-016));
#487=CARTESIAN_POINT('',(-5.32273759266114E-015,-1.06454751853223E-014,86.92690164));
#488=DIRECTION('',(6.12323399573677E-017,1.22464679914735E-016,-1.0));
#489=DIRECTION('',(-1.23259516440783E-032,1.0,1.22464679914735E-016));
#490=CARTESIAN_POINT('',(-5.44355502203721E-015,-1.08871100440744E-014,88.8999999971784));
#491=DIRECTION('',(6.12323399573677E-017,1.22464679914735E-016,-1.0));
#492=DIRECTION('',(-1.23259516440783E-032,1.0,1.22464679914735E-016));
#493=SURFACE_STYLE_FILL_AREA(#527);
#494=ORIENTED_EDGE('',*,*,#109,.F.);
#495=ORIENTED_EDGE('',*,*,#79,.T.);
#496=CARTESIAN_POINT('',(-5.63111767880591E-015,-1.12622353576118E-014,91.9631306385892));
#497=DIRECTION('',(6.12323399573677E-017,1.22464679914735E-016,-1.0));
#498=DIRECTION('',(-1.23259516440783E-032,1.0,1.22464679914735E-016));
#499=CARTESIAN_POINT('',(-1.53080849893419E-015,-3.06161699786838E-015,25.0));
#500=DIRECTION('',(6.12323399573677E-017,1.22464679914735E-016,-1.0));
#501=DIRECTION('',(-1.23259516440783E-032,1.0,1.22464679914735E-016));
#502=SURFACE_STYLE_FILL_AREA(#528);
#503=ORIENTED_EDGE('',*,*,#114,.F.);
#504=ORIENTED_EDGE('',*,*,#107,.T.);
#505=CARTESIAN_POINT('',(-3.42677304579767E-015,-6.85354609159533E-015,55.96345082));
#506=DIRECTION('',(6.12323399573677E-017,1.22464679914735E-016,-1.0));
#507=DIRECTION('',(-1.23259516440783E-032,1.0,1.22464679914735E-016));
#508=CARTESIAN_POINT('',(-1.34711147906209E-015,-2.69422295812418E-015,22.0));
#509=DIRECTION('',(6.12323399573677E-017,1.22464679914735E-016,-1.0));
#510=DIRECTION('',(-1.23259516440783E-032,1.0,1.22464679914735E-016));
#511=CARTESIAN_POINT('',(-1.46957615897682E-015,-2.93915231795365E-015,24.0));
#512=DIRECTION('',(6.12323399573677E-017,1.22464679914735E-016,-1.0));
#513=DIRECTION('',(-1.23259516440783E-032,1.0,1.22464679914735E-016));
#514=FILL_AREA_STYLE('',(#529));
#515=FILL_AREA_STYLE('',(#530));
#516=FILL_AREA_STYLE('',(#531));
#517=FILL_AREA_STYLE('',(#532));
#518=FILL_AREA_STYLE('',(#533));
#519=FILL_AREA_STYLE('',(#534));
#520=FILL_AREA_STYLE('',(#535));
#521=FILL_AREA_STYLE('',(#536));
#522=FILL_AREA_STYLE('',(#537));
#523=FILL_AREA_STYLE('',(#538));
#524=FILL_AREA_STYLE('',(#539));
#525=FILL_AREA_STYLE('',(#540));
#526=FILL_AREA_STYLE('',(#541));
#527=FILL_AREA_STYLE('',(#542));
#528=FILL_AREA_STYLE('',(#543));
#529=FILL_AREA_STYLE_COLOUR('',#544);
#530=FILL_AREA_STYLE_COLOUR('',#545);
#531=FILL_AREA_STYLE_COLOUR('',#546);
#532=FILL_AREA_STYLE_COLOUR('',#547);
#533=FILL_AREA_STYLE_COLOUR('',#548);
#534=FILL_AREA_STYLE_COLOUR('',#549);
#535=FILL_AREA_STYLE_COLOUR('',#550);
#536=FILL_AREA_STYLE_COLOUR('',#551);
#537=FILL_AREA_STYLE_COLOUR('',#552);
#538=FILL_AREA_STYLE_COLOUR('',#553);
#539=FILL_AREA_STYLE_COLOUR('',#554);
#540=FILL_AREA_STYLE_COLOUR('',#555);
#541=FILL_AREA_STYLE_COLOUR('',#556);
#542=FILL_AREA_STYLE_COLOUR('',#557);
#543=FILL_AREA_STYLE_COLOUR('',#558);
#544=COLOUR_RGB('',0.0,1.0,0.0);
#545=COLOUR_RGB('',0.0,1.0,0.0);
#546=COLOUR_RGB('',0.0,1.0,0.0);
#547=COLOUR_RGB('',0.0,1.0,0.0);
#548=COLOUR_RGB('',0.0,1.0,0.0);
#549=COLOUR_RGB('',0.0,1.0,0.0);
#550=COLOUR_RGB('',0.0,1.0,0.0);
#551=COLOUR_RGB('',0.0,1.0,0.0);
#552=COLOUR_RGB('',0.0,1.0,0.0);
#553=COLOUR_RGB('',0.0,1.0,0.0);
#554=COLOUR_RGB('',0.0,1.0,0.0);
#555=COLOUR_RGB('',0.0,1.0,0.0);
#556=COLOUR_RGB('',0.0,1.0,0.0);
#557=COLOUR_RGB('',0.0,1.0,0.0);
#558=COLOUR_RGB('',0.0,1.0,0.0);
ENDSEC;
END-ISO-10303-21;
