ISO-10303-21;
HEADER;
FILE_DESCRIPTION((''),'1');
FILE_NAME('V:/02_3D_Field-HP\X2\FF71FF6FFF8CFF9F5916\X0\2013/02_Step_Field-HP\X2\FF71FF6FFF8CFF9F5916\X0\2013/31_\X2\30E130AC30B730F330AF30ED30BF30C330D430F330B030DB30EB30C0\X0\ MGT/MGT_ANSI_STEP/MGT20-AU1_2-AP1_4-1.5.stp','2018-02-02T00:37:31',(''),(''),'Spatial Interop R21 SP3','Kubotek KeyCreator 2011 V10.0.2 (22737)',' ');
FILE_SCHEMA(('automotive_design'));
ENDSEC;
DATA;
#1=MECHANICAL_DESIGN_GEOMETRIC_PRESENTATION_REPRESENTATION(' ',(#10,#11,#12,#13,#14,#15,#16,#17,#18,#19,#20,#21,#22,#23,#24,#25,#26,#27,#28,#29,#30,#31,#32,#33,#34,#35,#36,#37),#6);
#2=PRODUCT_DEFINITION_CONTEXT('',#38,'design');
#3=APPLICATION_PROTOCOL_DEFINITION('INTERNATIONAL STANDARD','automotive_design',1994,#38);
#4=PRODUCT_CATEGORY_RELATIONSHIP('NONE','NONE',#39,#40);
#5=SHAPE_DEFINITION_REPRESENTATION(#41,#42);
#6= (GEOMETRIC_REPRESENTATION_CONTEXT(3)GLOBAL_UNCERTAINTY_ASSIGNED_CONTEXT((#45))GLOBAL_UNIT_ASSIGNED_CONTEXT((#47,#48,#49))REPRESENTATION_CONTEXT('NONE','WORKSPACE'));
#10=STYLED_ITEM('',(#51,#52),#53);
#11=STYLED_ITEM('',(#54,#55),#56);
#12=STYLED_ITEM('',(#57,#58),#59);
#13=STYLED_ITEM('',(#60,#61),#62);
#14=STYLED_ITEM('',(#63,#64),#65);
#15=STYLED_ITEM('',(#66),#67);
#16=STYLED_ITEM('',(#68,#69),#70);
#17=STYLED_ITEM('',(#71),#72);
#18=STYLED_ITEM('',(#73),#74);
#19=STYLED_ITEM('',(#75),#76);
#20=STYLED_ITEM('',(#77),#78);
#21=STYLED_ITEM('',(#79),#80);
#22=STYLED_ITEM('',(#81),#82);
#23=STYLED_ITEM('',(#83,#84),#85);
#24=STYLED_ITEM('',(#86,#87),#88);
#25=STYLED_ITEM('',(#89,#90),#91);
#26=STYLED_ITEM('',(#92),#93);
#27=STYLED_ITEM('',(#94,#95),#96);
#28=STYLED_ITEM('',(#97,#98),#99);
#29=STYLED_ITEM('',(#100,#101),#102);
#30=STYLED_ITEM('',(#103),#104);
#31=STYLED_ITEM('',(#105),#106);
#32=STYLED_ITEM('',(#107),#108);
#33=STYLED_ITEM('',(#109,#110),#111);
#34=STYLED_ITEM('',(#112,#113),#114);
#35=STYLED_ITEM('',(#115),#116);
#36=STYLED_ITEM('',(#117),#118);
#37=STYLED_ITEM('',(#119,#120),#121);
#38=APPLICATION_CONTEXT(' ');
#39=PRODUCT_CATEGORY('part','NONE');
#40=PRODUCT_RELATED_PRODUCT_CATEGORY('detail',' ',(#122));
#41=PRODUCT_DEFINITION_SHAPE('NONE','NONE',#123);
#42=ADVANCED_BREP_SHAPE_REPRESENTATION('Unnamed[1]',(#53,#124),#6);
#45=UNCERTAINTY_MEASURE_WITH_UNIT(LENGTH_MEASURE(1.0E-006),#47,'','');
#47= (CONVERSION_BASED_UNIT('MILLIMETRE',#127)LENGTH_UNIT()NAMED_UNIT(#130));
#48= (NAMED_UNIT(#132)PLANE_ANGLE_UNIT()SI_UNIT($,.RADIAN.));
#49= (NAMED_UNIT(#132)SOLID_ANGLE_UNIT()SI_UNIT($,.STERADIAN.));
#51=PRESENTATION_STYLE_ASSIGNMENT((#138));
#52=PRESENTATION_STYLE_ASSIGNMENT((#139));
#53=MANIFOLD_SOLID_BREP('Unnamed[1]',#140);
#54=PRESENTATION_STYLE_ASSIGNMENT((#141));
#55=PRESENTATION_STYLE_ASSIGNMENT((#142));
#56=ADVANCED_FACE('Unnamed[1]',(#143),#144,.T.);
#57=PRESENTATION_STYLE_ASSIGNMENT((#145));
#58=PRESENTATION_STYLE_ASSIGNMENT((#146));
#59=ADVANCED_FACE('Unnamed[1]',(#147,#148),#149,.T.);
#60=PRESENTATION_STYLE_ASSIGNMENT((#150));
#61=PRESENTATION_STYLE_ASSIGNMENT((#151));
#62=ADVANCED_FACE('Unnamed[1]',(#152,#153),#154,.T.);
#63=PRESENTATION_STYLE_ASSIGNMENT((#155));
#64=PRESENTATION_STYLE_ASSIGNMENT((#156));
#65=ADVANCED_FACE('Unnamed[1]',(#157,#158),#159,.T.);
#66=PRESENTATION_STYLE_ASSIGNMENT((#160));
#67=EDGE_CURVE('Unnamed[1]',#161,#161,#162,.T.);
#68=PRESENTATION_STYLE_ASSIGNMENT((#163));
#69=PRESENTATION_STYLE_ASSIGNMENT((#164));
#70=ADVANCED_FACE('Unnamed[1]',(#165,#166),#167,.T.);
#71=PRESENTATION_STYLE_ASSIGNMENT((#168));
#72=EDGE_CURVE('Unnamed[1]',#169,#169,#170,.T.);
#73=PRESENTATION_STYLE_ASSIGNMENT((#171));
#74=EDGE_CURVE('Unnamed[1]',#172,#172,#173,.T.);
#75=PRESENTATION_STYLE_ASSIGNMENT((#174));
#76=EDGE_CURVE('Unnamed[1]',#175,#175,#176,.T.);
#77=PRESENTATION_STYLE_ASSIGNMENT((#177));
#78=EDGE_CURVE('Unnamed[1]',#178,#178,#179,.T.);
#79=PRESENTATION_STYLE_ASSIGNMENT((#180));
#80=EDGE_CURVE('Unnamed[1]',#181,#181,#182,.T.);
#81=PRESENTATION_STYLE_ASSIGNMENT((#183));
#82=EDGE_CURVE('Unnamed[1]',#184,#184,#185,.T.);
#83=PRESENTATION_STYLE_ASSIGNMENT((#186));
#84=PRESENTATION_STYLE_ASSIGNMENT((#187));
#85=ADVANCED_FACE('Unnamed[1]',(#188),#189,.T.);
#86=PRESENTATION_STYLE_ASSIGNMENT((#190));
#87=PRESENTATION_STYLE_ASSIGNMENT((#191));
#88=ADVANCED_FACE('Unnamed[1]',(#192,#193),#194,.T.);
#89=PRESENTATION_STYLE_ASSIGNMENT((#195));
#90=PRESENTATION_STYLE_ASSIGNMENT((#196));
#91=ADVANCED_FACE('Unnamed[1]',(#197,#198),#199,.T.);
#92=PRESENTATION_STYLE_ASSIGNMENT((#200));
#93=EDGE_CURVE('Unnamed[1]',#201,#201,#202,.T.);
#94=PRESENTATION_STYLE_ASSIGNMENT((#203));
#95=PRESENTATION_STYLE_ASSIGNMENT((#204));
#96=ADVANCED_FACE('Unnamed[1]',(#205,#206),#207,.T.);
#97=PRESENTATION_STYLE_ASSIGNMENT((#208));
#98=PRESENTATION_STYLE_ASSIGNMENT((#209));
#99=ADVANCED_FACE('Unnamed[1]',(#210,#211),#212,.T.);
#100=PRESENTATION_STYLE_ASSIGNMENT((#213));
#101=PRESENTATION_STYLE_ASSIGNMENT((#214));
#102=ADVANCED_FACE('Unnamed[1]',(#215,#216),#217,.T.);
#103=PRESENTATION_STYLE_ASSIGNMENT((#218));
#104=EDGE_CURVE('Unnamed[1]',#219,#219,#220,.T.);
#105=PRESENTATION_STYLE_ASSIGNMENT((#221));
#106=EDGE_CURVE('Unnamed[1]',#222,#222,#223,.T.);
#107=PRESENTATION_STYLE_ASSIGNMENT((#224));
#108=EDGE_CURVE('Unnamed[1]',#225,#225,#226,.T.);
#109=PRESENTATION_STYLE_ASSIGNMENT((#227));
#110=PRESENTATION_STYLE_ASSIGNMENT((#228));
#111=ADVANCED_FACE('Unnamed[1]',(#229,#230),#231,.T.);
#112=PRESENTATION_STYLE_ASSIGNMENT((#232));
#113=PRESENTATION_STYLE_ASSIGNMENT((#233));
#114=ADVANCED_FACE('Unnamed[1]',(#234,#235),#236,.T.);
#115=PRESENTATION_STYLE_ASSIGNMENT((#237));
#116=EDGE_CURVE('Unnamed[1]',#238,#238,#239,.T.);
#117=PRESENTATION_STYLE_ASSIGNMENT((#240));
#118=EDGE_CURVE('Unnamed[1]',#241,#241,#242,.T.);
#119=PRESENTATION_STYLE_ASSIGNMENT((#243));
#120=PRESENTATION_STYLE_ASSIGNMENT((#244));
#121=ADVANCED_FACE('Unnamed[1]',(#245,#246),#247,.T.);
#122=PRODUCT('Unnamed[1]','Unnamed[1]','PART-Unnamed[1]-DESC',(#248));
#123=PRODUCT_DEFINITION('NONE','NONE',#249,#2);
#124=AXIS2_PLACEMENT_3D('',#250,#251,#252);
#127=LENGTH_MEASURE_WITH_UNIT(LENGTH_MEASURE(1.0),#253);
#130=DIMENSIONAL_EXPONENTS(1.0,0.0,0.0,0.0,0.0,0.0,0.0);
#132=DIMENSIONAL_EXPONENTS(0.0,0.0,0.0,0.0,0.0,0.0,0.0);
#138=SURFACE_STYLE_USAGE(.BOTH.,#254);
#139=CURVE_STYLE('',#255,POSITIVE_LENGTH_MEASURE(1000.0),#256);
#140=CLOSED_SHELL('',(#56,#96,#111,#88,#91,#62,#59,#114,#99,#70,#102,#65,#121,#85));
#141=SURFACE_STYLE_USAGE(.BOTH.,#257);
#142=CURVE_STYLE('',#258,POSITIVE_LENGTH_MEASURE(1000.0),#259);
#143=FACE_OUTER_BOUND('',#260,.T.);
#144=PLANE('',#261);
#145=SURFACE_STYLE_USAGE(.BOTH.,#262);
#146=CURVE_STYLE('',#263,POSITIVE_LENGTH_MEASURE(1000.0),#264);
#147=FACE_BOUND('',#265,.T.);
#148=FACE_BOUND('',#266,.T.);
#149=CYLINDRICAL_SURFACE('',#267,15.0);
#150=SURFACE_STYLE_USAGE(.BOTH.,#268);
#151=CURVE_STYLE('',#269,POSITIVE_LENGTH_MEASURE(1000.0),#270);
#152=FACE_BOUND('',#271,.T.);
#153=FACE_BOUND('',#272,.T.);
#154=CONICAL_SURFACE('',#273,17.25,1.15757511336881);
#155=SURFACE_STYLE_USAGE(.BOTH.,#274);
#156=CURVE_STYLE('',#275,POSITIVE_LENGTH_MEASURE(1000.0),#276);
#157=FACE_BOUND('',#277,.T.);
#158=FACE_BOUND('',#278,.T.);
#159=CONICAL_SURFACE('',#279,15.075,0.523598777490519);
#160=CURVE_STYLE('',#280,POSITIVE_LENGTH_MEASURE(1000.0),#281);
#161=VERTEX_POINT('',#282);
#162=CIRCLE('',#283,19.5);
#163=SURFACE_STYLE_USAGE(.BOTH.,#284);
#164=CURVE_STYLE('',#285,POSITIVE_LENGTH_MEASURE(1000.0),#286);
#165=FACE_OUTER_BOUND('',#287,.T.);
#166=FACE_BOUND('',#288,.T.);
#167=PLANE('',#289);
#168=CURVE_STYLE('',#290,POSITIVE_LENGTH_MEASURE(1000.0),#291);
#169=VERTEX_POINT('',#292);
#170=CIRCLE('',#293,15.0);
#171=CURVE_STYLE('',#294,POSITIVE_LENGTH_MEASURE(1000.0),#295);
#172=VERTEX_POINT('',#296);
#173=CIRCLE('',#297,11.7);
#174=CURVE_STYLE('',#298,POSITIVE_LENGTH_MEASURE(1000.0),#299);
#175=VERTEX_POINT('',#300);
#176=CIRCLE('',#301,19.5);
#177=CURVE_STYLE('',#302,POSITIVE_LENGTH_MEASURE(1000.0),#303);
#178=VERTEX_POINT('',#304);
#179=CIRCLE('',#305,15.15);
#180=CURVE_STYLE('',#306,POSITIVE_LENGTH_MEASURE(1000.0),#307);
#181=VERTEX_POINT('',#308);
#182=CIRCLE('',#309,15.0);
#183=CURVE_STYLE('',#310,POSITIVE_LENGTH_MEASURE(1000.0),#311);
#184=VERTEX_POINT('',#312);
#185=CIRCLE('',#313,15.0);
#186=SURFACE_STYLE_USAGE(.BOTH.,#314);
#187=CURVE_STYLE('',#315,POSITIVE_LENGTH_MEASURE(1000.0),#316);
#188=FACE_OUTER_BOUND('',#317,.T.);
#189=PLANE('',#318);
#190=SURFACE_STYLE_USAGE(.BOTH.,#319);
#191=CURVE_STYLE('',#320,POSITIVE_LENGTH_MEASURE(1000.0),#321);
#192=FACE_BOUND('',#322,.T.);
#193=FACE_BOUND('',#323,.T.);
#194=CONICAL_SURFACE('',#324,19.250000005,0.349065841567636);
#195=SURFACE_STYLE_USAGE(.BOTH.,#325);
#196=CURVE_STYLE('',#326,POSITIVE_LENGTH_MEASURE(1000.0),#327);
#197=FACE_BOUND('',#328,.T.);
#198=FACE_BOUND('',#329,.T.);
#199=CYLINDRICAL_SURFACE('',#330,19.5);
#200=CURVE_STYLE('',#331,POSITIVE_LENGTH_MEASURE(1000.0),#332);
#201=VERTEX_POINT('',#333);
#202=CIRCLE('',#334,11.7);
#203=SURFACE_STYLE_USAGE(.BOTH.,#335);
#204=CURVE_STYLE('',#336,POSITIVE_LENGTH_MEASURE(1000.0),#337);
#205=FACE_BOUND('',#338,.T.);
#206=FACE_BOUND('',#339,.T.);
#207=CYLINDRICAL_SURFACE('',#340,15.0);
#208=SURFACE_STYLE_USAGE(.BOTH.,#341);
#209=CURVE_STYLE('',#342,POSITIVE_LENGTH_MEASURE(1000.0),#343);
#210=FACE_BOUND('',#344,.T.);
#211=FACE_BOUND('',#345,.T.);
#212=CYLINDRICAL_SURFACE('',#346,11.7);
#213=SURFACE_STYLE_USAGE(.BOTH.,#347);
#214=CURVE_STYLE('',#348,POSITIVE_LENGTH_MEASURE(1000.0),#349);
#215=FACE_BOUND('',#350,.T.);
#216=FACE_BOUND('',#351,.T.);
#217=CYLINDRICAL_SURFACE('',#352,15.15);
#218=CURVE_STYLE('',#353,POSITIVE_LENGTH_MEASURE(1000.0),#354);
#219=VERTEX_POINT('',#355);
#220=CIRCLE('',#356,15.0);
#221=CURVE_STYLE('',#357,POSITIVE_LENGTH_MEASURE(1000.0),#358);
#222=VERTEX_POINT('',#359);
#223=CIRCLE('',#360,15.0);
#224=CURVE_STYLE('',#361,POSITIVE_LENGTH_MEASURE(1000.0),#362);
#225=VERTEX_POINT('',#363);
#226=CIRCLE('',#364,15.15);
#227=SURFACE_STYLE_USAGE(.BOTH.,#365);
#228=CURVE_STYLE('',#366,POSITIVE_LENGTH_MEASURE(1000.0),#367);
#229=FACE_OUTER_BOUND('',#368,.T.);
#230=FACE_BOUND('',#369,.T.);
#231=PLANE('',#370);
#232=SURFACE_STYLE_USAGE(.BOTH.,#371);
#233=CURVE_STYLE('',#372,POSITIVE_LENGTH_MEASURE(1000.0),#373);
#234=FACE_BOUND('',#374,.T.);
#235=FACE_OUTER_BOUND('',#375,.T.);
#236=PLANE('',#376);
#237=CURVE_STYLE('',#377,POSITIVE_LENGTH_MEASURE(1000.0),#378);
#238=VERTEX_POINT('',#379);
#239=CIRCLE('',#380,19.00000001);
#240=CURVE_STYLE('',#381,POSITIVE_LENGTH_MEASURE(1000.0),#382);
#241=VERTEX_POINT('',#383);
#242=CIRCLE('',#384,15.0);
#243=SURFACE_STYLE_USAGE(.BOTH.,#385);
#244=CURVE_STYLE('',#386,POSITIVE_LENGTH_MEASURE(1000.0),#387);
#245=FACE_BOUND('',#388,.T.);
#246=FACE_BOUND('',#389,.T.);
#247=CYLINDRICAL_SURFACE('',#390,15.0);
#248=PRODUCT_CONTEXT('',#38,'mechanical');
#249=PRODUCT_DEFINITION_FORMATION_WITH_SPECIFIED_SOURCE(' ','NONE',#122,.NOT_KNOWN.);
#250=CARTESIAN_POINT('',(0.0,0.0,0.0));
#251=DIRECTION('',(0.0,0.0,1.0));
#252=DIRECTION('',(1.0,0.0,0.0));
#253= (NAMED_UNIT(#130)LENGTH_UNIT()SI_UNIT(.MILLI.,.METRE.));
#254=SURFACE_SIDE_STYLE('',(#392));
#255=DRAUGHTING_PRE_DEFINED_CURVE_FONT('continuous');
#256=COLOUR_RGB('',0.0,1.0,0.0);
#257=SURFACE_SIDE_STYLE('',(#393));
#258=DRAUGHTING_PRE_DEFINED_CURVE_FONT('continuous');
#259=COLOUR_RGB('',0.0,1.0,0.0);
#260=EDGE_LOOP('',(#394));
#261=AXIS2_PLACEMENT_3D('',#395,#396,#397);
#262=SURFACE_SIDE_STYLE('',(#398));
#263=DRAUGHTING_PRE_DEFINED_CURVE_FONT('continuous');
#264=COLOUR_RGB('',0.0,1.0,0.0);
#265=EDGE_LOOP('',(#399));
#266=EDGE_LOOP('',(#400));
#267=AXIS2_PLACEMENT_3D('',#401,#402,#403);
#268=SURFACE_SIDE_STYLE('',(#404));
#269=DRAUGHTING_PRE_DEFINED_CURVE_FONT('continuous');
#270=COLOUR_RGB('',0.0,1.0,0.0);
#271=EDGE_LOOP('',(#405));
#272=EDGE_LOOP('',(#406));
#273=AXIS2_PLACEMENT_3D('',#407,#408,#409);
#274=SURFACE_SIDE_STYLE('',(#410));
#275=DRAUGHTING_PRE_DEFINED_CURVE_FONT('continuous');
#276=COLOUR_RGB('',0.0,1.0,0.0);
#277=EDGE_LOOP('',(#411));
#278=EDGE_LOOP('',(#412));
#279=AXIS2_PLACEMENT_3D('',#413,#414,#415);
#280=DRAUGHTING_PRE_DEFINED_CURVE_FONT('continuous');
#281=COLOUR_RGB('',0.0,1.0,0.0);
#282=CARTESIAN_POINT('',(-2.70807746574033E-015,19.5,44.22626128));
#283=AXIS2_PLACEMENT_3D('',#416,#417,#418);
#284=SURFACE_SIDE_STYLE('',(#419));
#285=DRAUGHTING_PRE_DEFINED_CURVE_FONT('continuous');
#286=COLOUR_RGB('',0.0,1.0,0.0);
#287=EDGE_LOOP('',(#420));
#288=EDGE_LOOP('',(#421));
#289=AXIS2_PLACEMENT_3D('',#422,#423,#424);
#290=DRAUGHTING_PRE_DEFINED_CURVE_FONT('continuous');
#291=COLOUR_RGB('',0.0,1.0,0.0);
#292=CARTESIAN_POINT('',(-2.79219470205597E-015,15.0,45.6));
#293=AXIS2_PLACEMENT_3D('',#425,#426,#427);
#294=DRAUGHTING_PRE_DEFINED_CURVE_FONT('continuous');
#295=COLOUR_RGB('',0.0,1.0,0.0);
#296=CARTESIAN_POINT('',(-1.46957615897682E-015,11.7,24.0));
#297=AXIS2_PLACEMENT_3D('',#428,#429,#430);
#298=DRAUGHTING_PRE_DEFINED_CURVE_FONT('continuous');
#299=COLOUR_RGB('',0.0,1.0,0.0);
#300=CARTESIAN_POINT('',(-2.33295215220293E-015,19.5,38.0999999971784));
#301=AXIS2_PLACEMENT_3D('',#431,#432,#433);
#302=DRAUGHTING_PRE_DEFINED_CURVE_FONT('continuous');
#303=COLOUR_RGB('',0.0,1.0,0.0);
#304=CARTESIAN_POINT('',(-1.34711147906209E-015,15.15,22.0));
#305=AXIS2_PLACEMENT_3D('',#434,#435,#436);
#306=DRAUGHTING_PRE_DEFINED_CURVE_FONT('continuous');
#307=COLOUR_RGB('',0.0,1.0,0.0);
#308=CARTESIAN_POINT('',(-1.33120285055073E-015,15.0,21.74019238));
#309=AXIS2_PLACEMENT_3D('',#437,#438,#439);
#310=DRAUGHTING_PRE_DEFINED_CURVE_FONT('continuous');
#311=COLOUR_RGB('',0.0,1.0,0.0);
#312=CARTESIAN_POINT('',(-6.55798360943408E-015,15.0,107.1));
#313=AXIS2_PLACEMENT_3D('',#440,#441,#442);
#314=SURFACE_SIDE_STYLE('',(#443));
#315=DRAUGHTING_PRE_DEFINED_CURVE_FONT('continuous');
#316=COLOUR_RGB('',0.0,1.0,0.0);
#317=EDGE_LOOP('',(#444));
#318=AXIS2_PLACEMENT_3D('',#445,#446,#447);
#319=SURFACE_SIDE_STYLE('',(#448));
#320=DRAUGHTING_PRE_DEFINED_CURVE_FONT('continuous');
#321=COLOUR_RGB('',0.0,1.0,0.0);
#322=EDGE_LOOP('',(#449));
#323=EDGE_LOOP('',(#450));
#324=AXIS2_PLACEMENT_3D('',#451,#452,#453);
#325=SURFACE_SIDE_STYLE('',(#454));
#326=DRAUGHTING_PRE_DEFINED_CURVE_FONT('continuous');
#327=COLOUR_RGB('',0.0,1.0,0.0);
#328=EDGE_LOOP('',(#455));
#329=EDGE_LOOP('',(#456));
#330=AXIS2_PLACEMENT_3D('',#457,#458,#459);
#331=DRAUGHTING_PRE_DEFINED_CURVE_FONT('continuous');
#332=COLOUR_RGB('',0.0,1.0,0.0);
#333=CARTESIAN_POINT('',(-1.53080849893419E-015,11.7,25.0));
#334=AXIS2_PLACEMENT_3D('',#460,#461,#462);
#335=SURFACE_SIDE_STYLE('',(#463));
#336=DRAUGHTING_PRE_DEFINED_CURVE_FONT('continuous');
#337=COLOUR_RGB('',0.0,1.0,0.0);
#338=EDGE_LOOP('',(#464));
#339=EDGE_LOOP('',(#465));
#340=AXIS2_PLACEMENT_3D('',#466,#467,#468);
#341=SURFACE_SIDE_STYLE('',(#469));
#342=DRAUGHTING_PRE_DEFINED_CURVE_FONT('continuous');
#343=COLOUR_RGB('',0.0,1.0,0.0);
#344=EDGE_LOOP('',(#470));
#345=EDGE_LOOP('',(#471));
#346=AXIS2_PLACEMENT_3D('',#472,#473,#474);
#347=SURFACE_SIDE_STYLE('',(#475));
#348=DRAUGHTING_PRE_DEFINED_CURVE_FONT('continuous');
#349=COLOUR_RGB('',0.0,1.0,0.0);
#350=EDGE_LOOP('',(#476));
#351=EDGE_LOOP('',(#477));
#352=AXIS2_PLACEMENT_3D('',#478,#479,#480);
#353=DRAUGHTING_PRE_DEFINED_CURVE_FONT('continuous');
#354=COLOUR_RGB('',0.0,1.0,0.0);
#355=CARTESIAN_POINT('',(-2.21213472282686E-015,15.0,36.12690164));
#356=AXIS2_PLACEMENT_3D('',#481,#482,#483);
#357=DRAUGHTING_PRE_DEFINED_CURVE_FONT('continuous');
#358=COLOUR_RGB('',0.0,1.0,0.0);
#359=CARTESIAN_POINT('',(-1.53080849893419E-015,15.0,25.0));
#360=AXIS2_PLACEMENT_3D('',#484,#485,#486);
#361=DRAUGHTING_PRE_DEFINED_CURVE_FONT('continuous');
#362=COLOUR_RGB('',0.0,1.0,0.0);
#363=CARTESIAN_POINT('',(-1.46957615897682E-015,15.15,24.0));
#364=AXIS2_PLACEMENT_3D('',#487,#488,#489);
#365=SURFACE_SIDE_STYLE('',(#490));
#366=DRAUGHTING_PRE_DEFINED_CURVE_FONT('continuous');
#367=COLOUR_RGB('',0.0,1.0,0.0);
#368=EDGE_LOOP('',(#491));
#369=EDGE_LOOP('',(#492));
#370=AXIS2_PLACEMENT_3D('',#493,#494,#495);
#371=SURFACE_SIDE_STYLE('',(#496));
#372=DRAUGHTING_PRE_DEFINED_CURVE_FONT('continuous');
#373=COLOUR_RGB('',0.0,1.0,0.0);
#374=EDGE_LOOP('',(#497));
#375=EDGE_LOOP('',(#498));
#376=AXIS2_PLACEMENT_3D('',#499,#500,#501);
#377=DRAUGHTING_PRE_DEFINED_CURVE_FONT('continuous');
#378=COLOUR_RGB('',0.0,1.0,0.0);
#379=CARTESIAN_POINT('',(-2.79219470205597E-015,19.00000001,45.6));
#380=AXIS2_PLACEMENT_3D('',#502,#503,#504);
#381=DRAUGHTING_PRE_DEFINED_CURVE_FONT('continuous');
#382=COLOUR_RGB('',0.0,1.0,0.0);
#383=CARTESIAN_POINT('',(0.0,15.0,0.0));
#384=AXIS2_PLACEMENT_3D('',#505,#506,#507);
#385=SURFACE_SIDE_STYLE('',(#508));
#386=DRAUGHTING_PRE_DEFINED_CURVE_FONT('continuous');
#387=COLOUR_RGB('',0.0,1.0,0.0);
#388=EDGE_LOOP('',(#509));
#389=EDGE_LOOP('',(#510));
#390=AXIS2_PLACEMENT_3D('',#511,#512,#513);
#392=SURFACE_STYLE_FILL_AREA(#514);
#393=SURFACE_STYLE_FILL_AREA(#515);
#394=ORIENTED_EDGE('',*,*,#82,.F.);
#395=CARTESIAN_POINT('',(-6.55798360943408E-015,7.49999999999999,107.1));
#396=DIRECTION('',(-6.12323399573677E-017,-1.22464679914735E-016,1.0));
#397=DIRECTION('',(1.23259516440783E-032,-1.0,-1.22464679914735E-016));
#398=SURFACE_STYLE_FILL_AREA(#516);
#399=ORIENTED_EDGE('',*,*,#106,.F.);
#400=ORIENTED_EDGE('',*,*,#104,.T.);
#401=CARTESIAN_POINT('',(-1.87147161088053E-015,-3.74294322176105E-015,30.56345082));
#402=DIRECTION('',(6.12323399573677E-017,1.22464679914747E-016,-1.0));
#403=DIRECTION('',(-1.23259516440783E-032,1.0,1.22464679914747E-016));
#404=SURFACE_STYLE_FILL_AREA(#517);
#405=ORIENTED_EDGE('',*,*,#104,.F.);
#406=ORIENTED_EDGE('',*,*,#76,.T.);
#407=CARTESIAN_POINT('',(-2.2725434375149E-015,-4.5450868750298E-015,37.1134508185892));
#408=DIRECTION('',(-6.12323399573677E-017,-1.22464679914716E-016,1.0));
#409=DIRECTION('',(-1.23259516440783E-032,1.0,1.22464679914716E-016));
#410=SURFACE_STYLE_FILL_AREA(#518);
#411=ORIENTED_EDGE('',*,*,#80,.F.);
#412=ORIENTED_EDGE('',*,*,#78,.T.);
#413=CARTESIAN_POINT('',(-1.33915716480641E-015,-2.67831432961282E-015,21.87009619));
#414=DIRECTION('',(-6.12323399573677E-017,-1.22464679914755E-016,1.0));
#415=DIRECTION('',(-1.23259516440789E-032,1.0,1.22464679914755E-016));
#416=CARTESIAN_POINT('',(-2.70807746574033E-015,-5.41615493148065E-015,44.22626128));
#417=DIRECTION('',(6.12323399573677E-017,1.22464679914735E-016,-1.0));
#418=DIRECTION('',(-1.23259516440783E-032,1.0,1.22464679914735E-016));
#419=SURFACE_STYLE_FILL_AREA(#519);
#420=ORIENTED_EDGE('',*,*,#108,.F.);
#421=ORIENTED_EDGE('',*,*,#74,.T.);
#422=CARTESIAN_POINT('',(-1.46957615897682E-015,13.425,24.0));
#423=DIRECTION('',(-6.12323399573677E-017,-1.22464679914735E-016,1.0));
#424=DIRECTION('',(1.23259516440783E-032,-1.0,-1.22464679914735E-016));
#425=CARTESIAN_POINT('',(-2.79219470205597E-015,-5.58438940411193E-015,45.6));
#426=DIRECTION('',(6.12323399573677E-017,1.22464679914747E-016,-1.0));
#427=DIRECTION('',(-1.23259516440783E-032,1.0,1.22464679914747E-016));
#428=CARTESIAN_POINT('',(-1.46957615897682E-015,-2.93915231795365E-015,24.0));
#429=DIRECTION('',(6.12323399573677E-017,1.22464679914721E-016,-1.0));
#430=DIRECTION('',(-1.23259516440791E-032,1.0,1.22464679914721E-016));
#431=CARTESIAN_POINT('',(-2.33295215220293E-015,-4.66590430440587E-015,38.0999999971784));
#432=DIRECTION('',(6.12323399573677E-017,1.22464679914735E-016,-1.0));
#433=DIRECTION('',(-1.23259516440783E-032,1.0,1.22464679914735E-016));
#434=CARTESIAN_POINT('',(-1.34711147906209E-015,-2.69422295812418E-015,22.0));
#435=DIRECTION('',(6.12323399573677E-017,1.22464679914709E-016,-1.0));
#436=DIRECTION('',(-1.23259516440795E-032,1.0,1.22464679914709E-016));
#437=CARTESIAN_POINT('',(-1.33120285055073E-015,-2.66240570110147E-015,21.74019238));
#438=DIRECTION('',(6.12323399573677E-017,1.22464679914747E-016,-1.0));
#439=DIRECTION('',(-1.23259516440783E-032,1.0,1.22464679914747E-016));
#440=CARTESIAN_POINT('',(-6.55798360943408E-015,-1.31159672188682E-014,107.1));
#441=DIRECTION('',(6.12323399573677E-017,1.22464679914747E-016,-1.0));
#442=DIRECTION('',(-1.23259516440783E-032,1.0,1.22464679914747E-016));
#443=SURFACE_STYLE_FILL_AREA(#520);
#444=ORIENTED_EDGE('',*,*,#118,.T.);
#445=CARTESIAN_POINT('',(0.0,7.5,0.0));
#446=DIRECTION('',(6.12323399573677E-017,1.22464679914735E-016,-1.0));
#447=DIRECTION('',(-1.23259516440783E-032,1.0,1.22464679914735E-016));
#448=SURFACE_STYLE_FILL_AREA(#521);
#449=ORIENTED_EDGE('',*,*,#67,.F.);
#450=ORIENTED_EDGE('',*,*,#116,.T.);
#451=CARTESIAN_POINT('',(-2.75013608389815E-015,-5.50027216779629E-015,44.91313064));
#452=DIRECTION('',(6.12323399573677E-017,1.22464679914741E-016,-1.0));
#453=DIRECTION('',(-1.23259516440774E-032,1.0,1.22464679914741E-016));
#454=SURFACE_STYLE_FILL_AREA(#522);
#455=ORIENTED_EDGE('',*,*,#76,.F.);
#456=ORIENTED_EDGE('',*,*,#67,.T.);
#457=CARTESIAN_POINT('',(-2.52051480897163E-015,-5.04102961794326E-015,41.1631306385892));
#458=DIRECTION('',(6.12323399573677E-017,1.22464679914735E-016,-1.0));
#459=DIRECTION('',(-1.23259516440783E-032,1.0,1.22464679914735E-016));
#460=CARTESIAN_POINT('',(-1.53080849893419E-015,-3.06161699786838E-015,25.0));
#461=DIRECTION('',(6.12323399573677E-017,1.22464679914721E-016,-1.0));
#462=DIRECTION('',(-1.23259516440791E-032,1.0,1.22464679914721E-016));
#463=SURFACE_STYLE_FILL_AREA(#523);
#464=ORIENTED_EDGE('',*,*,#72,.F.);
#465=ORIENTED_EDGE('',*,*,#82,.T.);
#466=CARTESIAN_POINT('',(-4.67508915574502E-015,-9.35017831149004E-015,76.35));
#467=DIRECTION('',(6.12323399573677E-017,1.22464679914747E-016,-1.0));
#468=DIRECTION('',(-1.23259516440783E-032,1.0,1.22464679914747E-016));
#469=SURFACE_STYLE_FILL_AREA(#524);
#470=ORIENTED_EDGE('',*,*,#74,.F.);
#471=ORIENTED_EDGE('',*,*,#93,.T.);
#472=CARTESIAN_POINT('',(-1.50019232895551E-015,-3.00038465791102E-015,24.5));
#473=DIRECTION('',(6.12323399573677E-017,1.22464679914721E-016,-1.0));
#474=DIRECTION('',(-1.23259516440791E-032,1.0,1.22464679914721E-016));
#475=SURFACE_STYLE_FILL_AREA(#525);
#476=ORIENTED_EDGE('',*,*,#78,.F.);
#477=ORIENTED_EDGE('',*,*,#108,.T.);
#478=CARTESIAN_POINT('',(-1.40834381901946E-015,-2.81668763803891E-015,23.0));
#479=DIRECTION('',(6.12323399573677E-017,1.22464679914709E-016,-1.0));
#480=DIRECTION('',(-1.23259516440795E-032,1.0,1.22464679914709E-016));
#481=CARTESIAN_POINT('',(-2.21213472282686E-015,-4.42426944565373E-015,36.12690164));
#482=DIRECTION('',(6.12323399573677E-017,1.22464679914747E-016,-1.0));
#483=DIRECTION('',(-1.23259516440783E-032,1.0,1.22464679914747E-016));
#484=CARTESIAN_POINT('',(-1.53080849893419E-015,-3.06161699786838E-015,25.0));
#485=DIRECTION('',(6.12323399573677E-017,1.22464679914747E-016,-1.0));
#486=DIRECTION('',(-1.23259516440783E-032,1.0,1.22464679914747E-016));
#487=CARTESIAN_POINT('',(-1.46957615897682E-015,-2.93915231795365E-015,24.0));
#488=DIRECTION('',(6.12323399573677E-017,1.22464679914709E-016,-1.0));
#489=DIRECTION('',(-1.23259516440795E-032,1.0,1.22464679914709E-016));
#490=SURFACE_STYLE_FILL_AREA(#526);
#491=ORIENTED_EDGE('',*,*,#116,.F.);
#492=ORIENTED_EDGE('',*,*,#72,.T.);
#493=CARTESIAN_POINT('',(-2.79219470205597E-015,17.000000005,45.6));
#494=DIRECTION('',(-6.12323399573677E-017,-1.22464679914735E-016,1.0));
#495=DIRECTION('',(1.23259516440783E-032,-1.0,-1.22464679914735E-016));
#496=SURFACE_STYLE_FILL_AREA(#527);
#497=ORIENTED_EDGE('',*,*,#93,.F.);
#498=ORIENTED_EDGE('',*,*,#106,.T.);
#499=CARTESIAN_POINT('',(-1.53080849893419E-015,13.35,25.0));
#500=DIRECTION('',(6.12323399573677E-017,1.22464679914735E-016,-1.0));
#501=DIRECTION('',(-1.23259516440783E-032,1.0,1.22464679914735E-016));
#502=CARTESIAN_POINT('',(-2.79219470205597E-015,-5.58438940411193E-015,45.6));
#503=DIRECTION('',(6.12323399573677E-017,1.22464679914748E-016,-1.0));
#504=DIRECTION('',(-1.23259516440765E-032,1.0,1.22464679914748E-016));
#505=CARTESIAN_POINT('',(0.0,0.0,0.0));
#506=DIRECTION('',(6.12323399573677E-017,1.22464679914747E-016,-1.0));
#507=DIRECTION('',(-1.23259516440783E-032,1.0,1.22464679914747E-016));
#508=SURFACE_STYLE_FILL_AREA(#528);
#509=ORIENTED_EDGE('',*,*,#118,.F.);
#510=ORIENTED_EDGE('',*,*,#80,.T.);
#511=CARTESIAN_POINT('',(-6.65601425275367E-016,-1.33120285055073E-015,10.87009619));
#512=DIRECTION('',(6.12323399573677E-017,1.22464679914747E-016,-1.0));
#513=DIRECTION('',(-1.23259516440783E-032,1.0,1.22464679914747E-016));
#514=FILL_AREA_STYLE('',(#529));
#515=FILL_AREA_STYLE('',(#530));
#516=FILL_AREA_STYLE('',(#531));
#517=FILL_AREA_STYLE('',(#532));
#518=FILL_AREA_STYLE('',(#533));
#519=FILL_AREA_STYLE('',(#534));
#520=FILL_AREA_STYLE('',(#535));
#521=FILL_AREA_STYLE('',(#536));
#522=FILL_AREA_STYLE('',(#537));
#523=FILL_AREA_STYLE('',(#538));
#524=FILL_AREA_STYLE('',(#539));
#525=FILL_AREA_STYLE('',(#540));
#526=FILL_AREA_STYLE('',(#541));
#527=FILL_AREA_STYLE('',(#542));
#528=FILL_AREA_STYLE('',(#543));
#529=FILL_AREA_STYLE_COLOUR('',#544);
#530=FILL_AREA_STYLE_COLOUR('',#545);
#531=FILL_AREA_STYLE_COLOUR('',#546);
#532=FILL_AREA_STYLE_COLOUR('',#547);
#533=FILL_AREA_STYLE_COLOUR('',#548);
#534=FILL_AREA_STYLE_COLOUR('',#549);
#535=FILL_AREA_STYLE_COLOUR('',#550);
#536=FILL_AREA_STYLE_COLOUR('',#551);
#537=FILL_AREA_STYLE_COLOUR('',#552);
#538=FILL_AREA_STYLE_COLOUR('',#553);
#539=FILL_AREA_STYLE_COLOUR('',#554);
#540=FILL_AREA_STYLE_COLOUR('',#555);
#541=FILL_AREA_STYLE_COLOUR('',#556);
#542=FILL_AREA_STYLE_COLOUR('',#557);
#543=FILL_AREA_STYLE_COLOUR('',#558);
#544=COLOUR_RGB('',0.0,1.0,0.0);
#545=COLOUR_RGB('',0.0,1.0,0.0);
#546=COLOUR_RGB('',0.0,1.0,0.0);
#547=COLOUR_RGB('',0.0,1.0,0.0);
#548=COLOUR_RGB('',0.0,1.0,0.0);
#549=COLOUR_RGB('',0.0,1.0,0.0);
#550=COLOUR_RGB('',0.0,1.0,0.0);
#551=COLOUR_RGB('',0.0,1.0,0.0);
#552=COLOUR_RGB('',0.0,1.0,0.0);
#553=COLOUR_RGB('',0.0,1.0,0.0);
#554=COLOUR_RGB('',0.0,1.0,0.0);
#555=COLOUR_RGB('',0.0,1.0,0.0);
#556=COLOUR_RGB('',0.0,1.0,0.0);
#557=COLOUR_RGB('',0.0,1.0,0.0);
#558=COLOUR_RGB('',0.0,1.0,0.0);
ENDSEC;
END-ISO-10303-21;
