  0
SECTION
  2
HEADER
  9
$ACADVER
  1
AC1009
  9
$INSBASE
 10
0.0
 20
0.0
 30
0.0
  9
$EXTMIN
 10
-70.0
 20
-19.5
 30
0.0
  9
$EXTMAX
 10
57.000000000000007
 20
54.95238095238097
 30
0.0
  9
$LIMMIN
 10
0.0
 20
0.0
  9
$LIMMAX
 10
297.0
 20
210.0
  9
$ORTHOMODE
 70
     0
  9
$REGENMODE
 70
     1
  9
$FILLMODE
 70
     1
  9
$QTEXTMODE
 70
     0
  9
$MIRRTEXT
 70
     1
  9
$DRAGMODE
 70
     2
  9
$LTSCALE
 40
10.0
  9
$OSMODE
 70
    37
  9
$ATTMODE
 70
     1
  9
$TEXTSIZE
 40
3.0
  9
$TRACEWID
 40
1.0
  9
$TEXTSTYLE
  7
YOKO
  9
$CLAYER
  8
241
  9
$CELTYPE
  6
BYLAYER
  9
$CECOLOR
 62
   256
  9
$DIMSCALE
 40
1.0
  9
$DIMASZ
 40
2.2299999999999991
  9
$DIMEXO
 40
0.5
  9
$DIMDLI
 40
7.0
  9
$DIMRND
 40
0.0
  9
$DIMDLE
 40
0.0
  9
$DIMEXE
 40
1.0
  9
$DIMTP
 40
0.0
  9
$DIMTM
 40
0.01
  9
$DIMTXT
 40
2.7999999999999989
  9
$DIMCEN
 40
0.0
  9
$DIMTSZ
 40
0.0
  9
$DIMTOL
 70
     0
  9
$DIMLIM
 70
     0
  9
$DIMTIH
 70
     0
  9
$DIMTOH
 70
     0
  9
$DIMSE1
 70
     0
  9
$DIMSE2
 70
     0
  9
$DIMTAD
 70
     3
  9
$DIMZIN
 70
     9
  9
$DIMBLK
  1
OPEN
  9
$DIMASO
 70
     1
  9
$DIMSHO
 70
     1
  9
$DIMPOST
  1

  9
$DIMAPOST
  1

  9
$DIMALT
 70
     0
  9
$DIMALTD
 70
     2
  9
$DIMALTF
 40
25.399999999999999
  9
$DIMLFAC
 40
1.0
  9
$DIMTOFL
 70
     1
  9
$DIMTVP
 40
0.0
  9
$DIMTIX
 70
     1
  9
$DIMSOXD
 70
     0
  9
$DIMSAH
 70
     0
  9
$DIMBLK1
  1

  9
$DIMBLK2
  1

  9
$DIMSTYLE
  2
BIGT
  9
$DIMCLRD
 70
   256
  9
$DIMCLRE
 70
   256
  9
$DIMCLRT
 70
    40
  9
$DIMTFAC
 40
1.0
  9
$DIMGAP
 40
1.0
  9
$LUNITS
 70
     2
  9
$LUPREC
 70
     6
  9
$SKETCHINC
 40
1.0
  9
$FILLETRAD
 40
0.0
  9
$AUNITS
 70
     0
  9
$AUPREC
 70
     6
  9
$MENU
  1
.
  9
$ELEVATION
 40
0.0
  9
$PELEVATION
 40
0.0
  9
$THICKNESS
 40
0.0
  9
$LIMCHECK
 70
     0
  9
$BLIPMODE
 70
     0
  9
$CHAMFERA
 40
0.2
  9
$CHAMFERB
 40
0.2
  9
$SKPOLY
 70
     0
  9
$TDCREATE
 40
2458145.5505894911
  9
$TDUPDATE
 40
2458145.668093611
  9
$TDINDWG
 40
0.0016972917
  9
$TDUSRTIMER
 40
0.0016972685
  9
$USRTIMER
 70
     1
  9
$ANGBASE
 50
0.0
  9
$ANGDIR
 70
     0
  9
$PDMODE
 70
     1
  9
$PDSIZE
 40
0.0
  9
$PLINEWID
 40
0.0
  9
$COORDS
 70
     1
  9
$SPLFRAME
 70
     0
  9
$SPLINETYPE
 70
     6
  9
$SPLINESEGS
 70
     4
  9
$ATTDIA
 70
     1
  9
$ATTREQ
 70
     1
  9
$HANDLING
 70
     1
  9
$HANDSEED
  5
449B
  9
$SURFTAB1
 70
     6
  9
$SURFTAB2
 70
     6
  9
$SURFTYPE
 70
     6
  9
$SURFU
 70
     6
  9
$SURFV
 70
     6
  9
$UCSNAME
  2

  9
$UCSORG
 10
0.0
 20
0.0
 30
0.0
  9
$UCSXDIR
 10
1.0
 20
0.0
 30
0.0
  9
$UCSYDIR
 10
0.0
 20
1.0
 30
0.0
  9
$PUCSNAME
  2

  9
$PUCSORG
 10
0.0
 20
0.0
 30
0.0
  9
$PUCSXDIR
 10
1.0
 20
0.0
 30
0.0
  9
$PUCSYDIR
 10
0.0
 20
1.0
 30
0.0
  9
$USERI1
 70
     1
  9
$USERI2
 70
     0
  9
$USERI3
 70
     0
  9
$USERI4
 70
     0
  9
$USERI5
 70
     0
  9
$USERR1
 40
0.0
  9
$USERR2
 40
0.0
  9
$USERR3
 40
0.0
  9
$USERR4
 40
0.0
  9
$USERR5
 40
0.0
  9
$WORLDVIEW
 70
     1
  9
$SHADEDGE
 70
     3
  9
$SHADEDIF
 70
    70
  9
$TILEMODE
 70
     1
  9
$MAXACTVP
 70
    16
  9
$PLIMCHECK
 70
     0
  9
$PEXTMIN
 10
1.0000000000000000E+020
 20
1.0000000000000000E+020
 30
1.0000000000000000E+020
  9
$PEXTMAX
 10
-1.0000000000000000E+020
 20
-1.0000000000000000E+020
 30
-1.0000000000000000E+020
  9
$PLIMMIN
 10
0.0
 20
0.0
  9
$PLIMMAX
 10
420.0
 20
297.0
  9
$UNITMODE
 70
     0
  9
$VISRETAIN
 70
     1
  9
$PLINEGEN
 70
     0
  9
$PSLTSCALE
 70
     1
  0
ENDSEC
  0
SECTION
  2
TABLES
  0
TABLE
  2
VPORT
 70
     1
  0
VPORT
  2
*ACTIVE
 70
     0
 10
0.0
 20
0.0
 11
1.0
 21
1.0
 12
-0.8176375830776407
 22
23.04370580999165
 13
0.0
 23
0.0
 14
7.0
 24
7.0
 15
7.0
 25
7.0
 16
0.0
 26
0.0
 36
1.0
 17
0.0
 27
0.0
 37
0.0
 40
170.55745957958351
 41
1.4925690021231419
 42
50.0
 43
0.0
 44
0.0
 50
0.0
 51
0.0
 71
     0
 72
  2000
 73
     1
 74
     0
 75
     0
 76
     1
 77
     0
 78
     0
  0
ENDTAB
  0
TABLE
  2
LTYPE
 70
    18
  0
LTYPE
  2
CONTINUOUS
 70
     0
  3
Solid line
 72
    65
 73
     0
 40
0.0
  0
LTYPE
  2
CENTER2
 70
     0
  3
___ _ ___ _ ___ _ ___ _ ___ _ ___ _ ___ _ ___ _
 72
    65
 73
     4
 40
1.125
 49
0.75
 49
-0.125
 49
0.125
 49
-0.125
  0
LTYPE
  2
HIDDEN2
 70
     0
  3
_ _ _ _ _ _ _ _ _ _ _ _ _ _ _ _ _ _ _ _ _ _ _ _
 72
    65
 73
     2
 40
0.1875
 49
0.125
 49
-0.0625
  0
LTYPE
  2
AM_ISO02W050
 70
     0
  3
__ __ __ __ __ __ __ __ __ __ __ __ __ __ __
 72
    65
 73
     2
 40
7.5
 49
6.0
 49
-1.5
  0
LTYPE
  2
AMCONSTR
 70
     0
  3
_______________________
 72
    65
 73
     2
 40
9999.0
 49
9999.0
 49
0.0
  0
LTYPE
  2
ACISOWELD
 70
     0
  3
_ _ _ _ _
 72
    65
 73
     2
 40
2.0
 49
2.0
 49
-1.0
  0
LTYPE
  2
ACISOTGB
 70
     0
  3
__ . . __ . .
 72
    65
 73
     6
 40
9.0
 49
4.0
 49
-1.0
 49
1.0
 49
-1.0
 49
1.0
 49
-1.0
  0
LTYPE
  2
ACISOTGL
 70
     0
  3
_ _ _ _ _
 72
    65
 73
     2
 40
3.0
 49
2.0
 49
-1.0
  0
LTYPE
  2
AM_ISO08W050
 70
     0
  3
____ . ____ . ____ . ____ . ____ . ____ . ____
 72
    65
 73
     4
 40
18.0
 49
12.0
 49
-1.5
 49
3.0
 49
-1.5
  0
LTYPE
  2
AM_ISO09W050
 70
     0
  3
_____ . . _____ . . _____ . . ____ .. ____
 72
    65
 73
     6
 40
22.5
 49
12.0
 49
-1.5
 49
3.0
 49
-1.5
 49
3.0
 49
-1.5
  0
LTYPE
  2
AM_ISO08W050X2
 70
     0
  3
__ . __ . __ . __ . __ . __
 72
    65
 73
     4
 40
9.0
 49
6.0
 49
-0.75
 49
1.5
 49
-0.75
  0
LTYPE
  2
AM_ISO02W050X2
 70
     0
  3
 _ _ _ _ _ _ _ _ _ _ _ _
 72
    65
 73
     2
 40
3.75
 49
3.0
 49
-0.75
  0
LTYPE
  2
AMZIGZAG
 70
     0
  3
/\/-/\/-/\/-/\/-/\/-/\/
 72
    65
 73
     2
 40
11.0001
 49
0.0001
 49
-11.0
  0
ENDTAB
  0
TABLE
  2
LAYER
 70
     9
  0
LAYER
  2
0
 70
     0
 62
     7
  6
CONTINUOUS
  0
LAYER
  2
DEFPOINTS
 70
     0
 62
     7
  6
CONTINUOUS
  0
LAYER
  2
245
 70
     0
 62
     2
  6
CENTER2
  0
LAYER
  2
240
 70
     0
 62
     4
  6
CONTINUOUS
  0
LAYER
  2
241
 70
     0
 62
   211
  6
CONTINUOUS
  0
LAYER
  2
243
 70
     0
 62
   211
  6
HIDDEN2
  0
LAYER
  2
244
 70
     0
 62
     3
  6
HIDDEN2
  0
LAYER
  2
247
 70
     0
 62
    60
  6
CONTINUOUS
  0
LAYER
  2
250
 70
     0
 62
     3
  6
CONTINUOUS
  0
ENDTAB
  0
TABLE
  2
STYLE
 70
     7
  0
STYLE
  2
STANDARD
 70
     0
 40
0.0
 41
1.0
 50
0.0
 71
     0
 42
3.0
  3
romans.shx
  4
extfont.shx
  0
STYLE
  2
ACISOGDT
 70
     0
 40
0.0
 41
1.0
 50
0.0
 71
     0
 42
3.0
  3
amgdt.shx
  4
extfont.shx
  0
STYLE
  2
YOKO
 70
     0
 40
0.0
 41
1.0
 50
0.0
 71
     0
 42
3.0
  3
romans.shx
  4
extfont.shx
  0
STYLE
  2

 70
     1
 40
0.0
 41
1.0
 50
0.0
 71
     0
 42
3.0
  3
genltshp.shx
  4

  0
ENDTAB
  0
TABLE
  2
VIEW
 70
     0
  0
ENDTAB
  0
TABLE
  2
UCS
 70
     0
  0
ENDTAB
  0
TABLE
  2
APPID
 70
    37
  0
APPID
  2
ACAD
 70
     0
  0
APPID
  2
GLOBAL
 70
     0
  0
APPID
  2
DETAIL
 70
     0
  0
APPID
  2
GRPNAME
 70
     0
  0
APPID
  2
GPARA
 70
     0
  0
APPID
  2
MCAD_NO_VIS
 70
     0
  0
APPID
  2
ACAD_TEMP_GRAPHIC
 70
     0
  0
APPID
  2
ACATTRIBSERVICES
 70
     0
  0
APPID
  2
GENIUS_GENSCREG_15
 70
     0
  0
APPID
  2
GENIUS_GENODEF_13
 70
     0
  0
APPID
  2
GENIUS_GENOBJ-N-SDF_13
 70
     0
  0
APPID
  2
GENIUS_GENREC_14
 70
     0
  0
APPID
  2
GENIUS_GENOBJ-N-REC_13
 70
     0
  0
APPID
  2
GENIUS_GENDIMSH_14
 70
     0
  0
APPID
  2
GENIUS_GENOBJ-N-DIM_13
 70
     0
  0
APPID
  2
GENIUS_GENDIM_13
 70
     0
  0
APPID
  2
GENIUS_GENDTOL_13
 70
     0
  0
APPID
  2
GENIUS_GENOLIS_13
 70
     0
  0
APPID
  2
GENIUS_GENOENT_13
 70
     0
  0
APPID
  2
GENIUS_GENOBJ-F-FEM_13
 70
     0
  0
APPID
  2
GENIUS_GENOREF_13
 70
     0
  0
APPID
  2
GENIUS_GEFFEM_13
 70
     0
  0
APPID
  2
GENIUS_GEFFEMP_13
 70
     0
  0
APPID
  2
AD_DRAW
 70
     0
  0
APPID
  2
DESIGNERASSEMBLIES
 70
     0
  0
APPID
  2
ACADM_DIM_EDIT
 70
     0
  0
APPID
  2
AMDT_DM_ADJ
 70
     0
  0
APPID
  2
ITEMNAME
 70
     0
  0
APPID
  2
GENIUS_GENOBJ-N-FIL_13
 70
     0
  0
APPID
  2
GENIUS_GENFIL_13
 70
     0
  0
APPID
  2
GENIUS_GENOBJ-N-CHA_13
 70
     0
  0
APPID
  2
ACAECLAYERSTANDARD
 70
     0
  0
APPID
  2
ACAD_NAV_VCDISPLAY
 70
     0
  0
APPID
  2
ACAD_EXEMPT_FROM_CAD_STANDARDS
 70
     0
  0
APPID
  2
ACAD_MLEADERVER
 70
     0
  0
APPID
  2
ACAD_DSTYLE_DIMBREAK
 70
     0
  0
APPID
  2
ACAD_DSTYLE_DIMJAG
 70
     0
  0
ENDTAB
  0
TABLE
  2
DIMSTYLE
 70
    23
  0
DIMSTYLE
  2
BIGT
 70
     0
  3

  4

  5
OPEN
  6

  7

 40
1.0
 41
2.2299999999999991
 42
0.5
 43
7.0
 44
1.0
 45
0.0
 46
0.0
 47
0.0
 48
0.01
140
2.7999999999999989
141
0.0
142
0.0
143
25.399999999999999
144
1.0
145
0.0
146
1.0
147
1.0
 71
     0
 72
     0
 73
     0
 74
     0
 75
     0
 76
     0
 77
     3
 78
     9
170
     0
171
     2
172
     1
173
     0
174
     1
175
     0
176
   256
177
   256
178
    40
  0
DIMSTYLE
  2
AM_ISO
 70
     0
  3

  4
"
  5

  6

  7

 40
1.0
 41
2.5
 42
1.0
 43
10.0
 44
1.0
 45
0.0
 46
0.0
 47
0.1
 48
0.1
140
3.5
141
0.0
142
0.0
143
0.0393701
144
1.0
145
0.0
146
0.71
147
1.5
 71
     0
 72
     0
 73
     0
 74
     0
 75
     0
 76
     0
 77
     1
 78
     8
170
     0
171
     2
172
     1
173
     0
174
     0
175
     0
176
   256
177
   256
178
     2
  0
DIMSTYLE
  2
AM_ISO$3
 70
     0
  3

  4
"
  5

  6

  7

 40
1.0
 41
2.5
 42
1.0
 43
10.0
 44
1.0
 45
0.0
 46
0.0
 47
0.1
 48
0.1
140
3.5
141
0.0
142
0.0
143
0.0393701
144
1.0
145
0.0
146
0.71
147
1.5
 71
     0
 72
     0
 73
     0
 74
     1
 75
     0
 76
     0
 77
     1
 78
     8
170
     0
171
     2
172
     0
173
     0
174
     0
175
     0
176
   256
177
   256
178
     2
  0
DIMSTYLE
  2
AM_ISO$4
 70
     0
  3

  4
"
  5

  6

  7

 40
1.0
 41
2.5
 42
1.0
 43
10.0
 44
1.0
 45
0.0
 46
0.0
 47
0.1
 48
0.1
140
3.5
141
0.0
142
0.0
143
0.0393701
144
1.0
145
0.0
146
0.71
147
1.5
 71
     0
 72
     0
 73
     0
 74
     1
 75
     0
 76
     0
 77
     1
 78
     8
170
     0
171
     2
172
     0
173
     0
174
     0
175
     0
176
   256
177
   256
178
     2
  0
DIMSTYLE
  2
AM_ISO$6
 70
     0
  3

  4
"
  5

  6

  7

 40
1.0
 41
2.5
 42
1.0
 43
10.0
 44
1.0
 45
0.0
 46
0.0
 47
0.1
 48
0.1
140
3.5
141
0.0
142
0.0
143
0.0393701
144
1.0
145
0.0
146
0.71
147
1.5
 71
     0
 72
     0
 73
     0
 74
     0
 75
     0
 76
     0
 77
     0
 78
     8
170
     0
171
     2
172
     1
173
     0
174
     0
175
     0
176
   256
177
   256
178
     2
  0
DIMSTYLE
  2
AM_ISO$7
 70
     0
  3

  4
"
  5

  6

  7

 40
1.0
 41
2.5
 42
1.0
 43
10.0
 44
1.0
 45
0.0
 46
0.0
 47
0.1
 48
0.1
140
5.0
141
0.0
142
0.0
143
0.0393701
144
1.0
145
0.0
146
0.71
147
1.5
 71
     0
 72
     0
 73
     0
 74
     0
 75
     0
 76
     0
 77
     1
 78
     8
170
     0
171
     2
172
     1
173
     0
174
     0
175
     0
176
   256
177
   256
178
     2
  0
DIMSTYLE
  2
AM_ISO$SF
 70
     0
  3

  4
"
  5

  6

  7

 40
1.0
 41
2.5
 42
1.0
 43
10.0
 44
1.0
 45
0.0
 46
0.0
 47
0.1
 48
0.1
140
3.5
141
0.0
142
0.0
143
0.0393701
144
1.0
145
0.0
146
0.71
147
1.5
 71
     0
 72
     0
 73
     0
 74
     0
 75
     1
 76
     1
 77
     1
 78
     8
170
     0
171
     2
172
     1
173
     0
174
     0
175
     0
176
   256
177
   256
178
     2
  0
DIMSTYLE
  2
AM_ISO$SH
 70
     0
  3

  4
"
  5

  6
GENAXEH
  7

 40
1.0
 41
2.5
 42
1.0
 43
10.0
 44
1.0
 45
0.0
 46
0.0
 47
0.1
 48
0.1
140
3.5
141
0.0
142
0.0
143
0.0393701
144
2.0
145
0.0
146
0.71
147
1.5
 71
     0
 72
     0
 73
     0
 74
     0
 75
     1
 76
     1
 77
     1
 78
     8
170
     0
171
     2
172
     1
173
     1
174
     0
175
     0
176
   256
177
   256
178
     2
  0
ENDTAB
  0
ENDSEC
  0
SECTION
  2
BLOCKS
  0
BLOCK
  8
0
  2
$MODEL_SPACE
 70
     0
 10
0.0
 20
0.0
 30
0.0
  3
$MODEL_SPACE
  1

  0
ENDBLK
  5
1C
  8
0
  0
BLOCK
 67
     1
  8
0
  2
$PAPER_SPACE
 70
     0
 10
0.0
 20
0.0
 30
0.0
  3
$PAPER_SPACE
  1

  0
ENDBLK
  5
19
 67
     1
  8
0
  0
BLOCK
  8
0
  2
_OPEN
 70
     0
 10
0.0
 20
0.0
 30
0.0
  3
_OPEN
  1

  0
LINE
  5
3E1A
  8
0
  6
BYBLOCK
 62
     0
 10
-1.0
 20
0.1666666666666666
 30
0.0
 11
0.0
 21
0.0
 31
0.0
  0
LINE
  5
3E1B
  8
0
  6
BYBLOCK
 62
     0
 10
-1.0
 20
-0.1666666666666666
 30
0.0
 11
0.0
 21
0.0
 31
0.0
  0
LINE
  5
3E1C
  8
0
  6
BYBLOCK
 62
     0
 10
0.0
 20
0.0
 30
0.0
 11
-1.0
 21
0.0
 31
0.0
  0
ENDBLK
  5
3E1D
  8
0
  0
BLOCK
  8
0
  2
GENAXEH
 70
     0
 10
0.0
 20
0.0
 30
0.0
  3
GENAXEH
  1

  0
LINE
  5
3E45
  8
0
 10
-1.0
 20
0.0
 30
0.0
 11
1.0
 21
0.0
 31
0.0
  0
ENDBLK
  5
3E46
  8
0
  0
ENDSEC
  0
SECTION
  2
ENTITIES
  0
TEXT
  5
42B8
  8
241
  6
CONTINUOUS
 10
-69.0
 20
49.0
 30
0.0
 40
5.0
  1
MGT20-AU11/16-1.5
  7
YOKO
 11
-69.0
 21
49.0
 31
0.0
 73
     1
  0
LINE
  5
42B9
  8
250
  6
CONTINUOUS
 10
31.123592378758939
 20
28.39254083698528
 30
0.0
 11
16.270259048758941
 21
28.39254083698528
 31
0.0
1001
ITEMNAME
1000
LNSP2
  0
TEXT
  5
42BA
  8
250
  6
CONTINUOUS
 10
18.6969257154256
 20
29.39254083698528
 30
0.0
 40
2.799999999999998
  1
üá.406
  7
YOKO
1001
ITEMNAME
1000
LNSP3
1001
ACAD
1000
MTEXTBEGIN
1070
    73
1070
     1
1070
    44
1040
1.0
1070
    74
1070
     0
1000
MTEXTEND
1000
MTEXTBEGIN
1070
    73
1070
     1
1070
    44
1040
1.0
1070
    74
1070
     0
1000
MTEXTEND
1000
MTEXTBEGIN
1070
    73
1070
     1
1070
    44
1040
1.0
1070
    74
1070
     0
1000
MTEXTEND
1000
MTEXTBEGIN
1070
    73
1070
     1
1070
    44
1040
1.0
1070
    74
1070
     0
1000
MTEXTEND
1000
MTEXTBEGIN
1070
    73
1070
     1
1070
    44
1040
1.0
1070
    74
1070
     0
1000
MTEXTEND
1000
MTEXTBEGIN
1070
    73
1070
     1
1070
    44
1040
1.0
1070
    74
1070
     0
1000
MTEXTEND
1000
MTEXTBEGIN
1070
    73
1070
     1
1070
    44
1040
1.0
1070
    74
1070
     0
1000
MTEXTEND
1000
MTEXTBEGIN
1070
    73
1070
     1
1070
    44
1040
1.0
1070
    74
1070
     0
1000
MTEXTEND
  0
LINE
  5
42BB
  8
250
  6
CONTINUOUS
 10
38.600000000000001
 20
-15.0
 30
0.0
 11
57.000000000000007
 21
-15.0
 31
0.0
  0
LINE
  5
42BC
  8
250
  6
CONTINUOUS
 10
38.600000000000001
 20
15.0
 30
0.0
 11
57.000000000000007
 21
15.0
 31
0.0
  0
LINE
  5
42BD
  8
250
  6
CONTINUOUS
 10
56.000000000000007
 20
-13.0
 30
0.0
 11
56.000000000000007
 21
13.0
 31
0.0
  0
TEXT
  5
42BE
  8
250
  6
CONTINUOUS
 10
55.0
 20
-6.887064927504122
 30
0.0
 40
2.799999999999998
  1
\U+22051.181
 50
90.0
1001
ACAD
1000
MTEXTBEGIN
1070
    73
1070
     1
1070
    44
1040
1.0
1070
    74
1070
     0
1000
MTEXTEND
  0
LINE
  5
42BF
  8
250
  6
CONTINUOUS
 10
55.66666666666665
 20
13.0
 30
0.0
 11
56.000000000000007
 21
15.0
 31
0.0
  0
LINE
  5
42C0
  8
250
  6
CONTINUOUS
 10
56.33333333333335
 20
13.0
 30
0.0
 11
56.000000000000007
 21
15.0
 31
0.0
  0
LINE
  5
42C1
  8
250
  6
CONTINUOUS
 10
56.000000000000007
 20
15.0
 30
0.0
 11
56.000000000000007
 21
13.0
 31
0.0
  0
LINE
  5
42C2
  8
250
  6
CONTINUOUS
 10
56.33333333333335
 20
-13.0
 30
0.0
 11
56.000000000000007
 21
-15.0
 31
0.0
  0
LINE
  5
42C3
  8
250
  6
CONTINUOUS
 10
55.66666666666665
 20
-13.0
 30
0.0
 11
56.000000000000007
 21
-15.0
 31
0.0
  0
LINE
  5
42C4
  8
250
  6
CONTINUOUS
 10
56.000000000000007
 20
-15.0
 30
0.0
 11
56.000000000000007
 21
-13.0
 31
0.0
  0
LINE
  5
42C5
  8
250
  6
CONTINUOUS
 10
10.367201812717131
 20
9.4896036848522431
 30
0.0
 11
16.270259048758941
 21
28.39254083698528
 31
0.0
1001
ACAD
1000
DSTYLE
1002
{
1070
     6
1000
OPEN
1070
   343
1005
0
1002
}
  0
LINE
  5
42C6
  8
250
  6
CONTINUOUS
 10
10.721972161490299
 20
9.3788150990571442
 30
0.0
 11
9.7024702979465172
 21
7.3609815922132622
 31
0.0
  0
LINE
  5
42C7
  8
250
  6
CONTINUOUS
 10
10.012431463943971
 20
9.6003922706473475
 30
0.0
 11
9.7024702979465172
 21
7.3609815922132622
 31
0.0
  0
LINE
  5
42C8
  8
250
  6
CONTINUOUS
 10
9.7024702979465172
 20
7.3609815922132622
 30
0.0
 11
10.367201812717139
 21
9.4896036848522431
 31
0.0
  0
LINE
  5
42C9
  8
240
  6
CONTINUOUS
 10
16.359807620000002
 20
15.0
 30
0.0
 11
38.100000000000001
 21
15.0
 31
0.0
  0
LINE
  5
42CA
  8
240
  6
CONTINUOUS
 10
16.359807620000002
 20
-15.0
 30
0.0
 11
38.100000000000001
 21
-15.0
 31
0.0
  0
LINE
  5
42CB
  8
245
  6
CENTER2
 10
-70.0
 20
0.0
 30
0.0
 11
39.806675296540853
 21
0.0
 31
0.0
  0
LINE
  5
42CC
  8
240
  6
CONTINUOUS
 10
-54.0
 20
-12.5
 30
0.0
 11
-56.5
 21
-15.0
 31
0.0
  0
LINE
  5
42CD
  8
240
  6
CONTINUOUS
 10
-54.0
 20
12.5
 30
0.0
 11
-56.5
 21
15.0
 31
0.0
  0
LINE
  5
42CE
  8
240
  6
CONTINUOUS
 10
-69.0
 20
-15.0
 30
0.0
 11
-56.5
 21
-15.0
 31
0.0
  0
LINE
  5
42CF
  8
240
  6
CONTINUOUS
 10
-69.0
 20
15.0
 30
0.0
 11
-69.0
 21
-15.0
 31
0.0
  0
LINE
  5
42D0
  8
240
  6
CONTINUOUS
 10
-69.0
 20
15.0
 30
0.0
 11
-56.5
 21
15.0
 31
0.0
  0
LINE
  5
42D1
  8
241
  6
CONTINUOUS
 10
13.1
 20
-11.699999999999999
 30
0.0
 11
13.1
 21
11.699999999999999
 31
0.0
  0
LINE
  5
42D2
  8
241
  6
CONTINUOUS
 10
17.300000000000001
 20
-15.0
 30
0.0
 11
17.300000000000001
 21
15.0
 31
0.0
  0
LINE
  5
42D3
  8
241
  6
CONTINUOUS
 10
16.100000000000001
 20
-15.15
 30
0.0
 11
16.100000000000001
 21
15.15
 31
0.0
  0
LINE
  5
42D4
  8
241
  6
CONTINUOUS
 10
14.1
 20
-11.699999999999999
 30
0.0
 11
14.1
 21
11.699999999999999
 31
0.0
  0
LINE
  5
42D5
  8
245
  6
CENTER2
 10
-46.0
 20
-15.0
 30
0.0
 11
-46.0
 21
15.0
 31
0.0
1001
GENIUS_GENOREF_13
1005
0
  0
LINE
  5
42D6
  8
241
  6
CONTINUOUS
 10
-32.0
 20
-15.0
 30
0.0
 11
-32.0
 21
15.0
 31
0.0
  0
LINE
  5
42D7
  8
241
  6
CONTINUOUS
 10
-29.5
 20
-15.0
 30
0.0
 11
-29.5
 21
15.0
 31
0.0
  0
LINE
  5
42D8
  8
241
  6
CONTINUOUS
 10
-21.5
 20
-15.0
 30
0.0
 11
-21.5
 21
15.0
 31
0.0
  0
LINE
  5
42D9
  8
241
  6
CONTINUOUS
 10
-19.0
 20
-15.0
 30
0.0
 11
-19.0
 21
15.0
 31
0.0
  0
LINE
  5
42DA
  8
241
  6
CONTINUOUS
 10
0.0
 20
-19.5
 30
0.0
 11
0.0
 21
19.5
 31
0.0
  0
LINE
  5
42DB
  8
241
  6
CONTINUOUS
 10
1.205771369999999
 20
-15.358743970000001
 30
0.0
 11
1.205771369999999
 21
15.358743970000001
 31
0.0
  0
LINE
  5
42DC
  8
240
  6
CONTINUOUS
 10
-38.0
 20
-12.5
 30
0.0
 11
-35.5
 21
-15.0
 31
0.0
  0
LINE
  5
42DD
  8
240
  6
CONTINUOUS
 10
-46.0
 20
-12.5
 30
0.0
 11
-38.0
 21
-12.5
 31
0.0
  0
LINE
  5
42DE
  8
240
  6
CONTINUOUS
 10
-54.0
 20
-12.5
 30
0.0
 11
-46.0
 21
-12.5
 31
0.0
  0
LINE
  5
42DF
  8
240
  6
CONTINUOUS
 10
-35.5
 20
-15.0
 30
0.0
 11
-7.5
 21
-15.0
 31
0.0
  0
LINE
  5
42E0
  8
240
  6
CONTINUOUS
 10
13.1
 20
-15.0
 30
0.0
 11
1.9730983600000009
 21
-15.0
 31
0.0
  0
LINE
  5
42E1
  8
240
  6
CONTINUOUS
 10
-7.5
 20
-19.000000010000001
 30
0.0
 11
-6.1262612799999987
 21
-19.5
 31
0.0
  0
LINE
  5
42E2
  8
240
  6
CONTINUOUS
 10
0.0000000028216141
 20
-19.5
 30
0.0
 11
1.0071725300000001
 21
-15.741180959999999
 31
0.0
  0
LINE
  5
42E3
  8
240
  6
CONTINUOUS
 10
0.0000000028216141
 20
-19.5
 30
0.0
 11
-6.1262612900000004
 21
-19.5
 31
0.0
  0
ARC
  5
42E4
  8
240
  6
CONTINUOUS
 10
1.9730983600000001
 20
-16.0
 30
0.0
 40
1.0
 50
90.0
 51
165.00000001999999
  0
LINE
  5
42E5
  8
240
  6
CONTINUOUS
 10
14.1
 20
-15.15
 30
0.0
 11
16.100000000000001
 21
-15.15
 31
0.0
  0
LINE
  5
42E6
  8
240
  6
CONTINUOUS
 10
14.1
 20
-11.699999999999999
 30
0.0
 11
14.1
 21
-15.15
 31
0.0
  0
LINE
  5
42E7
  8
240
  6
CONTINUOUS
 10
13.1
 20
-11.699999999999999
 30
0.0
 11
13.1
 21
-15.0
 31
0.0
  0
LINE
  5
42E8
  8
240
  6
CONTINUOUS
 10
14.1
 20
-11.699999999999999
 30
0.0
 11
13.1
 21
-11.699999999999999
 31
0.0
  0
LINE
  5
42E9
  8
240
  6
CONTINUOUS
 10
16.359807620000002
 20
-15.0
 30
0.0
 11
16.100000000000001
 21
-15.15
 31
0.0
  0
LINE
  5
42EA
  8
240
  6
CONTINUOUS
 10
-38.0
 20
12.5
 30
0.0
 11
-35.5
 21
15.0
 31
0.0
  0
LINE
  5
42EB
  8
240
  6
CONTINUOUS
 10
-46.0
 20
12.5
 30
0.0
 11
-38.0
 21
12.5
 31
0.0
  0
LINE
  5
42EC
  8
240
  6
CONTINUOUS
 10
-54.0
 20
12.5
 30
0.0
 11
-46.0
 21
12.5
 31
0.0
  0
LINE
  5
42ED
  8
240
  6
CONTINUOUS
 10
-35.5
 20
15.0
 30
0.0
 11
-7.5
 21
15.0
 31
0.0
  0
LINE
  5
42EE
  8
240
  6
CONTINUOUS
 10
16.359807620000002
 20
15.0
 30
0.0
 11
16.100000000000001
 21
15.15
 31
0.0
  0
LINE
  5
42EF
  8
240
  6
CONTINUOUS
 10
14.1
 20
11.699999999999999
 30
0.0
 11
14.1
 21
15.15
 31
0.0
  0
ARC
  5
42F0
  8
240
  6
CONTINUOUS
 10
1.9730983600000001
 20
16.0
 30
0.0
 40
1.0
 50
194.9999999799999
 51
270.0
  0
LINE
  5
42F1
  8
241
  6
CONTINUOUS
 10
-7.5
 20
15.0
 30
0.0
 11
-7.5
 21
-15.0
 31
0.0
  0
LINE
  5
42F2
  8
240
  6
CONTINUOUS
 10
13.1
 20
15.0
 30
0.0
 11
1.9730983600000009
 21
15.0
 31
0.0
  0
LINE
  5
42F3
  8
240
  6
CONTINUOUS
 10
13.1
 20
11.699999999999999
 30
0.0
 11
13.1
 21
15.0
 31
0.0
  0
LINE
  5
42F4
  8
240
  6
CONTINUOUS
 10
14.1
 20
11.699999999999999
 30
0.0
 11
13.1
 21
11.699999999999999
 31
0.0
  0
LINE
  5
42F5
  8
240
  6
CONTINUOUS
 10
-7.5
 20
19.000000010000001
 30
0.0
 11
-6.1262612799999987
 21
19.5
 31
0.0
  0
LINE
  5
42F6
  8
240
  6
CONTINUOUS
 10
0.000000002821614
 20
19.5
 30
0.0
 11
1.0071725300000001
 21
15.741180959999999
 31
0.0
  0
LINE
  5
42F7
  8
240
  6
CONTINUOUS
 10
0.000000002821614
 20
19.5
 30
0.0
 11
-6.1262612900000004
 21
19.5
 31
0.0
  0
LINE
  5
42F8
  8
240
  6
CONTINUOUS
 10
14.1
 20
15.15
 30
0.0
 11
16.100000000000001
 21
15.15
 31
0.0
  0
LINE
  5
42F9
  8
240
  6
CONTINUOUS
 10
38.100000000000001
 20
15.0
 30
0.0
 11
38.100000000000001
 21
-15.0
 31
0.0
  0
LINE
  5
42FA
  8
240
  6
CONTINUOUS
 10
-7.5
 20
-15.0
 30
0.0
 11
-7.5
 21
-19.000000010000001
 31
0.0
  0
LINE
  5
42FB
  8
240
  6
CONTINUOUS
 10
-7.5
 20
15.0
 30
0.0
 11
-7.5
 21
19.000000010000001
 31
0.0
  0
LINE
  5
42FC
  8
247
  6
CONTINUOUS
 10
5.2057713699999582
 20
-13.0
 30
0.0
 11
5.205771369999999
 21
-9.2923076925360242
 31
0.0
  0
LINE
  5
42FD
  8
247
  6
CONTINUOUS
 10
3.205771369999999
 20
-12.363914799990351
 30
0.0
 11
4.8857713699328018
 21
-12.84564704804588
 31
0.0
  0
LINE
  5
42FE
  8
247
  6
CONTINUOUS
 10
4.002694446891196
 20
-11.860121122815221
 30
0.0
 11
4.002694446891196
 21
-12.592428815093619
 31
0.0
  0
ARC
  5
42FF
  8
247
  6
CONTINUOUS
 10
3.513546623835281
 20
-11.66981072155744
 30
0.0
 40
0.3101372647461394
 50
72.997889675291987
 51
172.92416621851231
  0
ARC
  5
4300
  8
247
  6
CONTINUOUS
 10
3.4499498748224151
 20
-11.905982045443279
 30
0.0
 40
0.5546438372287014
 50
4.7429368522013959
 51
73.849226273266424
1001
GENIUS_GENOBJ-N-FIL_13
1002
{
1000
OWNER
1000
GEN
1002
}
1001
GENIUS_GENODEF_13
1002
{
1000
HIER
1070
     0
1002
}
1002
{
1000
MANEDIT
1070
     0
1002
}
1002
{
1000
NOSEL
1070
     0
1002
}
1002
{
1000
BEHIND
1070
     0
1002
}
1002
{
1000
OTHER
1070
     0
1002
}
1002
{
1000
REACTOR
1002
}
  0
LINE
  5
4301
  8
247
  6
CONTINUOUS
 10
4.8857713699328018
 20
-12.113339355767479
 30
0.0
 11
4.8857713699328018
 21
-12.84564704804588
 31
0.0
  0
LINE
  5
4302
  8
247
  6
CONTINUOUS
 10
3.205771369999999
 20
-12.363914799990351
 30
0.0
 11
3.205771369999999
 21
-11.63160710771195
 31
0.0
  0
ARC
  5
4303
  8
247
  6
CONTINUOUS
 10
4.3157049402142951
 20
-11.90264518101346
 30
0.0
 40
0.3158858408603088
 50
65.990941652528775
 51
172.26344345906949
  0
ARC
  5
4304
  8
247
  6
CONTINUOUS
 10
4.318731631866056
 20
-12.16995728834153
 30
0.0
 40
0.5698593289889349
 50
5.7019851642581392
 51
77.27733843682222
1001
GENIUS_GENOBJ-N-FIL_13
1002
{
1000
OWNER
1000
GEN
1002
}
1001
GENIUS_GENODEF_13
1002
{
1000
HIER
1070
     0
1002
}
1002
{
1000
MANEDIT
1070
     0
1002
}
1002
{
1000
NOSEL
1070
     0
1002
}
1002
{
1000
BEHIND
1070
     0
1002
}
1002
{
1000
OTHER
1070
     0
1002
}
1002
{
1000
REACTOR
1002
}
  0
LINE
  5
4305
  8
247
  6
CONTINUOUS
 10
4.8857713699328018
 20
-11.347185509650689
 30
0.0
 11
3.205771369999999
 21
-10.86545326159516
 31
0.0
  0
LINE
  5
4306
  8
247
  6
CONTINUOUS
 10
3.205771369999999
 20
-9.6685301847263663
 30
0.0
 11
3.205771369999999
 21
-9.9853426914428631
 31
0.0
  0
LINE
  5
4307
  8
247
  6
CONTINUOUS
 10
4.8857713699328018
 20
-10.48699172315516
 30
0.0
 11
4.8857713699328018
 21
-10.14237633855358
 31
0.0
  0
ARC
  5
4308
  8
247
  6
CONTINUOUS
 10
4.3724110460666861
 20
-9.505453261655969
 30
0.0
 40
1.261484046111637
 50
202.3594881415269
 51
254.99324854284609
  0
ARC
  5
4309
  8
247
  6
CONTINUOUS
 10
3.6584264568305112
 20
-9.8780090929065771
 30
0.0
 40
0.4987765437607558
 50
94.994589319075374
 51
155.16632895730359
1001
GENIUS_GENOBJ-N-FIL_13
1002
{
1000
OWNER
1000
GEN
1002
}
1001
GENIUS_GENODEF_13
1002
{
1000
HIER
1070
     0
1002
}
1002
{
1000
MANEDIT
1070
     0
1002
}
1002
{
1000
NOSEL
1070
     0
1002
}
1002
{
1000
BEHIND
1070
     0
1002
}
1002
{
1000
OTHER
1070
     0
1002
}
1002
{
1000
REACTOR
1002
}
  0
ARC
  5
430A
  8
247
  6
CONTINUOUS
 10
4.1354530675755532
 20
-10.355347160826209
 30
0.0
 40
0.7799577719285588
 50
15.8460965557799
 51
82.325137004169122
  0
ARC
  5
430B
  8
247
  6
CONTINUOUS
 10
4.3029476915768541
 20
-10.02816931101777
 30
0.0
 40
0.7417556510953607
 50
249.71360167049701
 51
321.78874565640962
1001
GENIUS_GENOBJ-N-FIL_13
1002
{
1000
OWNER
1000
GEN
1002
}
1001
GENIUS_GENODEF_13
1002
{
1000
HIER
1070
     0
1002
}
1002
{
1000
MANEDIT
1070
     0
1002
}
1002
{
1000
NOSEL
1070
     0
1002
}
1002
{
1000
BEHIND
1070
     0
1002
}
1002
{
1000
OTHER
1070
     0
1002
}
1002
{
1000
REACTOR
1002
}
  0
LINE
  5
430C
  8
247
  6
CONTINUOUS
 10
4.2396175238047791
 20
-9.9700686462527663
 30
0.0
 11
4.2396175238047791
 21
-9.5823763385759708
 31
0.0
  0
ARC
  5
430D
  8
247
  6
CONTINUOUS
 10
4.205771369999999
 20
-13.0
 30
0.0
 40
1.0
 50
180.0
 51
0.0
  0
LINE
  5
430E
  8
247
  6
CONTINUOUS
 10
3.205771369999999
 20
-13.0
 30
0.0
 11
3.205771369999999
 21
-12.643076923131201
 31
0.0
  0
ARC
  5
430F
  8
247
  6
CONTINUOUS
 10
4.205771369999999
 20
-9.2923076925360082
 30
0.0
 40
1.0
 50
0.0
 51
180.0
  0
LINE
  5
4310
  8
250
  6
CONTINUOUS
 10
0.0
 20
20.00000001053041
 30
0.0
 11
0.000000000000001
 21
36.04605952
 31
0.0
  0
LINE
  5
4311
  8
250
  6
CONTINUOUS
 10
38.100000000000001
 20
15.5
 30
0.0
 11
38.100000000000001
 21
36.04605952
 31
0.0
  0
LINE
  5
4312
  8
250
  6
CONTINUOUS
 10
2.23
 20
35.04605952
 30
0.0
 11
38.100000000000023
 21
35.04605952
 31
0.0
  0
LINE
  5
4313
  8
250
  6
CONTINUOUS
 10
2.23
 20
34.67439285333333
 30
0.0
 11
0.000000000000001
 21
35.04605952
 31
0.0
  0
LINE
  5
4314
  8
250
  6
CONTINUOUS
 10
2.23
 20
35.41772618666667
 30
0.0
 11
0.000000000000001
 21
35.04605952
 31
0.0
  0
LINE
  5
4315
  8
250
  6
CONTINUOUS
 10
0.000000000000001
 20
35.04605952
 30
0.0
 11
2.23
 21
35.04605952
 31
0.0
  0
LINE
  5
4316
  8
250
  6
CONTINUOUS
 10
35.870000000000012
 20
35.41772618666667
 30
0.0
 11
38.100000000000001
 21
35.04605952
 31
0.0
  0
LINE
  5
4317
  8
250
  6
CONTINUOUS
 10
35.870000000000012
 20
34.67439285333333
 30
0.0
 11
38.100000000000001
 21
35.04605952
 31
0.0
  0
LINE
  5
4318
  8
250
  6
CONTINUOUS
 10
38.100000000000001
 20
35.04605952
 30
0.0
 11
35.870000000000012
 21
35.04605952
 31
0.0
  0
TEXT
  5
4319
  8
250
  6
CONTINUOUS
 10
15.284181093146881
 20
36.04605952
 30
0.0
 40
2.7999999999999989
  1
1.50
  0
LINE
  5
431A
  8
243
  6
HIDDEN2
 10
-0.8000000000053333
 20
7.36098159222571
 30
0.0
 11
-0.8000000000269054
 21
-7.3609815922198552
 31
0.0
  0
LINE
  5
431B
  8
243
  6
HIDDEN2
 10
16.099999999993411
 20
-6.8834999999970128
 30
0.0
 11
38.100000000000001
 21
-6.8834999999970137
 31
0.0
  0
LINE
  5
431C
  8
243
  6
HIDDEN2
 10
16.099999999993969
 20
-7.3609815921998338
 30
0.0
 11
16.099999999976689
 21
7.3609815922056887
 31
0.0
  0
LINE
  5
431D
  8
243
  6
HIDDEN2
 10
16.099999999977261
 20
6.8835000000028677
 30
0.0
 11
38.100000000000001
 21
6.8835000000028677
 31
0.0
  0
LINE
  5
431E
  8
243
  6
HIDDEN2
 10
-0.8000000000053333
 20
7.36098159222571
 30
0.0
 11
16.099999999976689
 21
7.3609815922056887
 31
0.0
  0
LINE
  5
431F
  8
243
  6
HIDDEN2
 10
-0.8000000000269054
 20
-7.3609815922198552
 30
0.0
 11
16.099999999993969
 21
-7.3609815921998338
 31
0.0
  0
LINE
  5
4320
  8
244
  6
HIDDEN2
 10
16.100000000010908
 20
-7.3609815921945483
 30
0.0
 11
-0.8000000000161193
 21
0.0
 31
0.0
  0
LINE
  5
4321
  8
244
  6
HIDDEN2
 10
16.099999999985329
 20
0.0
 30
0.0
 11
-0.8000000000269054
 21
-7.3609815922368398
 31
0.0
  0
LINE
  5
4322
  8
244
  6
HIDDEN2
 10
16.099999999985329
 20
-0.0000000000000284
 30
0.0
 11
-0.8000000000053333
 21
7.360981592208617
 31
0.0
  0
LINE
  5
4323
  8
244
  6
HIDDEN2
 10
16.099999999993521
 20
7.360981592194519
 30
0.0
 11
-0.8000000000161193
 21
-0.0000000000141247
 31
0.0
  0
LINE
  5
4324
  8
250
  6
CONTINUOUS
 10
38.600000000000001
 20
6.8835000000028677
 30
0.0
 11
50.0
 21
6.8835000000028641
 31
0.0
  0
LINE
  5
4325
  8
250
  6
CONTINUOUS
 10
38.600000000000001
 20
-6.8834999999970137
 30
0.0
 11
50.0
 21
-6.8834999999970181
 31
0.0
  0
LINE
  5
4326
  8
250
  6
CONTINUOUS
 10
49.000000000000007
 20
9.1135000000028654
 30
0.0
 11
49.000000000000007
 21
11.343500000002861
 31
0.0
  0
LINE
  5
4327
  8
250
  6
CONTINUOUS
 10
49.000000000000007
 20
-9.1134999999970177
 30
0.0
 11
49.000000000000007
 21
-11.343499999997009
 31
0.0
  0
LINE
  5
4328
  8
250
  6
CONTINUOUS
 10
49.000000000000007
 20
6.883500000002865
 30
0.0
 11
49.000000000000007
 21
-6.8834999999970172
 31
0.0
  0
LINE
  5
4329
  8
250
  6
CONTINUOUS
 10
49.371666666666677
 20
9.1135000000028654
 30
0.0
 11
49.000000000000007
 21
6.883500000002865
 31
0.0
  0
LINE
  5
432A
  8
250
  6
CONTINUOUS
 10
48.628333333333337
 20
9.1135000000028654
 30
0.0
 11
49.000000000000007
 21
6.883500000002865
 31
0.0
  0
LINE
  5
432B
  8
250
  6
CONTINUOUS
 10
49.000000000000007
 20
6.883500000002865
 30
0.0
 11
49.000000000000007
 21
9.1135000000028654
 31
0.0
  0
LINE
  5
432C
  8
250
  6
CONTINUOUS
 10
48.628333333333337
 20
-9.1134999999970177
 30
0.0
 11
49.000000000000007
 21
-6.8834999999970172
 31
0.0
  0
LINE
  5
432D
  8
250
  6
CONTINUOUS
 10
49.371666666666677
 20
-9.1134999999970177
 30
0.0
 11
49.000000000000007
 21
-6.8834999999970172
 31
0.0
  0
LINE
  5
432E
  8
250
  6
CONTINUOUS
 10
49.000000000000007
 20
-6.8834999999970172
 30
0.0
 11
49.000000000000007
 21
-9.1134999999970177
 31
0.0
  0
TEXT
  5
432F
  8
250
  6
CONTINUOUS
 10
48.0
 20
-5.6970866311405644
 30
0.0
 40
2.7999999999999989
  1
\U+2205.542
 50
90.0
  0
VIEWPORT
  5
22
 67
     1
  8
0
 10
261.51769911504419
 20
148.5
 30
0.0
 40
523.0353982300885
 41
297.0
 68
     1
 69
     1
1001
ACAD
1000
MVIEW
1002
{
1070
    16
1010
0.0
1020
0.0
1030
0.0
1010
0.0
1020
0.0
1030
1.0
1040
0.0
1040
297.0
1040
261.51769911504419
1040
148.5
1040
50.0
1040
0.0
1040
0.0
1070
     0
1070
   100
1070
     1
1070
     1
1070
     0
1070
     0
1070
     0
1070
     0
1040
0.0
1040
0.0
1040
0.0
1040
1.0
1040
1.0
1040
10.0
1040
10.0
1070
     0
1002
{
1002
}
1002
}
1001
GENIUS_GENODEF_13
1002
{
1000
HIER
1070
     0
1002
}
1002
{
1000
MANEDIT
1070
     0
1002
}
1002
{
1000
NOSEL
1070
     0
1002
}
1002
{
1000
BEHIND
1070
     0
1002
}
1002
{
1000
OTHER
1070
     0
1002
}
1002
{
1000
REACTOR
1002
}
1001
GENIUS_GENOBJ-N-SDF_13
1002
{
1000
OWNER
1000
GEN
1002
}
1001
GENIUS_GENSCREG_15
1000
PF
1040
1.0
1000
DF
1040
1.0
1000
MIN
1011
0.0
1021
0.0
1031
0.0
1021
0.0
1031
0.0
1000
MAX
1011
523.0353982300885
1021
0.0
1031
0.0
1021
297.0
1031
0.0
1000
FLAGS
1070
     4
  0
ENDSEC
  0
EOF
