  0
SECTION
  2
HEADER
  9
$ACADVER
  1
AC1009
  9
$INSBASE
 10
0.0
 20
0.0
 30
0.0
  9
$EXTMIN
 10
-52.0
 20
-13.5
 30
0.0
  9
$EXTMAX
 10
88.0
 20
47.000000000000007
 30
0.0
  9
$LIMMIN
 10
0.0
 20
0.0
  9
$LIMMAX
 10
420.0
 20
297.0
  9
$ORTHOMODE
 70
     1
  9
$REGENMODE
 70
     1
  9
$FILLMODE
 70
     1
  9
$QTEXTMODE
 70
     0
  9
$MIRRTEXT
 70
     1
  9
$DRAGMODE
 70
     2
  9
$LTSCALE
 40
10.0
  9
$OSMODE
 70
    55
  9
$ATTMODE
 70
     1
  9
$TEXTSIZE
 40
3.0
  9
$TRACEWID
 40
1.0
  9
$TEXTSTYLE
  7
YOKO
  9
$CLAYER
  8
240
  9
$CELTYPE
  6
BYLAYER
  9
$CECOLOR
 62
   256
  9
$DIMSCALE
 40
1.0
  9
$DIMASZ
 40
2.0
  9
$DIMEXO
 40
2.0
  9
$DIMDLI
 40
2.5
  9
$DIMRND
 40
0.0
  9
$DIMDLE
 40
0.0
  9
$DIMEXE
 40
2.0
  9
$DIMTP
 40
0.0
  9
$DIMTM
 40
0.0
  9
$DIMTXT
 40
4.0
  9
$DIMCEN
 40
0.0
  9
$DIMTSZ
 40
0.0
  9
$DIMTOL
 70
     0
  9
$DIMLIM
 70
     0
  9
$DIMTIH
 70
     0
  9
$DIMTOH
 70
     0
  9
$DIMSE1
 70
     0
  9
$DIMSE2
 70
     0
  9
$DIMTAD
 70
     3
  9
$DIMZIN
 70
     8
  9
$DIMBLK
  1

  9
$DIMASO
 70
     1
  9
$DIMSHO
 70
     1
  9
$DIMPOST
  1

  9
$DIMAPOST
  1

  9
$DIMALT
 70
     0
  9
$DIMALTD
 70
     2
  9
$DIMALTF
 40
25.399999999999999
  9
$DIMLFAC
 40
1.0
  9
$DIMTOFL
 70
     1
  9
$DIMTVP
 40
0.0
  9
$DIMTIX
 70
     1
  9
$DIMSOXD
 70
     0
  9
$DIMSAH
 70
     1
  9
$DIMBLK1
  1
OPEN
  9
$DIMBLK2
  1
OPEN
  9
$DIMSTYLE
  2
BIGT
  9
$DIMCLRD
 70
   256
  9
$DIMCLRE
 70
   256
  9
$DIMCLRT
 70
    40
  9
$DIMTFAC
 40
1.0
  9
$DIMGAP
 40
1.0
  9
$LUNITS
 70
     2
  9
$LUPREC
 70
     3
  9
$SKETCHINC
 40
1.0
  9
$FILLETRAD
 40
0.0
  9
$AUNITS
 70
     0
  9
$AUPREC
 70
     3
  9
$MENU
  1
.
  9
$ELEVATION
 40
0.0
  9
$PELEVATION
 40
0.0
  9
$THICKNESS
 40
0.0
  9
$LIMCHECK
 70
     0
  9
$BLIPMODE
 70
     0
  9
$CHAMFERA
 40
10.0
  9
$CHAMFERB
 40
10.0
  9
$SKPOLY
 70
     0
  9
$TDCREATE
 40
2455128.5016968632
  9
$TDUPDATE
 40
2457791.412314734
  9
$TDINDWG
 40
0.0328634491
  9
$TDUSRTIMER
 40
0.0328634259
  9
$USRTIMER
 70
     1
  9
$ANGBASE
 50
0.0
  9
$ANGDIR
 70
     0
  9
$PDMODE
 70
     1
  9
$PDSIZE
 40
-5.0
  9
$PLINEWID
 40
0.0
  9
$COORDS
 70
     1
  9
$SPLFRAME
 70
     0
  9
$SPLINETYPE
 70
     6
  9
$SPLINESEGS
 70
     8
  9
$ATTDIA
 70
     1
  9
$ATTREQ
 70
     1
  9
$HANDLING
 70
     1
  9
$HANDSEED
  5
1D26
  9
$SURFTAB1
 70
     6
  9
$SURFTAB2
 70
     6
  9
$SURFTYPE
 70
     6
  9
$SURFU
 70
     6
  9
$SURFV
 70
     6
  9
$UCSNAME
  2

  9
$UCSORG
 10
0.0
 20
0.0
 30
0.0
  9
$UCSXDIR
 10
1.0
 20
0.0
 30
0.0
  9
$UCSYDIR
 10
0.0
 20
1.0
 30
0.0
  9
$PUCSNAME
  2

  9
$PUCSORG
 10
0.0
 20
0.0
 30
0.0
  9
$PUCSXDIR
 10
1.0
 20
0.0
 30
0.0
  9
$PUCSYDIR
 10
0.0
 20
1.0
 30
0.0
  9
$USERI1
 70
     1
  9
$USERI2
 70
     0
  9
$USERI3
 70
     0
  9
$USERI4
 70
     0
  9
$USERI5
 70
     0
  9
$USERR1
 40
0.0
  9
$USERR2
 40
0.0
  9
$USERR3
 40
0.0
  9
$USERR4
 40
0.0
  9
$USERR5
 40
0.0
  9
$WORLDVIEW
 70
     1
  9
$SHADEDGE
 70
     3
  9
$SHADEDIF
 70
    70
  9
$TILEMODE
 70
     1
  9
$MAXACTVP
 70
    16
  9
$PLIMCHECK
 70
     0
  9
$PEXTMIN
 10
1.0000000000000000E+020
 20
1.0000000000000000E+020
 30
1.0000000000000000E+020
  9
$PEXTMAX
 10
-1.0000000000000000E+020
 20
-1.0000000000000000E+020
 30
-1.0000000000000000E+020
  9
$PLIMMIN
 10
0.0
 20
0.0
  9
$PLIMMAX
 10
420.0
 20
297.0
  9
$UNITMODE
 70
     0
  9
$VISRETAIN
 70
     0
  9
$PLINEGEN
 70
     0
  9
$PSLTSCALE
 70
     1
  0
ENDSEC
  0
SECTION
  2
TABLES
  0
TABLE
  2
VPORT
 70
     1
  0
VPORT
  2
*ACTIVE
 70
     0
 10
0.0
 20
0.0
 11
1.0
 21
1.0
 12
27.856403572423702
 22
9.0105050935936077
 13
0.0
 23
0.0
 14
7.0
 24
7.0
 15
7.0
 25
7.0
 16
0.0
 26
0.0
 36
1.0
 17
0.0
 27
0.0
 37
0.0
 40
158.88670672456431
 41
1.4370208105147859
 42
50.0
 43
0.0
 44
0.0
 50
0.0
 51
0.0
 71
     0
 72
  2000
 73
     1
 74
     0
 75
     0
 76
     0
 77
     0
 78
     0
  0
ENDTAB
  0
TABLE
  2
LTYPE
 70
    16
  0
LTYPE
  2
CONTINUOUS
 70
     0
  3
Solid line
 72
    65
 73
     0
 40
0.0
  0
LTYPE
  2
CENTER2
 70
     0
  3
___ _ ___ _ ___ _ ___ _ ___ _ ___ _ ___ _ ___ _
 72
    65
 73
     4
 40
1.125
 49
0.75
 49
-0.125
 49
0.125
 49
-0.125
  0
LTYPE
  2
HIDDEN2
 70
     0
  3
_ _ _ _ _ _ _ _ _ _ _ _ _ _ _ _ _ _ _ _ _ _ _ _
 72
    65
 73
     2
 40
0.1875
 49
0.125
 49
-0.0625
  0
LTYPE
  2
PHANTOM2
 70
     0
  3
___ _ _ ___ _ _ ___ _ _ ___ _ _ ___ _ _ ___ _ _
 72
    65
 73
     6
 40
1.25
 49
0.625
 49
-0.125
 49
0.125
 49
-0.125
 49
0.125
 49
-0.125
  0
LTYPE
  2
AMCONSTR
 70
     0
  3
_______________________
 72
    65
 73
     2
 40
9999.0
 49
9999.0
 49
0.0
  0
LTYPE
  2
HIDDEN
 70
     0
  3
Hidden __ __ __ __ __ __ __ __ __ __ __ __ __ _
 72
    65
 73
     2
 40
0.375
 49
0.25
 49
-0.125
  0
LTYPE
  2
CENTER
 70
     0
  3
Center ____ _ ____ _ ____ _ ____ _ ____ _ ____
 72
    65
 73
     4
 40
2.0
 49
1.25
 49
-0.25
 49
0.25
 49
-0.25
  0
LTYPE
  2
AMZIGZAG2
 70
     0
  3
/\/-/\/-/\/-/\/-/\/-/\/
 72
    65
 73
     2
 40
0.4401
 49
0.0001
 49
-0.4400000000000002
  0
LTYPE
  2
ACANSTGB
 70
     0
  3
__ . . __ . .
 72
    65
 73
     6
 40
0.35433070866
 49
0.15748031496
 49
-0.03937007874
 49
0.03937007874
 49
-0.03937007874
 49
0.03937007874
 49
-0.03937007874
  0
LTYPE
  2
ACANSTGL
 70
     0
  3
_ _ _ _ _
 72
    65
 73
     2
 40
0.11811023622
 49
0.07874015748
 49
-0.03937007874
  0
LTYPE
  2
AM_ISO02W050
 70
     0
  3
__ __ __ __ __ __ __ __ __ __ __ __ __ __ __
 72
    65
 73
     2
 40
7.5
 49
6.0
 49
-1.5
  0
LTYPE
  2
AM_ISO08W050
 70
     0
  3
____ . ____ . ____ . ____ . ____ . ____ . ____
 72
    65
 73
     4
 40
18.0
 49
12.0
 49
-1.5
 49
3.0
 49
-1.5
  0
LTYPE
  2
AM_ISO09W050
 70
     0
  3
_____ . . _____ . . _____ . . ____ .. ____
 72
    65
 73
     6
 40
22.5
 49
12.0
 49
-1.5
 49
3.0
 49
-1.5
 49
3.0
 49
-1.5
  0
LTYPE
  2
AM_ISO08W050X2
 70
     0
  3
__ . __ . __ . __ . __ . __
 72
    65
 73
     4
 40
9.0
 49
6.0
 49
-0.75
 49
1.5
 49
-0.75
  0
LTYPE
  2
AM_ISO02W050X2
 70
     0
  3
 _ _ _ _ _ _ _ _ _ _ _ _
 72
    65
 73
     2
 40
3.75
 49
3.0
 49
-0.75
  0
LTYPE
  2
AMZIGZAG
 70
     0
  3
/\/-/\/-/\/-/\/-/\/-/\/
 72
    65
 73
     2
 40
11.0001
 49
0.0001
 49
-11.0
  0
ENDTAB
  0
TABLE
  2
LAYER
 70
     9
  0
LAYER
  2
0
 70
     0
 62
     7
  6
CONTINUOUS
  0
LAYER
  2
240
 70
     0
 62
     4
  6
CONTINUOUS
  0
LAYER
  2
241
 70
     0
 62
   211
  6
CONTINUOUS
  0
LAYER
  2
242
 70
     0
 62
     3
  6
CONTINUOUS
  0
LAYER
  2
245
 70
     0
 62
     2
  6
CENTER2
  0
LAYER
  2
250
 70
     0
 62
     3
  6
CONTINUOUS
  0
LAYER
  2
DEFPOINTS
 70
     0
 62
     7
  6
CONTINUOUS
  0
LAYER
  2
247
 70
     0
 62
    60
  6
CONTINUOUS
  0
LAYER
  2
243
 70
     0
 62
   211
  6
HIDDEN2
  0
ENDTAB
  0
TABLE
  2
STYLE
 70
     6
  0
STYLE
  2
STANDARD
 70
     0
 40
0.0
 41
1.0
 50
0.0
 71
     0
 42
3.0
  3
romans.shx
  4
BIGFONT.SHX
  0
STYLE
  2
ANNOTATIVE
 70
     0
 40
0.0
 41
1.0
 50
0.0
 71
     0
 42
0.2
  3
txt
  4

  0
STYLE
  2
YOKO
 70
     0
 40
0.0
 41
1.0
 50
0.0
 71
     0
 42
3.0
  3
romans.shx
  4
extfont.shx
  0
STYLE
  2

 70
     1
 40
0.0
 41
1.0
 50
0.0
 71
     0
 42
3.0
  3
genltshp.shx
  4

  0
STYLE
  2
ACANSGDT
 70
     0
 40
0.0
 41
1.0
 50
0.0
 71
     0
 42
3.0
  3
amgdt.shx
  4

  0
STYLE
  2
ACANSTS
 70
     0
 40
0.0
 41
1.0
 50
0.0
 71
     0
 42
3.0
  3
romans.shx
  4
extfont.shx
  0
ENDTAB
  0
TABLE
  2
VIEW
 70
     1
  0
VIEW
  2
OLE1
 70
     0
 40
70.238763219999996
 10
-1.995482519999999
 20
16.722511470000001
 41
100.57117178999999
 11
0.0
 21
0.0
 31
1.0
 12
0.0
 22
0.0
 32
0.0
 42
50.0
 43
0.0
 44
0.0
 50
0.0
 71
     0
  0
ENDTAB
  0
TABLE
  2
UCS
 70
     0
  0
ENDTAB
  0
TABLE
  2
APPID
 70
    46
  0
APPID
  2
ACAD
 70
     0
  0
APPID
  2
ACADANNOTATIVE
 70
     0
  0
APPID
  2
GLOBAL
 70
     0
  0
APPID
  2
DETAIL
 70
     0
  0
APPID
  2
GRPNAME
 70
     0
  0
APPID
  2
GPARA
 70
     0
  0
APPID
  2
DCO15
 70
     0
  0
APPID
  2
ITEMNAME
 70
     0
  0
APPID
  2
GRADE_0
 70
     0
  0
APPID
  2
GENIUS_GENODEF_13
 70
     0
  0
APPID
  2
GENIUS_GENOBJ-N-FIL_13
 70
     0
  0
APPID
  2
GENIUS_GENOBJ-N-CEN_13
 70
     0
  0
APPID
  2
HATCH_TYPE
 70
     0
  0
APPID
  2
HATCH_DISPLAY
 70
     0
  0
APPID
  2
HATCH_DISTANCE
 70
     0
  0
APPID
  2
CONTENTBLOCKICON
 70
     0
  0
APPID
  2
MCAD_NO_VIS
 70
     0
  0
APPID
  2
ACAD_TEMP_GRAPHIC
 70
     0
  0
APPID
  2
ACATTRIBSERVICES
 70
     0
  0
APPID
  2
GENIUS_GENSCREG_15
 70
     0
  0
APPID
  2
GENIUS_GENOBJ-N-SDF_13
 70
     0
  0
APPID
  2
GENIUS_GENREC_14
 70
     0
  0
APPID
  2
GENIUS_GENOBJ-N-REC_13
 70
     0
  0
APPID
  2
GENIUS_GENDIMSH_14
 70
     0
  0
APPID
  2
GENIUS_GENOBJ-N-DIM_13
 70
     0
  0
APPID
  2
GENIUS_GENDIM_13
 70
     0
  0
APPID
  2
GENIUS_GENDTOL_13
 70
     0
  0
APPID
  2
GENIUS_GENOLIS_13
 70
     0
  0
APPID
  2
GENIUS_GENOENT_13
 70
     0
  0
APPID
  2
GENIUS_GENOBJ-F-FEM_13
 70
     0
  0
APPID
  2
GENIUS_GENOREF_13
 70
     0
  0
APPID
  2
GENIUS_GEFFEM_13
 70
     0
  0
APPID
  2
GENIUS_GEFFEMP_13
 70
     0
  0
APPID
  2
AD_DRAW
 70
     0
  0
APPID
  2
DESIGNERASSEMBLIES
 70
     0
  0
APPID
  2
ACADM_DIM_EDIT
 70
     0
  0
APPID
  2
AMDT_DM_ADJ
 70
     0
  0
APPID
  2
GENIUS_GENFIL_13
 70
     0
  0
APPID
  2
GENIUS_GENOBJ-N-CHA_13
 70
     0
  0
APPID
  2
ACAD_NAV_VCDISPLAY
 70
     0
  0
APPID
  2
ACAD_EXEMPT_FROM_CAD_STANDARDS
 70
     0
  0
APPID
  2
ACAECLAYERSTANDARD
 70
     0
  0
APPID
  2
ACAD_DSTYLE_DIMINSPECT
 70
     0
  0
APPID
  2
ACAD_MLEADERVER
 70
     0
  0
APPID
  2
ACAD_DSTYLE_DIMJAG
 70
     0
  0
APPID
  2
ACAD_DSTYLE_DIMBREAK
 70
     0
  0
ENDTAB
  0
TABLE
  2
DIMSTYLE
 70
     9
  0
DIMSTYLE
  2
STANDARD
 70
     0
  3

  4

  5

  6

  7

 40
1.0
 41
0.18
 42
0.0625
 43
0.38
 44
0.18
 45
0.0
 46
0.0
 47
0.0
 48
0.0
140
0.18
141
0.09
142
0.0
143
25.399999999999999
144
1.0
145
0.0
146
1.0
147
0.09
 71
     0
 72
     0
 73
     1
 74
     1
 75
     0
 76
     0
 77
     0
 78
     0
170
     0
171
     2
172
     0
173
     0
174
     0
175
     0
176
     0
177
     0
178
     0
  0
DIMSTYLE
  2
ANNOTATIVE
 70
     0
  3

  4

  5

  6

  7

 40
1.0
 41
0.18
 42
0.0625
 43
0.38
 44
0.18
 45
0.0
 46
0.0
 47
0.0
 48
0.0
140
0.18
141
0.09
142
0.0
143
25.399999999999999
144
1.0
145
0.0
146
1.0
147
0.09
 71
     0
 72
     0
 73
     1
 74
     1
 75
     0
 76
     0
 77
     0
 78
     0
170
     0
171
     2
172
     0
173
     0
174
     0
175
     0
176
     0
177
     0
178
     0
  0
DIMSTYLE
  2
BIGT
 70
     0
  3

  4

  5

  6

  7

 40
1.0
 41
2.2299999999999991
 42
0.5
 43
7.0
 44
1.0
 45
0.0
 46
0.0
 47
0.0
 48
0.01
140
2.799999999999998
141
0.0
142
0.0
143
25.399999999999999
144
1.0
145
0.0
146
1.0
147
1.0
 71
     0
 72
     0
 73
     0
 74
     0
 75
     0
 76
     0
 77
     3
 78
     9
170
     0
171
     2
172
     1
173
     0
174
     1
175
     0
176
   256
177
   256
178
    40
  0
DIMSTYLE
  2
AM_ANSI
 70
     0
  3

  4
mm
  5

  6

  7

 40
1.0
 41
0.12
 42
0.05
 43
0.5
 44
0.1
 45
0.0
 46
0.0
 47
0.1
 48
0.1
140
0.12
141
0.0
142
0.0
143
25.399999999999999
144
1.0
145
0.0
146
0.71
147
0.06
 71
     0
 72
     0
 73
     1
 74
     1
 75
     0
 76
     0
 77
     0
 78
     7
170
     0
171
     2
172
     0
173
     0
174
     0
175
     0
176
   256
177
   256
178
     2
  0
DIMSTYLE
  2
AM_ANSI$3
 70
     0
  3

  4
mm
  5

  6

  7

 40
1.0
 41
0.12
 42
0.05
 43
0.5
 44
0.1
 45
0.0
 46
0.0
 47
0.1
 48
0.1
140
0.12
141
0.0
142
0.0
143
25.399999999999999
144
1.0
145
0.0
146
0.71
147
0.06
 71
     0
 72
     0
 73
     1
 74
     1
 75
     0
 76
     0
 77
     0
 78
     7
170
     0
171
     2
172
     0
173
     0
174
     0
175
     0
176
   256
177
   256
178
     2
  0
DIMSTYLE
  2
AM_ANSI$4
 70
     0
  3

  4
mm
  5

  6

  7

 40
1.0
 41
0.12
 42
0.05
 43
0.5
 44
0.1
 45
0.0
 46
0.0
 47
0.1
 48
0.1
140
0.12
141
0.0
142
0.0
143
25.399999999999999
144
1.0
145
0.0
146
0.71
147
0.06
 71
     0
 72
     0
 73
     1
 74
     1
 75
     0
 76
     0
 77
     0
 78
     7
170
     0
171
     2
172
     0
173
     0
174
     0
175
     0
176
   256
177
   256
178
     2
  0
DIMSTYLE
  2
AM_ANSI$7
 70
     0
  3

  4
mm
  5

  6

  7

 40
1.0
 41
0.12
 42
0.05
 43
0.5
 44
0.1
 45
0.0
 46
0.0
 47
0.1
 48
0.1
140
0.12
141
0.0
142
0.0
143
25.399999999999999
144
1.0
145
0.0
146
0.71
147
0.06
 71
     0
 72
     0
 73
     1
 74
     1
 75
     0
 76
     0
 77
     0
 78
     7
170
     0
171
     2
172
     0
173
     0
174
     0
175
     0
176
   256
177
   256
178
     2
  0
DIMSTYLE
  2
AM_ANSI$SF
 70
     0
  3

  4
mm
  5

  6

  7

 40
1.0
 41
0.12
 42
0.05
 43
0.5
 44
0.1
 45
0.0
 46
0.0
 47
0.1
 48
0.1
140
0.12
141
0.0
142
0.0
143
25.399999999999999
144
1.0
145
0.0
146
0.71
147
0.06
 71
     0
 72
     0
 73
     1
 74
     1
 75
     1
 76
     1
 77
     0
 78
     7
170
     0
171
     2
172
     0
173
     0
174
     0
175
     0
176
   256
177
   256
178
     2
  0
DIMSTYLE
  2
AM_ANSI$SH
 70
     0
  3

  4
mm
  5

  6

  7

 40
1.0
 41
0.12
 42
0.05
 43
0.5
 44
0.1
 45
0.0
 46
0.0
 47
0.1
 48
0.1
140
0.12
141
0.0
142
0.0
143
25.399999999999999
144
1.0
145
0.0
146
0.71
147
0.06
 71
     0
 72
     0
 73
     1
 74
     1
 75
     1
 76
     1
 77
     0
 78
     7
170
     0
171
     2
172
     0
173
     1
174
     0
175
     0
176
   256
177
   256
178
     2
  0
ENDTAB
  0
ENDSEC
  0
SECTION
  2
BLOCKS
  0
BLOCK
  8
0
  2
$MODEL_SPACE
 70
     0
 10
0.0
 20
0.0
 30
0.0
  3
$MODEL_SPACE
  1

  0
ENDBLK
  5
1BF8
  8
0
  0
BLOCK
 67
     1
  8
0
  2
$PAPER_SPACE
 70
     0
 10
0.0
 20
0.0
 30
0.0
  3
$PAPER_SPACE
  1

  0
ENDBLK
  5
1BF4
 67
     1
  8
0
  0
BLOCK
  8
0
  2
_OPEN
 70
     0
 10
0.0
 20
0.0
 30
0.0
  3
_OPEN
  1

  0
LINE
  5
1860
  8
0
  6
BYBLOCK
 62
     0
 10
-1.0
 20
0.1666666666666666
 30
0.0
 11
0.0
 21
0.0
 31
0.0
  0
LINE
  5
1861
  8
0
  6
BYBLOCK
 62
     0
 10
-1.0
 20
-0.1666666666666666
 30
0.0
 11
0.0
 21
0.0
 31
0.0
  0
LINE
  5
1862
  8
0
  6
BYBLOCK
 62
     0
 10
0.0
 20
0.0
 30
0.0
 11
-1.0
 21
0.0
 31
0.0
  0
ENDBLK
  5
1863
  8
0
  0
BLOCK
  8
0
  2
矢印なし
 70
     0
 10
0.0
 20
0.0
 30
0.0
  3
矢印なし
  1

  0
ENDBLK
  5
6E5
  8
0
  0
BLOCK
  8
0
  2
GENAXEH
 70
     0
 10
0.0
 20
0.0
 30
0.0
  3
GENAXEH
  1

  0
LINE
  5
189B
  8
0
 10
-1.0
 20
0.0
 30
0.0
 11
1.0
 21
0.0
 31
0.0
  0
ENDBLK
  5
189C
  8
0
  0
BLOCK
  8
0
  2
_ACMFILLEDHALF
 70
     0
 10
0.0
 20
0.0
 30
0.0
  3
_ACMFILLEDHALF
  1

  0
TRACE
  5
1AA3
  8
240
 62
     0
 10
-0.8
 20
0.0
 30
0.0
 11
-1.0
 21
0.166666666
 31
0.0
 12
0.0
 22
0.0
 32
0.0
 13
0.0
 23
0.0
 33
0.0
  0
LINE
  5
1AA4
  8
240
 62
     0
 10
-1.0
 20
0.0
 30
0.0
 11
-0.8
 21
0.0
 31
0.0
  0
ENDBLK
  5
1AA2
  8
0
  0
ENDSEC
  0
SECTION
  2
ENTITIES
  0
INSERT
  5
6E6
  8
245
  2
矢印なし
 10
175.62382697000001
 20
90.551235719999994
 30
0.0
  0
TEXT
  5
8DF
  8
241
  6
CONTINUOUS
 10
-51.0
 20
42.0
 30
0.0
 40
5.0
  1
MGT12-M8-70
  7
YOKO
 11
-51.0
 21
42.0
 31
0.0
 73
     1
  0
LINE
  5
1108
  8
250
  6
CONTINUOUS
 10
80.0
 20
3.1000000000000001
 30
0.0
 11
80.0
 21
-3.1000000000000001
 31
0.0
  0
LINE
  5
1123
  8
250
  6
CONTINUOUS
 10
50.804387686711927
 20
21.0
 30
0.0
 11
61.657721016711932
 21
21.0
 31
0.0
1001
ITEMNAME
1000
LNSP2
  0
LINE
  5
1126
  8
250
  6
CONTINUOUS
 10
70.5
 20
3.1000000000000001
 30
0.0
 11
81.0
 21
3.1000000000000001
 31
0.0
  0
LINE
  5
145A
  8
245
  6
CENTER2
 10
-52.0
 20
0.0
 30
0.0
 11
71.0
 21
0.0
 31
0.0
  0
LINE
  5
145B
  8
240
  6
CONTINUOUS
 10
-40.499999999999993
 20
-8.0
 30
0.0
 11
-35.0
 21
-8.0
 31
0.0
  0
LINE
  5
145C
  8
240
  6
CONTINUOUS
 10
-40.499999999999993
 20
8.0
 30
0.0
 11
-35.0
 21
8.0
 31
0.0
  0
LINE
  5
145D
  8
240
  6
CONTINUOUS
 10
-51.0
 20
-10.0
 30
0.0
 11
-51.0
 21
10.0
 31
0.0
  0
LINE
  5
145F
  8
240
  6
CONTINUOUS
 10
-51.0
 20
-10.0
 30
0.0
 11
-42.5
 21
-10.0
 31
0.0
  0
LINE
  5
1461
  8
240
  6
CONTINUOUS
 10
-40.499999999999993
 20
-8.0
 30
0.0
 11
-42.5
 21
-10.0
 31
0.0
  0
LINE
  5
1463
  8
240
  6
CONTINUOUS
 10
-40.499999999999993
 20
8.0
 30
0.0
 11
-42.5
 21
10.0
 31
0.0
  0
LINE
  5
1464
  8
240
  6
CONTINUOUS
 10
-51.0
 20
10.0
 30
0.0
 11
-42.5
 21
10.0
 31
0.0
  0
LINE
  5
1466
  8
241
  6
CONTINUOUS
 10
48.0
 20
-8.1999999999999975
 30
0.0
 11
48.0
 21
8.1999999999999975
 31
0.0
  0
LINE
  5
1467
  8
241
  6
CONTINUOUS
 10
49.0
 20
-8.1999999999999975
 30
0.0
 11
49.0
 21
8.1999999999999975
 31
0.0
  0
LINE
  5
1468
  8
240
  6
CONTINUOUS
 10
70.0
 20
-10.0
 30
0.0
 11
70.0
 21
10.0
 31
0.0
  0
LINE
  5
1469
  8
241
  6
CONTINUOUS
 10
52.200000000000003
 20
-10.0
 30
0.0
 11
52.200000000000003
 21
10.0
 31
0.0
  0
LINE
  5
146A
  8
241
  6
CONTINUOUS
 10
51.0
 20
-10.15
 30
0.0
 11
51.0
 21
10.14999999999999
 31
0.0
  0
LINE
  5
146B
  8
241
  6
CONTINUOUS
 10
0.0
 20
-13.141256029999999
 30
0.0
 11
0.0
 21
13.141256029999999
 31
0.0
  0
LINE
  5
146C
  8
241
  6
CONTINUOUS
 10
0.93782217
 20
-10.35874398
 30
0.0
 11
0.93782217
 21
10.35874398
 31
0.0
  0
LINE
  5
1472
  8
241
  6
CONTINUOUS
 10
-14.5
 20
-10.0
 30
0.0
 11
-14.5
 21
10.0
 31
0.0
  0
LINE
  5
1473
  8
241
  6
CONTINUOUS
 10
-16.5
 20
-10.0
 30
0.0
 11
-16.5
 21
10.0
 31
0.0
  0
LINE
  5
1474
  8
241
  6
CONTINUOUS
 10
-23.5
 20
-10.0
 30
0.0
 11
-23.5
 21
10.0
 31
0.0
  0
LINE
  5
1478
  8
245
  6
CENTER2
 10
-35.0
 20
10.0
 30
0.0
 11
-35.0
 21
-10.0
 31
0.0
1001
GENIUS_GENOBJ-N-CEN_13
1002
{
1000
OWNER
1000
GEN
1002
}
1001
GENIUS_GENODEF_13
1002
{
1000
HIER
1070
     0
1002
}
1002
{
1000
MANEDIT
1070
     0
1002
}
1002
{
1000
NOSEL
1070
     0
1002
}
1002
{
1000
BEHIND
1070
     0
1002
}
1002
{
1000
OTHER
1070
     0
1002
}
1002
{
1000
REACTOR
1002
}
  0
LINE
  5
147C
  8
240
  6
CONTINUOUS
 10
-29.5
 20
-8.0
 30
0.0
 11
-27.5
 21
-10.0
 31
0.0
  0
LINE
  5
147D
  8
240
  6
CONTINUOUS
 10
-35.0
 20
-8.0
 30
0.0
 11
-29.5
 21
-8.0
 31
0.0
  0
LINE
  5
1481
  8
240
  6
CONTINUOUS
 10
-27.5
 20
-10.0
 30
0.0
 11
-6.5
 21
-10.0
 31
0.0
  0
LINE
  5
148E
  8
240
  6
CONTINUOUS
 10
-6.5000000099999991
 20
-13.0
 30
0.0
 11
-5.1262612799999987
 21
-13.5
 31
0.0
  0
LINE
  5
148F
  8
240
  6
CONTINUOUS
 10
0.0000000055125595
 20
-13.5
 30
0.0
 11
-5.1262612799999987
 21
-13.5
 31
0.0
  0
LINE
  5
1494
  8
240
  6
CONTINUOUS
 10
51.259807620000011
 20
-10.0
 30
0.0
 11
70.0
 21
-10.0
 31
0.0
  0
LINE
  5
1495
  8
240
  6
CONTINUOUS
 10
49.0
 20
-8.1999999999999975
 30
0.0
 11
48.0
 21
-8.1999999999999975
 31
0.0
  0
LINE
  5
1496
  8
240
  6
CONTINUOUS
 10
48.0
 20
-8.1999999999999975
 30
0.0
 11
48.0
 21
-10.0
 31
0.0
  0
ARC
  5
1497
  8
240
  6
CONTINUOUS
 10
1.7051491599999991
 20
-11.0
 30
0.0
 40
1.0
 50
90.0
 51
165.00000022
  0
LINE
  5
1498
  8
240
  6
CONTINUOUS
 10
48.0
 20
-10.0
 30
0.0
 11
1.7051491599999991
 21
-10.0
 31
0.0
  0
LINE
  5
1499
  8
240
  6
CONTINUOUS
 10
0.0000000055125595
 20
-13.5
 30
0.0
 11
0.73922333
 21
-10.741180959999999
 31
0.0
  0
LINE
  5
1536
  8
240
  6
CONTINUOUS
 10
49.0
 20
-8.1999999999999975
 30
0.0
 11
49.0
 21
-10.15
 31
0.0
  0
LINE
  5
1537
  8
240
  6
CONTINUOUS
 10
51.259807620000011
 20
-10.0
 30
0.0
 11
51.0
 21
-10.15
 31
0.0
  0
LINE
  5
1538
  8
240
  6
CONTINUOUS
 10
49.0
 20
-10.15
 30
0.0
 11
51.0
 21
-10.15
 31
0.0
  0
LINE
  5
153D
  8
241
  6
CONTINUOUS
 10
-25.5
 20
10.0
 30
0.0
 11
-25.5
 21
-10.0
 31
0.0
  0
LINE
  5
153F
  8
240
  6
CONTINUOUS
 10
-29.5
 20
8.0
 30
0.0
 11
-27.5
 21
10.0
 31
0.0
  0
LINE
  5
1540
  8
240
  6
CONTINUOUS
 10
-35.0
 20
8.0
 30
0.0
 11
-29.5
 21
8.0
 31
0.0
  0
LINE
  5
1541
  8
240
  6
CONTINUOUS
 10
-27.5
 20
10.0
 30
0.0
 11
-6.5
 21
10.0
 31
0.0
  0
LINE
  5
1548
  8
241
  6
CONTINUOUS
 10
-6.5
 20
10.0
 30
0.0
 11
-6.5
 21
-10.0
 31
0.0
  0
LINE
  5
1558
  8
240
  6
CONTINUOUS
 10
-6.5000000099999991
 20
13.0
 30
0.0
 11
-5.1262612799999987
 21
13.5
 31
0.0
  0
LINE
  5
155A
  8
240
  6
CONTINUOUS
 10
0.0000000055125594
 20
13.5
 30
0.0
 11
-5.1262612799999987
 21
13.5
 31
0.0
  0
LINE
  5
155E
  8
240
  6
CONTINUOUS
 10
51.259807620000011
 20
10.0
 30
0.0
 11
70.0
 21
10.0
 31
0.0
  0
LINE
  5
155F
  8
243
  6
HIDDEN2
 10
50.0
 20
3.1000000000000001
 30
0.0
 11
70.0
 21
3.1000000000000001
 31
0.0
  0
LINE
  5
1562
  8
240
  6
CONTINUOUS
 10
49.0
 20
8.1999999999999975
 30
0.0
 11
49.0
 21
10.15
 31
0.0
  0
LINE
  5
1563
  8
240
  6
CONTINUOUS
 10
48.0
 20
8.1999999999999975
 30
0.0
 11
48.0
 21
10.0
 31
0.0
  0
LINE
  5
1566
  8
240
  6
CONTINUOUS
 10
49.0
 20
8.1999999999999975
 30
0.0
 11
48.0
 21
8.1999999999999975
 31
0.0
  0
LINE
  5
1567
  8
242
  6
HIDDEN2
 10
41.0
 20
3.6062445799999989
 30
0.0
 11
50.0
 21
0.0
 31
0.0
  0
LINE
  5
1568
  8
242
  6
HIDDEN2
 10
41.0
 20
0.0
 30
0.0
 11
50.0
 21
3.6062445799999989
 31
0.0
  0
LINE
  5
1569
  8
243
  6
HIDDEN2
 10
41.0
 20
3.6062445799999989
 30
0.0
 11
50.0
 21
3.6062445799999989
 31
0.0
  0
LINE
  5
1571
  8
240
  6
CONTINUOUS
 10
48.0
 20
10.0
 30
0.0
 11
1.7051491599999991
 21
10.0
 31
0.0
  0
LINE
  5
1572
  8
240
  6
CONTINUOUS
 10
0.0000000055125594
 20
13.5
 30
0.0
 11
0.73922333
 21
10.741180959999999
 31
0.0
  0
ARC
  5
1573
  8
240
  6
CONTINUOUS
 10
1.7051491599999991
 20
11.0
 30
0.0
 40
1.0
 50
194.99999977999991
 51
270.0
  0
LINE
  5
1574
  8
240
  6
CONTINUOUS
 10
51.259807620000011
 20
10.0
 30
0.0
 11
51.0
 21
10.15
 31
0.0
  0
LINE
  5
1575
  8
240
  6
CONTINUOUS
 10
49.0
 20
10.15
 30
0.0
 11
51.0
 21
10.15
 31
0.0
  0
LINE
  5
1579
  8
250
  6
CONTINUOUS
 10
0.0
 20
14.0
 30
0.0
 11
0.0
 21
29.0
 31
0.0
  0
LINE
  5
157A
  8
250
  6
CONTINUOUS
 10
70.0
 20
10.5
 30
0.0
 11
70.0
 21
29.0
 31
0.0
  0
LINE
  5
157B
  8
250
  6
CONTINUOUS
 10
2.2299999999999991
 20
28.0
 30
0.0
 11
69.999999999999986
 21
28.0
 31
0.0
  0
LINE
  5
1581
  8
250
  6
CONTINUOUS
 10
79.62833333333333
 20
0.8700000000000001
 30
0.0
 11
80.0
 21
3.1000000000000001
 31
0.0
  0
LINE
  5
1582
  8
250
  6
CONTINUOUS
 10
80.37166666666667
 20
0.8700000000000001
 30
0.0
 11
80.0
 21
3.1000000000000001
 31
0.0
  0
LINE
  5
1583
  8
250
  6
CONTINUOUS
 10
80.0
 20
3.1000000000000001
 30
0.0
 11
80.0
 21
0.8700000000000001
 31
0.0
  0
LINE
  5
1584
  8
250
  6
CONTINUOUS
 10
70.5
 20
-10.0
 30
0.0
 11
88.0
 21
-10.0
 31
0.0
  0
LINE
  5
1585
  8
250
  6
CONTINUOUS
 10
70.5
 20
10.0
 30
0.0
 11
88.0
 21
10.0
 31
0.0
  0
LINE
  5
1586
  8
250
  6
CONTINUOUS
 10
87.0
 20
-7.769999999999996
 30
0.0
 11
87.0
 21
7.769999999999996
 31
0.0
  0
TEXT
  5
158A
  8
250
  6
CONTINUOUS
 10
78.845333388076142
 20
-5.8984418485306547
 30
0.0
 40
2.799999999999998
  1
\U+22056.2
 50
90.0
1001
ACAD
1000
MTEXTBEGIN
1070
    73
1070
     1
1070
    44
1040
1.0
1070
    74
1070
     0
1000
MTEXTEND
1000
MTEXTBEGIN
1070
    73
1070
     1
1070
    44
1040
1.0
1070
    74
1070
     0
1000
MTEXTEND
1000
MTEXTBEGIN
1070
    73
1070
     1
1070
    44
1040
1.0
1070
    74
1070
     0
1000
MTEXTEND
1000
MTEXTBEGIN
1070
    73
1070
     1
1070
    44
1040
1.0
1070
    74
1070
     0
1000
MTEXTEND
1000
MTEXTBEGIN
1070
    73
1070
     1
1070
    44
1040
1.0
1070
    74
1070
     0
1000
MTEXTEND
1000
MTEXTBEGIN
1070
    73
1070
     1
1070
    44
1040
1.0
1070
    74
1070
     0
1000
MTEXTEND
  0
TEXT
  5
158B
  8
250
  6
CONTINUOUS
 10
86.0
 20
-3.9333333333333309
 30
0.0
 40
2.799999999999998
  1
\U+220520
 50
90.0
1001
ACAD
1000
MTEXTBEGIN
1070
    73
1070
     1
1070
    44
1040
1.0
1070
    74
1070
     0
1000
MTEXTEND
  0
LINE
  5
158C
  8
250
  6
CONTINUOUS
 10
86.628333333333316
 20
7.769999999999996
 30
0.0
 11
87.0
 21
10.0
 31
0.0
  0
LINE
  5
158D
  8
250
  6
CONTINUOUS
 10
87.371666666666655
 20
7.769999999999996
 30
0.0
 11
87.0
 21
10.0
 31
0.0
  0
LINE
  5
158E
  8
250
  6
CONTINUOUS
 10
87.0
 20
10.0
 30
0.0
 11
87.0
 21
7.769999999999996
 31
0.0
  0
LINE
  5
158F
  8
250
  6
CONTINUOUS
 10
87.371666666666655
 20
-7.769999999999996
 30
0.0
 11
87.0
 21
-10.0
 31
0.0
  0
LINE
  5
1590
  8
250
  6
CONTINUOUS
 10
86.628333333333316
 20
-7.769999999999996
 30
0.0
 11
87.0
 21
-10.0
 31
0.0
  0
LINE
  5
1591
  8
250
  6
CONTINUOUS
 10
87.0
 20
-10.0
 30
0.0
 11
87.0
 21
-7.769999999999996
 31
0.0
  0
TEXT
  5
1592
  8
250
  6
CONTINUOUS
 10
53.231054353378582
 20
22.0
 30
0.0
 40
2.799999999999998
  1
□5
  7
YOKO
1001
ITEMNAME
1000
LNSP3
1001
ACAD
1000
MTEXTBEGIN
1070
    73
1070
     1
1070
    44
1040
1.0
1070
    74
1070
     0
1000
MTEXTEND
1000
MTEXTBEGIN
1070
    73
1070
     1
1070
    44
1040
1.0
1070
    74
1070
     0
1000
MTEXTEND
1000
MTEXTBEGIN
1070
    73
1070
     1
1070
    44
1040
1.0
1070
    74
1070
     0
1000
MTEXTEND
1000
MTEXTBEGIN
1070
    73
1070
     1
1070
    44
1040
1.0
1070
    74
1070
     0
1000
MTEXTEND
1000
MTEXTBEGIN
1070
    73
1070
     1
1070
    44
1040
1.0
1070
    74
1070
     0
1000
MTEXTEND
1000
MTEXTBEGIN
1070
    73
1070
     1
1070
    44
1040
1.0
1070
    74
1070
     0
1000
MTEXTEND
  0
LINE
  5
1593
  8
250
  6
CONTINUOUS
 10
45.189175574657639
 20
5.6997128315291281
 30
0.0
 11
50.804387686711927
 21
21.0
 31
0.0
1001
ACAD
1000
DSTYLE
1002
{
1070
     6
1000
OPEN
1070
   343
1005
594
1002
}
  0
TEXT
  5
1594
  8
250
  6
CONTINUOUS
 10
30.999491841553859
 20
29.0
 30
0.0
 40
2.799999999999998
  1
70
1001
ACAD
1000
MTEXTBEGIN
1070
    73
1070
     1
1070
    44
1040
1.0
1070
    74
1070
     0
1000
MTEXTEND
  0
LINE
  5
1595
  8
250
  6
CONTINUOUS
 10
67.769999999999996
 20
28.371666666666659
 30
0.0
 11
70.0
 21
28.0
 31
0.0
  0
LINE
  5
1596
  8
250
  6
CONTINUOUS
 10
67.769999999999996
 20
27.62833333333333
 30
0.0
 11
70.0
 21
28.0
 31
0.0
  0
LINE
  5
1597
  8
250
  6
CONTINUOUS
 10
70.0
 20
28.0
 30
0.0
 11
67.769999999999996
 21
28.0
 31
0.0
  0
LINE
  5
1598
  8
250
  6
CONTINUOUS
 10
2.2299999999999991
 20
27.62833333333333
 30
0.0
 11
0.0
 21
28.0
 31
0.0
  0
LINE
  5
1599
  8
250
  6
CONTINUOUS
 10
2.2299999999999991
 20
28.371666666666659
 30
0.0
 11
0.0
 21
28.0
 31
0.0
  0
LINE
  5
159A
  8
250
  6
CONTINUOUS
 10
0.0
 20
28.0
 30
0.0
 11
2.2299999999999991
 21
28.0
 31
0.0
  0
LINE
  5
15A1
  8
250
  6
CONTINUOUS
 10
45.53808694991249
 20
5.5716622035381764
 30
0.0
 11
44.420871806711929
 21
3.6062445799999989
 31
0.0
  0
LINE
  5
15A2
  8
250
  6
CONTINUOUS
 10
44.840264199402782
 20
5.827763459520078
 30
0.0
 11
44.420871806711929
 21
3.6062445799999989
 31
0.0
  0
LINE
  5
15A3
  8
250
  6
CONTINUOUS
 10
44.420871806711929
 20
3.6062445799999989
 30
0.0
 11
45.189175574657639
 21
5.6997128315291281
 31
0.0
  0
LINE
  5
15AB
  8
240
  6
CONTINUOUS
 10
-6.5
 20
10.0
 30
0.0
 11
-6.5000000099999991
 21
13.0
 31
0.0
  0
LINE
  5
15AC
  8
240
  6
CONTINUOUS
 10
-6.5
 20
-10.0
 30
0.0
 11
-6.5000000099999991
 21
-13.0
 31
0.0
  0
LINE
  5
15AD
  8
250
  6
CONTINUOUS
 10
70.5
 20
-3.1000000000000001
 30
0.0
 11
81.0
 21
-3.1000000000000001
 31
0.0
  0
LINE
  5
15AE
  8
250
  6
CONTINUOUS
 10
79.62833333333333
 20
-0.8700000000000001
 30
0.0
 11
80.0
 21
-3.1000000000000001
 31
0.0
  0
LINE
  5
15AF
  8
250
  6
CONTINUOUS
 10
80.37166666666667
 20
-0.8700000000000001
 30
0.0
 11
80.0
 21
-3.1000000000000001
 31
0.0
  0
LINE
  5
15B0
  8
243
  6
HIDDEN2
 10
50.0
 20
-3.1000000000000001
 30
0.0
 11
70.0
 21
-3.1000000000000001
 31
0.0
  0
LINE
  5
15B1
  8
242
  6
HIDDEN2
 10
41.0
 20
-3.6062445799999989
 30
0.0
 11
50.0
 21
0.0
 31
0.0
  0
LINE
  5
15B2
  8
242
  6
HIDDEN2
 10
41.0
 20
0.0
 30
0.0
 11
50.0
 21
-3.6062445799999989
 31
0.0
  0
LINE
  5
15B3
  8
243
  6
HIDDEN2
 10
41.0
 20
-3.6062445799999989
 30
0.0
 11
50.0
 21
-3.6062445799999989
 31
0.0
  0
LINE
  5
15B4
  8
243
  6
HIDDEN2
 10
41.0
 20
-3.6062445799999989
 30
0.0
 11
41.0
 21
3.6062445799999989
 31
0.0
  0
LINE
  5
15B6
  8
243
  6
HIDDEN2
 10
50.0
 20
-3.6062445799999989
 30
0.0
 11
50.0
 21
3.6062445799999989
 31
0.0
  0
LINE
  5
1679
  8
247
  6
CONTINUOUS
 10
3.7378221699999772
 20
-7.25
 30
0.0
 11
3.7378221700000069
 21
-4.4692307694020306
 31
0.0
  0
LINE
  5
167A
  8
247
  6
CONTINUOUS
 10
2.2378221700000061
 20
-6.7729360999927604
 30
0.0
 11
3.4978221699496062
 21
-7.134235286034424
 31
0.0
  0
LINE
  5
167B
  8
247
  6
CONTINUOUS
 10
2.8355144776684158
 20
-6.3950908421114141
 30
0.0
 11
2.8355144776684158
 21
-6.9443216113202171
 31
0.0
  0
ARC
  5
167C
  8
247
  6
CONTINUOUS
 10
2.4686536103764829
 20
-6.2523580411680921
 30
0.0
 40
0.2326029485596046
 50
72.997889675291987
 51
172.92416621851211
  0
ARC
  5
167D
  8
247
  6
CONTINUOUS
 10
2.4209560486168198
 20
-6.4294865340824572
 30
0.0
 40
0.4159828779215263
 50
4.7429368522006028
 51
73.849226273266453
1001
GENIUS_GENOBJ-N-FIL_13
1002
{
1000
OWNER
1000
GEN
1002
}
1001
GENIUS_GENODEF_13
1002
{
1000
HIER
1070
     0
1002
}
1002
{
1000
MANEDIT
1070
     0
1002
}
1002
{
1000
NOSEL
1070
     0
1002
}
1002
{
1000
BEHIND
1070
     0
1002
}
1002
{
1000
OTHER
1070
     0
1002
}
1002
{
1000
REACTOR
1002
}
  0
LINE
  5
167E
  8
247
  6
CONTINUOUS
 10
3.4978221699496062
 20
-6.5850045168256202
 30
0.0
 11
3.4978221699496062
 21
-7.134235286034424
 31
0.0
  0
LINE
  5
167F
  8
247
  6
CONTINUOUS
 10
2.2378221700000061
 20
-6.7729360999927604
 30
0.0
 11
2.2378221700000061
 21
-6.2237053307839547
 31
0.0
  0
ARC
  5
1680
  8
247
  6
CONTINUOUS
 10
3.0702723476607261
 20
-6.4269838857600803
 30
0.0
 40
0.2369143806452316
 50
65.990941652528804
 51
172.26344345906921
  0
ARC
  5
1681
  8
247
  6
CONTINUOUS
 10
3.072542366399567
 20
-6.627467966256174
 30
0.0
 40
0.4273944967417014
 50
5.7019851642579606
 51
77.27733843682222
1001
GENIUS_GENOBJ-N-FIL_13
1002
{
1000
OWNER
1000
GEN
1002
}
1001
GENIUS_GENODEF_13
1002
{
1000
HIER
1070
     0
1002
}
1002
{
1000
MANEDIT
1070
     0
1002
}
1002
{
1000
NOSEL
1070
     0
1002
}
1002
{
1000
BEHIND
1070
     0
1002
}
1002
{
1000
OTHER
1070
     0
1002
}
1002
{
1000
REACTOR
1002
}
  0
LINE
  5
1682
  8
247
  6
CONTINUOUS
 10
3.4978221699496062
 20
-6.010389132238001
 30
0.0
 11
2.2378221700000061
 21
-5.649089946196395
 31
0.0
  0
LINE
  5
1683
  8
247
  6
CONTINUOUS
 10
2.2378221700000061
 20
-4.7513976385447707
 30
0.0
 11
2.2378221700000061
 21
-4.989007018582126
 31
0.0
  0
LINE
  5
1684
  8
247
  6
CONTINUOUS
 10
3.4978221699496062
 20
-5.3652437923663561
 30
0.0
 11
3.4978221699496062
 21
-5.106782253915183
 31
0.0
  0
ARC
  5
1685
  8
247
  6
CONTINUOUS
 10
3.1128019270500351
 20
-4.6290899462420043
 30
0.0
 40
0.9461130345837279
 50
202.35948814152781
 51
254.99324854284609
  0
ARC
  5
1686
  8
247
  6
CONTINUOUS
 10
2.5773134851229051
 20
-4.9085068196799284
 30
0.0
 40
0.3740824078205668
 50
94.994589319075374
 51
155.1663289573037
1001
GENIUS_GENOBJ-N-FIL_13
1002
{
1000
OWNER
1000
GEN
1002
}
1001
GENIUS_GENODEF_13
1002
{
1000
HIER
1070
     0
1002
}
1002
{
1000
MANEDIT
1070
     0
1002
}
1002
{
1000
NOSEL
1070
     0
1002
}
1002
{
1000
BEHIND
1070
     0
1002
}
1002
{
1000
OTHER
1070
     0
1002
}
1002
{
1000
REACTOR
1002
}
  0
ARC
  5
1687
  8
247
  6
CONTINUOUS
 10
2.935083443181687
 20
-5.266510370619641
 30
0.0
 40
0.5849683289464192
 50
15.84609655578091
 51
82.325137004169122
  0
ARC
  5
1688
  8
247
  6
CONTINUOUS
 10
3.060704411182646
 20
-5.0211269832633443
 30
0.0
 40
0.5563167383215207
 50
249.71360167049701
 51
321.7887456564095
1001
GENIUS_GENOBJ-N-FIL_13
1002
{
1000
OWNER
1000
GEN
1002
}
1001
GENIUS_GENODEF_13
1002
{
1000
HIER
1070
     0
1002
}
1002
{
1000
MANEDIT
1070
     0
1002
}
1002
{
1000
NOSEL
1070
     0
1002
}
1002
{
1000
BEHIND
1070
     0
1002
}
1002
{
1000
OTHER
1070
     0
1002
}
1002
{
1000
REACTOR
1002
}
  0
LINE
  5
1689
  8
247
  6
CONTINUOUS
 10
3.0132067853536082
 20
-4.9775514846895694
 30
0.0
 11
3.0132067853536082
 21
-4.6867822539319919
 31
0.0
  0
ARC
  5
168A
  8
247
  6
CONTINUOUS
 10
2.9878221700000061
 20
-7.25
 30
0.0
 40
0.75
 50
180.0
 51
0.0
  0
LINE
  5
168B
  8
247
  6
CONTINUOUS
 10
2.2378221700000061
 20
-7.25
 30
0.0
 11
2.2378221700000061
 21
-6.9823076923483987
 31
0.0
  0
ARC
  5
168C
  8
247
  6
CONTINUOUS
 10
2.9878221700000061
 20
-4.469230769402003
 30
0.0
 40
0.75
 50
0.0
 51
180.0
  0
VIEWPORT
  5
22
 67
     1
  8
0
 10
261.51769911999997
 20
148.5
 30
0.0
 40
523.03539823000006
 41
297.0
 68
     1
 69
     1
1001
ACAD
1000
MVIEW
1002
{
1070
    16
1010
0.0
1020
0.0
1030
0.0
1010
0.0
1020
0.0
1030
1.0
1040
0.0
1040
297.0
1040
261.51769911999997
1040
148.5
1040
50.0
1040
0.0
1040
0.0
1070
     0
1070
   100
1070
     1
1070
     1
1070
     0
1070
     0
1070
     0
1070
     0
1040
0.0
1040
0.0
1040
0.0
1040
1.0
1040
1.0
1040
10.0
1040
10.0
1070
     0
1002
{
1002
}
1002
}
1001
GENIUS_GENODEF_13
1002
{
1000
HIER
1070
     0
1002
}
1002
{
1000
MANEDIT
1070
     0
1002
}
1002
{
1000
NOSEL
1070
     0
1002
}
1002
{
1000
BEHIND
1070
     0
1002
}
1002
{
1000
OTHER
1070
     0
1002
}
1002
{
1000
REACTOR
1002
}
1001
GENIUS_GENOBJ-N-SDF_13
1002
{
1000
OWNER
1000
GEN
1002
}
1001
GENIUS_GENSCREG_15
1000
PF
1040
1.0
1000
DF
1040
1.0
1000
MIN
1011
0.0000000049999471
1021
0.0
1031
0.0
1021
0.0
1031
0.0
1000
MAX
1011
523.035398235
1021
0.0
1031
0.0
1021
297.0
1031
0.0
1000
FLAGS
1070
     4
  0
ENDSEC
  0
EOF
