  0
SECTION
  2
HEADER
  9
$ACADVER
  1
AC1009
  9
$INSBASE
 10
0.0
 20
0.0
 30
0.0
  9
$EXTMIN
 10
-53.078460940232077
 20
-27.679103587541022
 30
0.0
  9
$EXTMAX
 10
88.0
 20
47.000000000000021
 30
0.0
  9
$LIMMIN
 10
0.0
 20
0.0
  9
$LIMMAX
 10
420.0
 20
297.0
  9
$ORTHOMODE
 70
     1
  9
$REGENMODE
 70
     1
  9
$FILLMODE
 70
     1
  9
$QTEXTMODE
 70
     0
  9
$MIRRTEXT
 70
     1
  9
$DRAGMODE
 70
     2
  9
$LTSCALE
 40
10.0
  9
$OSMODE
 70
    55
  9
$ATTMODE
 70
     1
  9
$TEXTSIZE
 40
3.0
  9
$TRACEWID
 40
1.0
  9
$TEXTSTYLE
  7
YOKO
  9
$CLAYER
  8
240
  9
$CELTYPE
  6
BYLAYER
  9
$CECOLOR
 62
   256
  9
$DIMSCALE
 40
1.0
  9
$DIMASZ
 40
2.0
  9
$DIMEXO
 40
2.0
  9
$DIMDLI
 40
2.5
  9
$DIMRND
 40
0.0
  9
$DIMDLE
 40
0.0
  9
$DIMEXE
 40
2.0
  9
$DIMTP
 40
0.0
  9
$DIMTM
 40
0.0
  9
$DIMTXT
 40
4.0
  9
$DIMCEN
 40
0.0
  9
$DIMTSZ
 40
0.0
  9
$DIMTOL
 70
     0
  9
$DIMLIM
 70
     0
  9
$DIMTIH
 70
     0
  9
$DIMTOH
 70
     0
  9
$DIMSE1
 70
     0
  9
$DIMSE2
 70
     0
  9
$DIMTAD
 70
     3
  9
$DIMZIN
 70
     8
  9
$DIMBLK
  1

  9
$DIMASO
 70
     1
  9
$DIMSHO
 70
     1
  9
$DIMPOST
  1

  9
$DIMAPOST
  1

  9
$DIMALT
 70
     0
  9
$DIMALTD
 70
     2
  9
$DIMALTF
 40
25.399999999999999
  9
$DIMLFAC
 40
1.0
  9
$DIMTOFL
 70
     1
  9
$DIMTVP
 40
0.0
  9
$DIMTIX
 70
     1
  9
$DIMSOXD
 70
     0
  9
$DIMSAH
 70
     1
  9
$DIMBLK1
  1
OPEN
  9
$DIMBLK2
  1
OPEN
  9
$DIMSTYLE
  2
BIGT
  9
$DIMCLRD
 70
   256
  9
$DIMCLRE
 70
   256
  9
$DIMCLRT
 70
    40
  9
$DIMTFAC
 40
1.0
  9
$DIMGAP
 40
1.0
  9
$LUNITS
 70
     2
  9
$LUPREC
 70
     3
  9
$SKETCHINC
 40
1.0
  9
$FILLETRAD
 40
0.0
  9
$AUNITS
 70
     0
  9
$AUPREC
 70
     3
  9
$MENU
  1
.
  9
$ELEVATION
 40
0.0
  9
$PELEVATION
 40
0.0
  9
$THICKNESS
 40
0.0
  9
$LIMCHECK
 70
     0
  9
$BLIPMODE
 70
     0
  9
$CHAMFERA
 40
10.0
  9
$CHAMFERB
 40
10.0
  9
$SKPOLY
 70
     0
  9
$TDCREATE
 40
2455128.5774553241
  9
$TDUPDATE
 40
2457787.7386405319
  9
$TDINDWG
 40
0.0411854514
  9
$TDUSRTIMER
 40
0.0411854398
  9
$USRTIMER
 70
     1
  9
$ANGBASE
 50
0.0
  9
$ANGDIR
 70
     0
  9
$PDMODE
 70
     1
  9
$PDSIZE
 40
-5.0
  9
$PLINEWID
 40
0.0
  9
$COORDS
 70
     1
  9
$SPLFRAME
 70
     0
  9
$SPLINETYPE
 70
     6
  9
$SPLINESEGS
 70
     8
  9
$ATTDIA
 70
     1
  9
$ATTREQ
 70
     1
  9
$HANDLING
 70
     1
  9
$HANDSEED
  5
1AFC
  9
$SURFTAB1
 70
     6
  9
$SURFTAB2
 70
     6
  9
$SURFTYPE
 70
     6
  9
$SURFU
 70
     6
  9
$SURFV
 70
     6
  9
$UCSNAME
  2

  9
$UCSORG
 10
0.0
 20
0.0
 30
0.0
  9
$UCSXDIR
 10
1.0
 20
0.0
 30
0.0
  9
$UCSYDIR
 10
0.0
 20
1.0
 30
0.0
  9
$PUCSNAME
  2

  9
$PUCSORG
 10
0.0
 20
0.0
 30
0.0
  9
$PUCSXDIR
 10
1.0
 20
0.0
 30
0.0
  9
$PUCSYDIR
 10
0.0
 20
1.0
 30
0.0
  9
$USERI1
 70
     1
  9
$USERI2
 70
     0
  9
$USERI3
 70
     0
  9
$USERI4
 70
     0
  9
$USERI5
 70
     0
  9
$USERR1
 40
0.0
  9
$USERR2
 40
0.0
  9
$USERR3
 40
0.0
  9
$USERR4
 40
0.0
  9
$USERR5
 40
0.0
  9
$WORLDVIEW
 70
     1
  9
$SHADEDGE
 70
     3
  9
$SHADEDIF
 70
    70
  9
$TILEMODE
 70
     1
  9
$MAXACTVP
 70
    16
  9
$PLIMCHECK
 70
     0
  9
$PEXTMIN
 10
1.0000000000000000E+020
 20
1.0000000000000000E+020
 30
1.0000000000000000E+020
  9
$PEXTMAX
 10
-1.0000000000000000E+020
 20
-1.0000000000000000E+020
 30
-1.0000000000000000E+020
  9
$PLIMMIN
 10
0.0
 20
0.0
  9
$PLIMMAX
 10
420.0
 20
297.0
  9
$UNITMODE
 70
     0
  9
$VISRETAIN
 70
     0
  9
$PLINEGEN
 70
     0
  9
$PSLTSCALE
 70
     1
  0
ENDSEC
  0
SECTION
  2
TABLES
  0
TABLE
  2
VPORT
 70
     1
  0
VPORT
  2
*ACTIVE
 70
     0
 10
0.0
 20
0.0
 11
1.0
 21
1.0
 12
18.039525820443782
 22
36.272591948920947
 13
0.0
 23
0.0
 14
7.0
 24
7.0
 15
7.0
 25
7.0
 16
0.0
 26
0.0
 36
1.0
 17
0.0
 27
0.0
 37
0.0
 40
164.34027281170339
 41
1.4489795918367341
 42
50.0
 43
0.0
 44
0.0
 50
0.0
 51
0.0
 71
     0
 72
  2000
 73
     1
 74
     0
 75
     0
 76
     1
 77
     0
 78
     0
  0
ENDTAB
  0
TABLE
  2
LTYPE
 70
    21
  0
LTYPE
  2
CONTINUOUS
 70
     0
  3
Solid line
 72
    65
 73
     0
 40
0.0
  0
LTYPE
  2
CENTER2
 70
     0
  3
___ _ ___ _ ___ _ ___ _ ___ _ ___ _ ___ _ ___ _
 72
    65
 73
     4
 40
1.125
 49
0.75
 49
-0.125
 49
0.125
 49
-0.125
  0
LTYPE
  2
HIDDEN2
 70
     0
  3
_ _ _ _ _ _ _ _ _ _ _ _ _ _ _ _ _ _ _ _ _ _ _ _
 72
    65
 73
     2
 40
0.1875
 49
0.125
 49
-0.0625
  0
LTYPE
  2
PHANTOM2
 70
     0
  3
___ _ _ ___ _ _ ___ _ _ ___ _ _ ___ _ _ ___ _ _
 72
    65
 73
     6
 40
1.25
 49
0.625
 49
-0.125
 49
0.125
 49
-0.125
 49
0.125
 49
-0.125
  0
LTYPE
  2
AMCONSTR
 70
     0
  3
_______________________
 72
    65
 73
     2
 40
9999.0
 49
9999.0
 49
0.0
  0
LTYPE
  2
HIDDEN
 70
     0
  3
Hidden __ __ __ __ __ __ __ __ __ __ __ __ __ _
 72
    65
 73
     2
 40
0.375
 49
0.25
 49
-0.125
  0
LTYPE
  2
CENTER
 70
     0
  3
Center ____ _ ____ _ ____ _ ____ _ ____ _ ____
 72
    65
 73
     4
 40
2.0
 49
1.25
 49
-0.25
 49
0.25
 49
-0.25
  0
LTYPE
  2
AMZIGZAG2
 70
     0
  3
/\/-/\/-/\/-/\/-/\/-/\/
 72
    65
 73
     2
 40
0.4401
 49
0.0001
 49
-0.4400000000000001
  0
LTYPE
  2
ACANSTGB
 70
     0
  3
__ . . __ . .
 72
    65
 73
     6
 40
0.35433070866
 49
0.15748031496
 49
-0.03937007874
 49
0.03937007874
 49
-0.03937007874
 49
0.03937007874
 49
-0.03937007874
  0
LTYPE
  2
ACANSTGL
 70
     0
  3
_ _ _ _ _
 72
    65
 73
     2
 40
0.11811023622
 49
0.07874015748
 49
-0.03937007874
  0
ENDTAB
  0
TABLE
  2
LAYER
 70
    10
  0
LAYER
  2
0
 70
     0
 62
     7
  6
CONTINUOUS
  0
LAYER
  2
240
 70
     0
 62
     4
  6
CONTINUOUS
  0
LAYER
  2
241
 70
     0
 62
   211
  6
CONTINUOUS
  0
LAYER
  2
242
 70
     0
 62
     3
  6
CONTINUOUS
  0
LAYER
  2
245
 70
     0
 62
     2
  6
CENTER2
  0
LAYER
  2
250
 70
     0
 62
     3
  6
CONTINUOUS
  0
LAYER
  2
DEFPOINTS
 70
     0
 62
     7
  6
CONTINUOUS
  0
LAYER
  2
247
 70
     0
 62
    60
  6
CONTINUOUS
  0
LAYER
  2
243
 70
     0
 62
   211
  6
HIDDEN2
  0
ENDTAB
  0
TABLE
  2
STYLE
 70
    10
  0
STYLE
  2
STANDARD
 70
     0
 40
0.0
 41
1.0
 50
0.0
 71
     0
 42
3.0
  3
romans.shx
  4
BIGFONT.SHX
  0
STYLE
  2
YOKO
 70
     0
 40
0.0
 41
1.0
 50
0.0
 71
     0
 42
3.0
  3
romans.shx
  4
extfont.shx
  0
STYLE
  2

 70
     1
 40
0.0
 41
1.0
 50
0.0
 71
     0
 42
3.0
  3
genltshp.shx
  4

  0
STYLE
  2
ACANSGDT
 70
     0
 40
0.0
 41
1.0
 50
0.0
 71
     0
 42
3.0
  3
amgdt.shx
  4

  0
ENDTAB
  0
TABLE
  2
VIEW
 70
     0
  0
ENDTAB
  0
TABLE
  2
UCS
 70
     0
  0
ENDTAB
  0
TABLE
  2
APPID
 70
    46
  0
APPID
  2
ACAD
 70
     0
  0
APPID
  2
ACADANNOTATIVE
 70
     0
  0
APPID
  2
GLOBAL
 70
     0
  0
APPID
  2
DETAIL
 70
     0
  0
APPID
  2
GRPNAME
 70
     0
  0
APPID
  2
GPARA
 70
     0
  0
APPID
  2
DCO15
 70
     0
  0
APPID
  2
ITEMNAME
 70
     0
  0
APPID
  2
GRADE_0
 70
     0
  0
APPID
  2
GENIUS_GENODEF_13
 70
     0
  0
APPID
  2
GENIUS_GENOBJ-N-FIL_13
 70
     0
  0
APPID
  2
GENIUS_GENOBJ-N-CEN_13
 70
     0
  0
APPID
  2
HATCH_TYPE
 70
     0
  0
APPID
  2
HATCH_DISPLAY
 70
     0
  0
APPID
  2
HATCH_DISTANCE
 70
     0
  0
APPID
  2
CONTENTBLOCKICON
 70
     0
  0
APPID
  2
MCAD_NO_VIS
 70
     0
  0
APPID
  2
ACAD_TEMP_GRAPHIC
 70
     0
  0
APPID
  2
ACATTRIBSERVICES
 70
     0
  0
APPID
  2
GENIUS_GENSCREG_15
 70
     0
  0
APPID
  2
GENIUS_GENOBJ-N-SDF_13
 70
     0
  0
APPID
  2
GENIUS_GENREC_14
 70
     0
  0
APPID
  2
GENIUS_GENOBJ-N-REC_13
 70
     0
  0
APPID
  2
GENIUS_GENDIMSH_14
 70
     0
  0
APPID
  2
GENIUS_GENOBJ-N-DIM_13
 70
     0
  0
APPID
  2
GENIUS_GENDIM_13
 70
     0
  0
APPID
  2
GENIUS_GENDTOL_13
 70
     0
  0
APPID
  2
GENIUS_GENOLIS_13
 70
     0
  0
APPID
  2
GENIUS_GENOENT_13
 70
     0
  0
APPID
  2
GENIUS_GENOBJ-F-FEM_13
 70
     0
  0
APPID
  2
GENIUS_GENOREF_13
 70
     0
  0
APPID
  2
GENIUS_GEFFEM_13
 70
     0
  0
APPID
  2
GENIUS_GEFFEMP_13
 70
     0
  0
APPID
  2
AD_DRAW
 70
     0
  0
APPID
  2
DESIGNERASSEMBLIES
 70
     0
  0
APPID
  2
ACADM_DIM_EDIT
 70
     0
  0
APPID
  2
AMDT_DM_ADJ
 70
     0
  0
APPID
  2
GENIUS_GENFIL_13
 70
     0
  0
APPID
  2
GENIUS_GENOBJ-N-CHA_13
 70
     0
  0
APPID
  2
ACAD_NAV_VCDISPLAY
 70
     0
  0
APPID
  2
ACAD_EXEMPT_FROM_CAD_STANDARDS
 70
     0
  0
APPID
  2
ACAECLAYERSTANDARD
 70
     0
  0
APPID
  2
ACAD_DSTYLE_DIMINSPECT
 70
     0
  0
APPID
  2
ACAD_MLEADERVER
 70
     0
  0
APPID
  2
ACAD_DSTYLE_DIMJAG
 70
     0
  0
APPID
  2
ACAD_DSTYLE_DIMBREAK
 70
     0
  0
ENDTAB
  0
TABLE
  2
DIMSTYLE
 70
    31
  0
DIMSTYLE
  2
STANDARD
 70
     0
  3

  4

  5

  6

  7

 40
1.0
 41
0.18
 42
0.0625
 43
0.38
 44
0.18
 45
0.0
 46
0.0
 47
0.0
 48
0.0
140
0.18
141
0.09
142
0.0
143
25.399999999999999
144
1.0
145
0.0
146
1.0
147
0.09
 71
     0
 72
     0
 73
     1
 74
     1
 75
     0
 76
     0
 77
     0
 78
     0
170
     0
171
     2
172
     0
173
     0
174
     0
175
     0
176
     0
177
     0
178
     0
  0
DIMSTYLE
  2
BIGT
 70
     0
  3

  4

  5

  6

  7

 40
1.0
 41
2.2299999999999991
 42
0.5
 43
7.0
 44
1.0
 45
0.0
 46
0.0
 47
0.0
 48
0.01
140
2.799999999999998
141
0.0
142
0.0
143
25.399999999999999
144
1.0
145
0.0
146
1.0
147
1.0
 71
     0
 72
     0
 73
     0
 74
     0
 75
     0
 76
     0
 77
     3
 78
     9
170
     0
171
     2
172
     1
173
     0
174
     1
175
     0
176
   256
177
   256
178
    40
  0
DIMSTYLE
  2
AM_ANSI
 70
     0
  3

  4
mm
  5

  6

  7

 40
1.0
 41
0.12
 42
0.05
 43
0.5
 44
0.1
 45
0.0
 46
0.0
 47
0.1
 48
0.1
140
0.12
141
0.0
142
0.0
143
25.399999999999999
144
1.0
145
0.0
146
0.71
147
0.06
 71
     0
 72
     0
 73
     1
 74
     1
 75
     0
 76
     0
 77
     0
 78
     7
170
     0
171
     2
172
     0
173
     0
174
     0
175
     0
176
   256
177
   256
178
     2
  0
DIMSTYLE
  2
AM_ANSI$3
 70
     0
  3

  4
mm
  5

  6

  7

 40
1.0
 41
0.12
 42
0.05
 43
0.5
 44
0.1
 45
0.0
 46
0.0
 47
0.1
 48
0.1
140
0.12
141
0.0
142
0.0
143
25.399999999999999
144
1.0
145
0.0
146
0.71
147
0.06
 71
     0
 72
     0
 73
     1
 74
     1
 75
     0
 76
     0
 77
     0
 78
     7
170
     0
171
     2
172
     0
173
     0
174
     0
175
     0
176
   256
177
   256
178
     2
  0
DIMSTYLE
  2
AM_ANSI$4
 70
     0
  3

  4
mm
  5

  6

  7

 40
1.0
 41
0.12
 42
0.05
 43
0.5
 44
0.1
 45
0.0
 46
0.0
 47
0.1
 48
0.1
140
0.12
141
0.0
142
0.0
143
25.399999999999999
144
1.0
145
0.0
146
0.71
147
0.06
 71
     0
 72
     0
 73
     1
 74
     1
 75
     0
 76
     0
 77
     0
 78
     7
170
     0
171
     2
172
     0
173
     0
174
     0
175
     0
176
   256
177
   256
178
     2
  0
DIMSTYLE
  2
AM_ANSI$7
 70
     0
  3

  4
mm
  5

  6

  7

 40
1.0
 41
0.12
 42
0.05
 43
0.5
 44
0.1
 45
0.0
 46
0.0
 47
0.1
 48
0.1
140
0.12
141
0.0
142
0.0
143
25.399999999999999
144
1.0
145
0.0
146
0.71
147
0.06
 71
     0
 72
     0
 73
     1
 74
     1
 75
     0
 76
     0
 77
     0
 78
     7
170
     0
171
     2
172
     0
173
     0
174
     0
175
     0
176
   256
177
   256
178
     2
  0
DIMSTYLE
  2
AM_ANSI$SF
 70
     0
  3

  4
mm
  5

  6

  7

 40
1.0
 41
0.12
 42
0.05
 43
0.5
 44
0.1
 45
0.0
 46
0.0
 47
0.1
 48
0.1
140
0.12
141
0.0
142
0.0
143
25.399999999999999
144
1.0
145
0.0
146
0.71
147
0.06
 71
     0
 72
     0
 73
     1
 74
     1
 75
     1
 76
     1
 77
     0
 78
     7
170
     0
171
     2
172
     0
173
     0
174
     0
175
     0
176
   256
177
   256
178
     2
  0
DIMSTYLE
  2
AM_ANSI$SH
 70
     0
  3

  4
mm
  5

  6
GENAXEH
  7

 40
1.0
 41
0.12
 42
0.05
 43
0.5
 44
0.1
 45
0.0
 46
0.0
 47
0.1
 48
0.1
140
0.12
141
0.0
142
0.0
143
25.399999999999999
144
1.0
145
0.0
146
0.71
147
0.06
 71
     0
 72
     0
 73
     1
 74
     1
 75
     1
 76
     1
 77
     0
 78
     7
170
     0
171
     2
172
     0
173
     1
174
     0
175
     0
176
   256
177
   256
178
     2
  0
ENDTAB
  0
ENDSEC
  0
SECTION
  2
BLOCKS
  0
BLOCK
  8
0
  2
$MODEL_SPACE
 70
     0
 10
0.0
 20
0.0
 30
0.0
  3
$MODEL_SPACE
  1

  0
ENDBLK
  5
1954
  8
0
  0
BLOCK
 67
     1
  8
0
  2
$PAPER_SPACE
 70
     0
 10
0.0
 20
0.0
 30
0.0
  3
$PAPER_SPACE
  1

  0
ENDBLK
  5
1950
 67
     1
  8
0
  0
BLOCK
  8
0
  2
_OPEN
 70
     0
 10
0.0
 20
0.0
 30
0.0
  3
_OPEN
  1

  0
LINE
  5
17DE
  8
0
  6
BYBLOCK
 62
     0
 10
-1.0
 20
0.1666666666666666
 30
0.0
 11
0.0
 21
0.0
 31
0.0
  0
LINE
  5
17DF
  8
0
  6
BYBLOCK
 62
     0
 10
-1.0
 20
-0.1666666666666666
 30
0.0
 11
0.0
 21
0.0
 31
0.0
  0
LINE
  5
17E0
  8
0
  6
BYBLOCK
 62
     0
 10
0.0
 20
0.0
 30
0.0
 11
-1.0
 21
0.0
 31
0.0
  0
ENDBLK
  5
17E1
  8
0
  0
BLOCK
  8
0
  2
矢印なし
 70
     0
 10
0.0
 20
0.0
 30
0.0
  3
矢印なし
  1

  0
ENDBLK
  5
6E5
  8
0
  0
BLOCK
  8
0
  2
GENAXEH
 70
     0
 10
0.0
 20
0.0
 30
0.0
  3
GENAXEH
  1

  0
LINE
  5
1819
  8
0
 10
-1.0
 20
0.0
 30
0.0
 11
1.0
 21
0.0
 31
0.0
  0
ENDBLK
  5
181A
  8
0
  0
BLOCK
  8
0
  2
_ACMFILLEDHALF
 70
     0
 10
0.0
 20
0.0
 30
0.0
  3
_ACMFILLEDHALF
  1

  0
TRACE
  5
1A20
  8
240
 62
     0
 10
-0.8
 20
0.0
 30
0.0
 11
-1.0
 21
0.166666666
 31
0.0
 12
0.0
 22
0.0
 32
0.0
 13
0.0
 23
0.0
 33
0.0
  0
LINE
  5
1A21
  8
240
 62
     0
 10
-1.0
 20
0.0
 30
0.0
 11
-0.8
 21
0.0
 31
0.0
  0
ENDBLK
  5
1A1F
  8
0
  0
ENDSEC
  0
SECTION
  2
ENTITIES
  0
INSERT
  5
6E6
  8
245
  2
矢印なし
 10
175.62382697000001
 20
90.551235719999994
 30
0.0
  0
INSERT
  5
8DC
  8
245
  2
矢印なし
 10
343.62382696999998
 20
223.55123571999999
 30
0.0
  0
INSERT
  5
8DD
  8
245
  2
矢印なし
 10
504.62382696999993
 20
363.55123572000002
 30
0.0
  0
INSERT
  5
8DE
  8
245
  2
矢印なし
 10
679.62382696999987
 20
510.55123572000002
 30
0.0
  0
INSERT
  5
8DF
  8
245
  2
矢印なし
 10
833.62382696999998
 20
650.55123572000002
 30
0.0
  0
TEXT
  5
8E0
  8
241
  6
CONTINUOUS
 10
-51.0
 20
42.0
 30
0.0
 40
5.0
  1
MGT12-M12-70
  7
YOKO
 11
-51.0
 21
42.0
 31
0.0
 73
     1
  0
LINE
  5
1013
  8
250
  6
CONTINUOUS
 10
50.666611486976421
 20
21.0
 30
0.0
 11
65.51994481697642
 21
21.0
 31
0.0
1001
ITEMNAME
1000
LNSP2
  0
LINE
  5
143C
  8
245
  6
CENTER2
 10
-53.078460940232077
 20
0.0
 30
0.0
 11
71.0
 21
0.0
 31
0.0
  0
LINE
  5
143D
  8
240
  6
CONTINUOUS
 10
-40.499999999999993
 20
8.0
 30
0.0
 11
-35.0
 21
8.0
 31
0.0
  0
LINE
  5
143E
  8
240
  6
CONTINUOUS
 10
-40.499999999999993
 20
-8.0
 30
0.0
 11
-35.0
 21
-8.0
 31
0.0
  0
LINE
  5
1441
  8
240
  6
CONTINUOUS
 10
-51.0
 20
-10.0
 30
0.0
 11
-42.5
 21
-10.0
 31
0.0
  0
LINE
  5
1443
  8
240
  6
CONTINUOUS
 10
-40.499999999999993
 20
-8.0
 30
0.0
 11
-42.5
 21
-10.0
 31
0.0
  0
LINE
  5
1444
  8
240
  6
CONTINUOUS
 10
-40.499999999999993
 20
8.0
 30
0.0
 11
-42.5
 21
10.0
 31
0.0
  0
LINE
  5
1445
  8
240
  6
CONTINUOUS
 10
-51.0
 20
10.0
 30
0.0
 11
-51.0
 21
-10.0
 31
0.0
  0
LINE
  5
1446
  8
240
  6
CONTINUOUS
 10
-51.0
 20
10.0
 30
0.0
 11
-42.5
 21
10.0
 31
0.0
  0
LINE
  5
144E
  8
241
  6
CONTINUOUS
 10
48.0
 20
-8.1999999999999975
 30
0.0
 11
48.0
 21
8.1999999999999975
 31
0.0
  0
LINE
  5
144F
  8
241
  6
CONTINUOUS
 10
52.200000000000003
 20
-10.0
 30
0.0
 11
52.200000000000003
 21
10.0
 31
0.0
  0
LINE
  5
1450
  8
241
  6
CONTINUOUS
 10
51.0
 20
-10.15
 30
0.0
 11
51.0
 21
10.14999999999999
 31
0.0
  0
LINE
  5
1451
  8
241
  6
CONTINUOUS
 10
49.0
 20
-8.1999999999999975
 30
0.0
 11
49.0
 21
8.1999999999999975
 31
0.0
  0
LINE
  5
1453
  8
245
  6
CENTER2
 10
-35.0
 20
10.0
 30
0.0
 11
-35.0
 21
-10.0
 31
0.0
1001
GENIUS_GENOBJ-N-CEN_13
1002
{
1000
OWNER
1000
GEN
1002
}
1001
GENIUS_GENODEF_13
1002
{
1000
HIER
1070
     0
1002
}
1002
{
1000
MANEDIT
1070
     0
1002
}
1002
{
1000
NOSEL
1070
     0
1002
}
1002
{
1000
BEHIND
1070
     0
1002
}
1002
{
1000
OTHER
1070
     0
1002
}
1002
{
1000
REACTOR
1002
}
  0
LINE
  5
1456
  8
241
  6
CONTINUOUS
 10
-25.5
 20
-10.0
 30
0.0
 11
-25.5
 21
10.0
 31
0.0
  0
LINE
  5
1457
  8
241
  6
CONTINUOUS
 10
-23.5
 20
-10.0
 30
0.0
 11
-23.5
 21
10.0
 31
0.0
  0
LINE
  5
1458
  8
241
  6
CONTINUOUS
 10
-16.5
 20
-10.0
 30
0.0
 11
-16.5
 21
10.0
 31
0.0
  0
LINE
  5
1459
  8
241
  6
CONTINUOUS
 10
-14.5
 20
-10.0
 30
0.0
 11
-14.5
 21
10.0
 31
0.0
  0
LINE
  5
145B
  8
241
  6
CONTINUOUS
 10
-6.5
 20
-10.0
 30
0.0
 11
-6.5
 21
10.0
 31
0.0
  0
LINE
  5
145F
  8
241
  6
CONTINUOUS
 10
0.93782217
 20
-10.35874398
 30
0.0
 11
0.93782217
 21
10.35874398
 31
0.0
  0
LINE
  5
1460
  8
241
  6
CONTINUOUS
 10
0.0
 20
-13.5
 30
0.0
 11
0.0
 21
13.5
 31
0.0
  0
LINE
  5
1463
  8
240
  6
CONTINUOUS
 10
-29.5
 20
-8.0
 30
0.0
 11
-27.5
 21
-10.0
 31
0.0
  0
LINE
  5
1464
  8
240
  6
CONTINUOUS
 10
-35.0
 20
-8.0
 30
0.0
 11
-29.5
 21
-8.0
 31
0.0
  0
LINE
  5
1468
  8
240
  6
CONTINUOUS
 10
-27.5
 20
-10.0
 30
0.0
 11
-6.5
 21
-10.0
 31
0.0
  0
LINE
  5
1475
  8
240
  6
CONTINUOUS
 10
-6.5000000099999991
 20
-13.0
 30
0.0
 11
-5.1262612799999987
 21
-13.5
 31
0.0
  0
LINE
  5
147A
  8
240
  6
CONTINUOUS
 10
0.0000000055125595
 20
-13.5
 30
0.0
 11
-5.1262612799999987
 21
-13.5
 31
0.0
  0
LINE
  5
147B
  8
240
  6
CONTINUOUS
 10
51.259807620000011
 20
-10.0
 30
0.0
 11
70.0
 21
-10.0
 31
0.0
  0
LINE
  5
147C
  8
240
  6
CONTINUOUS
 10
49.0
 20
-8.1999999999999975
 30
0.0
 11
48.0
 21
-8.1999999999999975
 31
0.0
  0
LINE
  5
147D
  8
240
  6
CONTINUOUS
 10
48.0
 20
-8.1999999999999975
 30
0.0
 11
48.0
 21
-10.0
 31
0.0
  0
ARC
  5
147E
  8
240
  6
CONTINUOUS
 10
1.7051491599999991
 20
-11.0
 30
0.0
 40
1.0
 50
90.0
 51
165.00000022
  0
LINE
  5
147F
  8
240
  6
CONTINUOUS
 10
48.0
 20
-10.0
 30
0.0
 11
1.7051491599999991
 21
-10.0
 31
0.0
  0
LINE
  5
1480
  8
240
  6
CONTINUOUS
 10
0.0000000055125595
 20
-13.5
 30
0.0
 11
0.73922333
 21
-10.741180959999999
 31
0.0
  0
LINE
  5
1512
  8
240
  6
CONTINUOUS
 10
49.0
 20
-8.1999999999999975
 30
0.0
 11
49.0
 21
-10.15
 31
0.0
  0
LINE
  5
1513
  8
240
  6
CONTINUOUS
 10
51.259807620000011
 20
-10.0
 30
0.0
 11
51.0
 21
-10.15
 31
0.0
  0
LINE
  5
1514
  8
240
  6
CONTINUOUS
 10
49.0
 20
-10.15
 30
0.0
 11
51.0
 21
-10.15
 31
0.0
  0
LINE
  5
1519
  8
240
  6
CONTINUOUS
 10
-29.5
 20
8.0
 30
0.0
 11
-27.5
 21
10.0
 31
0.0
  0
LINE
  5
151C
  8
240
  6
CONTINUOUS
 10
-35.0
 20
8.0
 30
0.0
 11
-29.5
 21
8.0
 31
0.0
  0
LINE
  5
1520
  8
240
  6
CONTINUOUS
 10
-27.5
 20
10.0
 30
0.0
 11
-6.5
 21
10.0
 31
0.0
  0
LINE
  5
1534
  8
240
  6
CONTINUOUS
 10
-6.5000000099999991
 20
13.0
 30
0.0
 11
-5.1262612799999987
 21
13.5
 31
0.0
  0
LINE
  5
1535
  8
240
  6
CONTINUOUS
 10
0.0000000055125595
 20
13.5
 30
0.0
 11
-5.1262612799999987
 21
13.5
 31
0.0
  0
LINE
  5
153A
  8
243
  6
HIDDEN2
 10
50.0
 20
4.2499999999999991
 30
0.0
 11
70.0
 21
4.25
 31
0.0
  0
LINE
  5
153B
  8
240
  6
CONTINUOUS
 10
51.259807620000011
 20
10.0
 30
0.0
 11
70.0
 21
10.0
 31
0.0
  0
LINE
  5
153C
  8
240
  6
CONTINUOUS
 10
48.0
 20
8.1999999999999975
 30
0.0
 11
48.0
 21
10.0
 31
0.0
  0
LINE
  5
153D
  8
240
  6
CONTINUOUS
 10
49.0
 20
8.1999999999999975
 30
0.0
 11
49.0
 21
10.15
 31
0.0
  0
LINE
  5
1542
  8
240
  6
CONTINUOUS
 10
49.0
 20
8.1999999999999975
 30
0.0
 11
48.0
 21
8.1999999999999975
 31
0.0
  0
LINE
  5
1543
  8
242
  6
HIDDEN2
 10
50.0
 20
4.6669047600000004
 30
0.0
 11
40.0
 21
0.0
 31
0.0
  0
LINE
  5
1544
  8
242
  6
HIDDEN2
 10
40.0
 20
4.6669047600000004
 30
0.0
 11
50.0
 21
0.0
 31
0.0
  0
LINE
  5
1545
  8
243
  6
HIDDEN2
 10
40.0
 20
4.6669047600000004
 30
0.0
 11
50.0
 21
4.6669047600000004
 31
0.0
  0
LINE
  5
1553
  8
240
  6
CONTINUOUS
 10
48.0
 20
10.0
 30
0.0
 11
1.7051491599999991
 21
10.0
 31
0.0
  0
ARC
  5
1554
  8
240
  6
CONTINUOUS
 10
1.7051491599999991
 20
11.0
 30
0.0
 40
1.0
 50
194.99999977999991
 51
270.0
  0
LINE
  5
1555
  8
240
  6
CONTINUOUS
 10
0.0000000055125595
 20
13.5
 30
0.0
 11
0.73922333
 21
10.741180959999999
 31
0.0
  0
LINE
  5
1556
  8
240
  6
CONTINUOUS
 10
51.259807620000011
 20
10.0
 30
0.0
 11
51.0
 21
10.15
 31
0.0
  0
LINE
  5
1557
  8
240
  6
CONTINUOUS
 10
49.0
 20
10.15
 30
0.0
 11
51.0
 21
10.15
 31
0.0
  0
LINE
  5
1558
  8
240
  6
CONTINUOUS
 10
70.0
 20
10.0
 30
0.0
 11
70.0
 21
-10.0
 31
0.0
  0
TEXT
  5
155B
  8
250
  6
CONTINUOUS
 10
53.093278153643091
 20
22.0
 30
0.0
 40
2.799999999999998
  1
□6.5
  7
YOKO
1001
ITEMNAME
1000
LNSP3
1001
ACAD
1000
MTEXTBEGIN
1070
    73
1070
     1
1070
    44
1040
1.0
1070
    74
1070
     0
1000
MTEXTEND
1000
MTEXTBEGIN
1070
    73
1070
     1
1070
    44
1040
1.0
1070
    74
1070
     0
1000
MTEXTEND
1000
MTEXTBEGIN
1070
    73
1070
     1
1070
    44
1040
1.0
1070
    74
1070
     0
1000
MTEXTEND
1000
MTEXTBEGIN
1070
    73
1070
     1
1070
    44
1040
1.0
1070
    74
1070
     0
1000
MTEXTEND
1000
MTEXTBEGIN
1070
    73
1070
     1
1070
    44
1040
1.0
1070
    74
1070
     0
1000
MTEXTEND
  0
LINE
  5
155E
  8
250
  6
CONTINUOUS
 10
0.0
 20
14.0
 30
0.0
 11
0.0
 21
29.0
 31
0.0
  0
LINE
  5
155F
  8
250
  6
CONTINUOUS
 10
70.0
 20
10.5
 30
0.0
 11
70.0
 21
29.0
 31
0.0
  0
LINE
  5
1560
  8
250
  6
CONTINUOUS
 10
2.2299999999999991
 20
28.0
 30
0.0
 11
69.999999999999986
 21
28.0
 31
0.0
  0
LINE
  5
1564
  8
250
  6
CONTINUOUS
 10
70.5
 20
-10.0
 30
0.0
 11
88.0
 21
-10.0
 31
0.0
  0
LINE
  5
1565
  8
250
  6
CONTINUOUS
 10
70.5
 20
10.0
 30
0.0
 11
88.0
 21
10.0
 31
0.0
  0
LINE
  5
1566
  8
250
  6
CONTINUOUS
 10
87.0
 20
-7.7699999999999978
 30
0.0
 11
87.0
 21
7.7699999999999978
 31
0.0
  0
LINE
  5
156A
  8
250
  6
CONTINUOUS
 10
70.5
 20
4.25
 30
0.0
 11
81.0
 21
4.25
 31
0.0
  0
LINE
  5
156B
  8
250
  6
CONTINUOUS
 10
80.0
 20
-4.25
 30
0.0
 11
80.0
 21
2.02
 31
0.0
  0
INSERT
  5
156C
  8
250
  6
CONTINUOUS
  2
矢印なし
 10
40.0
 20
-4.25
 30
0.0
 41
2.2299999999999991
 42
2.2299999999999991
 43
2.2299999999999991
 50
270.0
  0
TEXT
  5
156F
  8
250
  6
CONTINUOUS
 10
86.0
 20
-3.9333333333333318
 30
0.0
 40
2.799999999999998
  1
\U+220520
 50
90.0
1001
ACAD
1000
MTEXTBEGIN
1070
    73
1070
     1
1070
    44
1040
1.0
1070
    74
1070
     0
1000
MTEXTEND
  0
LINE
  5
1570
  8
250
  6
CONTINUOUS
 10
86.628333333333316
 20
7.7699999999999978
 30
0.0
 11
87.0
 21
10.0
 31
0.0
  0
LINE
  5
1571
  8
250
  6
CONTINUOUS
 10
87.371666666666655
 20
7.7699999999999978
 30
0.0
 11
87.0
 21
10.0
 31
0.0
  0
LINE
  5
1572
  8
250
  6
CONTINUOUS
 10
87.0
 20
10.0
 30
0.0
 11
87.0
 21
7.7699999999999978
 31
0.0
  0
LINE
  5
1573
  8
250
  6
CONTINUOUS
 10
87.371666666666655
 20
-7.7699999999999978
 30
0.0
 11
87.0
 21
-10.0
 31
0.0
  0
LINE
  5
1574
  8
250
  6
CONTINUOUS
 10
86.628333333333316
 20
-7.7699999999999978
 30
0.0
 11
87.0
 21
-10.0
 31
0.0
  0
LINE
  5
1575
  8
250
  6
CONTINUOUS
 10
87.0
 20
-10.0
 30
0.0
 11
87.0
 21
-7.7699999999999978
 31
0.0
  0
TEXT
  5
1576
  8
250
  6
CONTINUOUS
 10
79.0
 20
-4.7476328547357589
 30
0.0
 40
2.799999999999998
  1
\U+22058.5
 50
90.0
1001
ACAD
1000
MTEXTBEGIN
1070
    73
1070
     1
1070
    44
1040
1.0
1070
    74
1070
     0
1000
MTEXTEND
  0
LINE
  5
1577
  8
250
  6
CONTINUOUS
 10
79.62833333333333
 20
2.02
 30
0.0
 11
80.0
 21
4.25
 31
0.0
  0
LINE
  5
1578
  8
250
  6
CONTINUOUS
 10
80.37166666666667
 20
2.02
 30
0.0
 11
80.0
 21
4.25
 31
0.0
  0
LINE
  5
1579
  8
250
  6
CONTINUOUS
 10
80.0
 20
4.25
 30
0.0
 11
80.0
 21
2.02
 31
0.0
  0
LINE
  5
157A
  8
250
  6
CONTINUOUS
 10
45.311734532488842
 20
6.5423934983638734
 30
0.0
 11
50.666611486976421
 21
21.0
 31
0.0
1001
ACAD
1000
DSTYLE
1002
{
1070
     6
1000
OPEN
1070
    41
1040
2.0
1070
    42
1040
2.0
1070
    44
1040
2.0
1070
   140
1040
4.0
1070
   343
1005
594
1002
}
  0
TEXT
  5
157B
  8
250
  6
CONTINUOUS
 10
32.925251674265958
 20
29.0
 30
0.0
 40
2.799999999999998
  1
70
1001
ACAD
1000
MTEXTBEGIN
1070
    73
1070
     1
1070
    44
1040
1.0
1070
    74
1070
     0
1000
MTEXTEND
  0
LINE
  5
157C
  8
250
  6
CONTINUOUS
 10
67.769999999999996
 20
28.371666666666659
 30
0.0
 11
70.0
 21
28.0
 31
0.0
  0
LINE
  5
157D
  8
250
  6
CONTINUOUS
 10
67.769999999999996
 20
27.62833333333333
 30
0.0
 11
70.0
 21
28.0
 31
0.0
  0
LINE
  5
157E
  8
250
  6
CONTINUOUS
 10
70.0
 20
28.0
 30
0.0
 11
67.769999999999996
 21
28.0
 31
0.0
  0
LINE
  5
157F
  8
250
  6
CONTINUOUS
 10
2.2299999999999991
 20
27.62833333333333
 30
0.0
 11
0.0
 21
28.0
 31
0.0
  0
LINE
  5
1580
  8
250
  6
CONTINUOUS
 10
2.2299999999999991
 20
28.371666666666659
 30
0.0
 11
0.0
 21
28.0
 31
0.0
  0
LINE
  5
1581
  8
250
  6
CONTINUOUS
 10
0.0
 20
28.0
 30
0.0
 11
2.2299999999999991
 21
28.0
 31
0.0
  0
LINE
  5
1582
  8
250
  6
CONTINUOUS
 10
45.62431598888282
 20
6.4266180941118014
 30
0.0
 11
44.617082106976412
 21
4.6669047600000004
 31
0.0
  0
LINE
  5
1583
  8
250
  6
CONTINUOUS
 10
44.999153076094863
 20
6.658168902615941
 30
0.0
 11
44.617082106976412
 21
4.6669047600000004
 31
0.0
  0
LINE
  5
1584
  8
250
  6
CONTINUOUS
 10
44.617082106976412
 20
4.6669047600000004
 30
0.0
 11
45.311734532488842
 21
6.5423934983638707
 31
0.0
  0
LINE
  5
158C
  8
240
  6
CONTINUOUS
 10
-6.5
 20
10.0
 30
0.0
 11
-6.5000000099999991
 21
13.0
 31
0.0
  0
LINE
  5
158D
  8
240
  6
CONTINUOUS
 10
-6.5
 20
-10.0
 30
0.0
 11
-6.5
 21
-13.0
 31
0.0
  0
LINE
  5
1594
  8
250
  6
CONTINUOUS
 10
70.5
 20
-4.25
 30
0.0
 11
81.0
 21
-4.25
 31
0.0
  0
LINE
  5
1595
  8
250
  6
CONTINUOUS
 10
79.62833333333333
 20
-2.02
 30
0.0
 11
80.0
 21
-4.25
 31
0.0
  0
LINE
  5
1596
  8
250
  6
CONTINUOUS
 10
80.37166666666667
 20
-2.02
 30
0.0
 11
80.0
 21
-4.25
 31
0.0
  0
LINE
  5
1597
  8
243
  6
HIDDEN2
 10
50.0
 20
-4.2499999999999991
 30
0.0
 11
70.0
 21
-4.25
 31
0.0
  0
LINE
  5
1598
  8
242
  6
HIDDEN2
 10
50.0
 20
-4.6669047600000004
 30
0.0
 11
40.0
 21
0.0
 31
0.0
  0
LINE
  5
1599
  8
242
  6
HIDDEN2
 10
40.0
 20
-4.6669047600000004
 30
0.0
 11
50.0
 21
0.0
 31
0.0
  0
LINE
  5
159A
  8
243
  6
HIDDEN2
 10
40.0
 20
-4.6669047600000004
 30
0.0
 11
50.0
 21
-4.6669047600000004
 31
0.0
  0
LINE
  5
159B
  8
243
  6
HIDDEN2
 10
40.0
 20
-4.6669047600000004
 30
0.0
 11
40.0
 21
4.6669047600000004
 31
0.0
  0
LINE
  5
159D
  8
243
  6
HIDDEN2
 10
50.0
 20
-4.6669047600000004
 30
0.0
 11
50.0
 21
4.6669047600000013
 31
0.0
  0
LINE
  5
163F
  8
247
  6
CONTINUOUS
 10
3.7378221699999821
 20
-7.75
 30
0.0
 11
3.73782217000001
 21
-4.9692307694020306
 31
0.0
  0
LINE
  5
1640
  8
247
  6
CONTINUOUS
 10
2.23782217000001
 20
-7.2729360999927612
 30
0.0
 11
3.4978221699496101
 21
-7.634235286034424
 31
0.0
  0
LINE
  5
1641
  8
247
  6
CONTINUOUS
 10
2.8355144776684198
 20
-6.8950908421114141
 30
0.0
 11
2.8355144776684198
 21
-7.444321611320218
 31
0.0
  0
ARC
  5
1642
  8
247
  6
CONTINUOUS
 10
2.4686536103764869
 20
-6.7523580411680921
 30
0.0
 40
0.2326029485596046
 50
72.997889675291987
 51
172.92416621851211
  0
ARC
  5
1643
  8
247
  6
CONTINUOUS
 10
2.420956048616826
 20
-6.9294865340824572
 30
0.0
 40
0.4159828779215262
 50
4.7429368522005921
 51
73.849226273266453
1001
GENIUS_GENOBJ-N-FIL_13
1002
{
1000
OWNER
1000
GEN
1002
}
1001
GENIUS_GENODEF_13
1002
{
1000
HIER
1070
     0
1002
}
1002
{
1000
MANEDIT
1070
     0
1002
}
1002
{
1000
NOSEL
1070
     0
1002
}
1002
{
1000
BEHIND
1070
     0
1002
}
1002
{
1000
OTHER
1070
     0
1002
}
1002
{
1000
REACTOR
1002
}
  0
LINE
  5
1644
  8
247
  6
CONTINUOUS
 10
3.4978221699496101
 20
-7.0850045168256202
 30
0.0
 11
3.4978221699496101
 21
-7.634235286034424
 31
0.0
  0
LINE
  5
1645
  8
247
  6
CONTINUOUS
 10
2.23782217000001
 20
-7.2729360999927612
 30
0.0
 11
2.23782217000001
 21
-6.7237053307839556
 31
0.0
  0
ARC
  5
1646
  8
247
  6
CONTINUOUS
 10
3.0702723476607279
 20
-6.9269838857600803
 30
0.0
 40
0.2369143806452316
 50
65.990941652528804
 51
172.26344345906921
  0
ARC
  5
1647
  8
247
  6
CONTINUOUS
 10
3.0725423663995701
 20
-7.1274679662561748
 30
0.0
 40
0.4273944967417013
 50
5.7019851642579731
 51
77.27733843682222
1001
GENIUS_GENOBJ-N-FIL_13
1002
{
1000
OWNER
1000
GEN
1002
}
1001
GENIUS_GENODEF_13
1002
{
1000
HIER
1070
     0
1002
}
1002
{
1000
MANEDIT
1070
     0
1002
}
1002
{
1000
NOSEL
1070
     0
1002
}
1002
{
1000
BEHIND
1070
     0
1002
}
1002
{
1000
OTHER
1070
     0
1002
}
1002
{
1000
REACTOR
1002
}
  0
LINE
  5
1648
  8
247
  6
CONTINUOUS
 10
3.4978221699496101
 20
-6.5103891322380019
 30
0.0
 11
2.23782217000001
 21
-6.1490899461963959
 31
0.0
  0
LINE
  5
1649
  8
247
  6
CONTINUOUS
 10
2.23782217000001
 20
-5.2513976385447716
 30
0.0
 11
2.23782217000001
 21
-5.4890070185821269
 31
0.0
  0
LINE
  5
164A
  8
247
  6
CONTINUOUS
 10
3.4978221699496101
 20
-5.8652437923663561
 30
0.0
 11
3.4978221699496101
 21
-5.606782253915183
 31
0.0
  0
ARC
  5
164B
  8
247
  6
CONTINUOUS
 10
3.1128019270500391
 20
-5.1290899462420043
 30
0.0
 40
0.9461130345837279
 50
202.35948814152789
 51
254.99324854284609
  0
ARC
  5
164C
  8
247
  6
CONTINUOUS
 10
2.57731348512291
 20
-5.4085068196799284
 30
0.0
 40
0.3740824078205668
 50
94.994589319075374
 51
155.16632895730379
1001
GENIUS_GENOBJ-N-FIL_13
1002
{
1000
OWNER
1000
GEN
1002
}
1001
GENIUS_GENODEF_13
1002
{
1000
HIER
1070
     0
1002
}
1002
{
1000
MANEDIT
1070
     0
1002
}
1002
{
1000
NOSEL
1070
     0
1002
}
1002
{
1000
BEHIND
1070
     0
1002
}
1002
{
1000
OTHER
1070
     0
1002
}
1002
{
1000
REACTOR
1002
}
  0
ARC
  5
164D
  8
247
  6
CONTINUOUS
 10
2.935083443181691
 20
-5.766510370619641
 30
0.0
 40
0.5849683289464192
 50
15.84609655578096
 51
82.325137004169122
  0
ARC
  5
164E
  8
247
  6
CONTINUOUS
 10
3.06070441118265
 20
-5.5211269832633443
 30
0.0
 40
0.5563167383215207
 50
249.71360167049701
 51
321.7887456564095
1001
GENIUS_GENOBJ-N-FIL_13
1002
{
1000
OWNER
1000
GEN
1002
}
1001
GENIUS_GENODEF_13
1002
{
1000
HIER
1070
     0
1002
}
1002
{
1000
MANEDIT
1070
     0
1002
}
1002
{
1000
NOSEL
1070
     0
1002
}
1002
{
1000
BEHIND
1070
     0
1002
}
1002
{
1000
OTHER
1070
     0
1002
}
1002
{
1000
REACTOR
1002
}
  0
LINE
  5
164F
  8
247
  6
CONTINUOUS
 10
3.0132067853536122
 20
-5.4775514846895694
 30
0.0
 11
3.0132067853536122
 21
-5.1867822539319928
 31
0.0
  0
ARC
  5
1650
  8
247
  6
CONTINUOUS
 10
2.98782217000001
 20
-7.75
 30
0.0
 40
0.75
 50
180.0
 51
0.0
  0
LINE
  5
1651
  8
247
  6
CONTINUOUS
 10
2.23782217000001
 20
-7.75
 30
0.0
 11
2.23782217000001
 21
-7.4823076923483978
 31
0.0
  0
ARC
  5
1652
  8
247
  6
CONTINUOUS
 10
2.98782217000001
 20
-4.969230769402003
 30
0.0
 40
0.75
 50
0.0
 51
180.0
  0
VIEWPORT
  5
22
 67
     1
  8
0
 10
261.51769911999997
 20
148.5
 30
0.0
 40
523.03539823000006
 41
297.0
 68
     1
 69
     1
1001
ACAD
1000
MVIEW
1002
{
1070
    16
1010
0.0
1020
0.0
1030
0.0
1010
0.0
1020
0.0
1030
1.0
1040
0.0
1040
297.0
1040
261.51769911999997
1040
148.5
1040
50.0
1040
0.0
1040
0.0
1070
     0
1070
   100
1070
     1
1070
     1
1070
     0
1070
     0
1070
     0
1070
     0
1040
0.0
1040
0.0
1040
0.0
1040
1.0
1040
1.0
1040
10.0
1040
10.0
1070
     0
1002
{
1002
}
1002
}
1001
GENIUS_GENOBJ-N-SDF_13
1002
{
1000
OWNER
1000
GEN
1002
}
1001
GENIUS_GENODEF_13
1002
{
1000
HIER
1070
     0
1002
}
1002
{
1000
MANEDIT
1070
     0
1002
}
1002
{
1000
NOSEL
1070
     0
1002
}
1002
{
1000
BEHIND
1070
     0
1002
}
1002
{
1000
OTHER
1070
     0
1002
}
1002
{
1000
REACTOR
1002
}
1001
GENIUS_GENSCREG_15
1000
PF
1040
1.0
1000
DF
1040
1.0
1000
MIN
1011
0.0000000049999471
1021
0.0
1031
0.0
1021
0.0
1031
0.0
1000
MAX
1011
523.035398235
1021
0.0
1031
0.0
1021
297.0
1031
0.0
1000
FLAGS
1070
     4
  0
ENDSEC
  0
EOF
