ISO-10303-21;
HEADER;
FILE_DESCRIPTION((''),'1');
FILE_NAME('T:/02_3D_Field-HP\X2\FF71FF6FFF8CFF9F5916\X0\2013/02_Step_Field-HP\X2\FF71FF6FFF8CFF9F5916\X0\2013/MGT12-d-70_M6-12.stp','2017-02-08T06:06:36',(''),(''),'Spatial Interop R21 SP3','Kubotek KeyCreator 2011 V10.0.2 (22737)',' ');
FILE_SCHEMA(('automotive_design'));
ENDSEC;
DATA;
#1=MECHANICAL_DESIGN_GEOMETRIC_PRESENTATION_REPRESENTATION(' ',(#10,#11,#12,#13,#14,#15,#16,#17,#18,#19,#20,#21,#22,#23,#24,#25,#26,#27,#28,#29,#30,#31,#32,#33,#34,#35,#36,#37),#6);
#2=PRODUCT_DEFINITION_CONTEXT('',#38,'design');
#3=APPLICATION_PROTOCOL_DEFINITION('INTERNATIONAL STANDARD','automotive_design',1994,#38);
#4=PRODUCT_CATEGORY_RELATIONSHIP('NONE','NONE',#39,#40);
#5=SHAPE_DEFINITION_REPRESENTATION(#41,#42);
#6= (GEOMETRIC_REPRESENTATION_CONTEXT(3)GLOBAL_UNCERTAINTY_ASSIGNED_CONTEXT((#45))GLOBAL_UNIT_ASSIGNED_CONTEXT((#47,#48,#49))REPRESENTATION_CONTEXT('NONE','WORKSPACE'));
#10=STYLED_ITEM('',(#51),#52);
#11=STYLED_ITEM('',(#53),#54);
#12=STYLED_ITEM('',(#55),#56);
#13=STYLED_ITEM('',(#57,#58),#59);
#14=STYLED_ITEM('',(#60,#61),#62);
#15=STYLED_ITEM('',(#63),#64);
#16=STYLED_ITEM('',(#65,#66),#67);
#17=STYLED_ITEM('',(#68,#69),#70);
#18=STYLED_ITEM('',(#71,#72),#73);
#19=STYLED_ITEM('',(#74),#75);
#20=STYLED_ITEM('',(#76,#77),#78);
#21=STYLED_ITEM('',(#79,#80),#81);
#22=STYLED_ITEM('',(#82),#83);
#23=STYLED_ITEM('',(#84,#85),#86);
#24=STYLED_ITEM('',(#87),#88);
#25=STYLED_ITEM('',(#89),#90);
#26=STYLED_ITEM('',(#91,#92),#93);
#27=STYLED_ITEM('',(#94,#95),#96);
#28=STYLED_ITEM('',(#97),#98);
#29=STYLED_ITEM('',(#99,#100),#101);
#30=STYLED_ITEM('',(#102),#103);
#31=STYLED_ITEM('',(#104,#105),#106);
#32=STYLED_ITEM('',(#107,#108),#109);
#33=STYLED_ITEM('',(#110),#111);
#34=STYLED_ITEM('',(#112),#113);
#35=STYLED_ITEM('',(#114),#115);
#36=STYLED_ITEM('',(#116,#117),#118);
#37=STYLED_ITEM('',(#119,#120),#121);
#38=APPLICATION_CONTEXT(' ');
#39=PRODUCT_CATEGORY('part','NONE');
#40=PRODUCT_RELATED_PRODUCT_CATEGORY('detail',' ',(#122));
#41=PRODUCT_DEFINITION_SHAPE('NONE','NONE',#123);
#42=ADVANCED_BREP_SHAPE_REPRESENTATION('240[2]',(#106,#124),#6);
#45=UNCERTAINTY_MEASURE_WITH_UNIT(LENGTH_MEASURE(1.0E-006),#47,'','');
#47= (CONVERSION_BASED_UNIT('MILLIMETRE',#127)LENGTH_UNIT()NAMED_UNIT(#130));
#48= (NAMED_UNIT(#132)PLANE_ANGLE_UNIT()SI_UNIT($,.RADIAN.));
#49= (NAMED_UNIT(#132)SOLID_ANGLE_UNIT()SI_UNIT($,.STERADIAN.));
#51=PRESENTATION_STYLE_ASSIGNMENT((#138));
#52=EDGE_CURVE('240[2]',#139,#139,#140,.T.);
#53=PRESENTATION_STYLE_ASSIGNMENT((#141));
#54=EDGE_CURVE('240[2]',#142,#142,#143,.T.);
#55=PRESENTATION_STYLE_ASSIGNMENT((#144));
#56=EDGE_CURVE('240[2]',#145,#145,#146,.T.);
#57=PRESENTATION_STYLE_ASSIGNMENT((#147));
#58=PRESENTATION_STYLE_ASSIGNMENT((#148));
#59=ADVANCED_FACE('240[2]',(#149,#150),#151,.T.);
#60=PRESENTATION_STYLE_ASSIGNMENT((#152));
#61=PRESENTATION_STYLE_ASSIGNMENT((#153));
#62=ADVANCED_FACE('240[2]',(#154,#155),#156,.T.);
#63=PRESENTATION_STYLE_ASSIGNMENT((#157));
#64=EDGE_CURVE('240[2]',#158,#158,#159,.T.);
#65=PRESENTATION_STYLE_ASSIGNMENT((#160));
#66=PRESENTATION_STYLE_ASSIGNMENT((#161));
#67=ADVANCED_FACE('240[2]',(#162,#163),#164,.T.);
#68=PRESENTATION_STYLE_ASSIGNMENT((#165));
#69=PRESENTATION_STYLE_ASSIGNMENT((#166));
#70=ADVANCED_FACE('240[2]',(#167,#168),#169,.T.);
#71=PRESENTATION_STYLE_ASSIGNMENT((#170));
#72=PRESENTATION_STYLE_ASSIGNMENT((#171));
#73=ADVANCED_FACE('240[2]',(#172),#173,.T.);
#74=PRESENTATION_STYLE_ASSIGNMENT((#174));
#75=EDGE_CURVE('240[2]',#175,#175,#176,.T.);
#76=PRESENTATION_STYLE_ASSIGNMENT((#177));
#77=PRESENTATION_STYLE_ASSIGNMENT((#178));
#78=ADVANCED_FACE('240[2]',(#179,#180),#181,.T.);
#79=PRESENTATION_STYLE_ASSIGNMENT((#182));
#80=PRESENTATION_STYLE_ASSIGNMENT((#183));
#81=ADVANCED_FACE('240[2]',(#184,#185),#186,.T.);
#82=PRESENTATION_STYLE_ASSIGNMENT((#187));
#83=EDGE_CURVE('240[2]',#188,#188,#189,.T.);
#84=PRESENTATION_STYLE_ASSIGNMENT((#190));
#85=PRESENTATION_STYLE_ASSIGNMENT((#191));
#86=ADVANCED_FACE('240[2]',(#192,#193),#194,.T.);
#87=PRESENTATION_STYLE_ASSIGNMENT((#195));
#88=EDGE_CURVE('240[2]',#196,#196,#197,.T.);
#89=PRESENTATION_STYLE_ASSIGNMENT((#198));
#90=EDGE_CURVE('240[2]',#199,#199,#200,.T.);
#91=PRESENTATION_STYLE_ASSIGNMENT((#201));
#92=PRESENTATION_STYLE_ASSIGNMENT((#202));
#93=ADVANCED_FACE('240[2]',(#203,#204),#205,.T.);
#94=PRESENTATION_STYLE_ASSIGNMENT((#206));
#95=PRESENTATION_STYLE_ASSIGNMENT((#207));
#96=ADVANCED_FACE('240[2]',(#208,#209),#210,.T.);
#97=PRESENTATION_STYLE_ASSIGNMENT((#211));
#98=EDGE_CURVE('240[2]',#212,#212,#213,.T.);
#99=PRESENTATION_STYLE_ASSIGNMENT((#214));
#100=PRESENTATION_STYLE_ASSIGNMENT((#215));
#101=ADVANCED_FACE('240[2]',(#216,#217),#218,.T.);
#102=PRESENTATION_STYLE_ASSIGNMENT((#219));
#103=EDGE_CURVE('240[2]',#220,#220,#221,.T.);
#104=PRESENTATION_STYLE_ASSIGNMENT((#222));
#105=PRESENTATION_STYLE_ASSIGNMENT((#223));
#106=MANIFOLD_SOLID_BREP('240[2]',#224);
#107=PRESENTATION_STYLE_ASSIGNMENT((#225));
#108=PRESENTATION_STYLE_ASSIGNMENT((#226));
#109=ADVANCED_FACE('240[2]',(#227,#228),#229,.T.);
#110=PRESENTATION_STYLE_ASSIGNMENT((#230));
#111=EDGE_CURVE('240[2]',#231,#231,#232,.T.);
#112=PRESENTATION_STYLE_ASSIGNMENT((#233));
#113=EDGE_CURVE('240[2]',#234,#234,#235,.T.);
#114=PRESENTATION_STYLE_ASSIGNMENT((#236));
#115=EDGE_CURVE('240[2]',#237,#237,#238,.T.);
#116=PRESENTATION_STYLE_ASSIGNMENT((#239));
#117=PRESENTATION_STYLE_ASSIGNMENT((#240));
#118=ADVANCED_FACE('240[2]',(#241,#242),#243,.T.);
#119=PRESENTATION_STYLE_ASSIGNMENT((#244));
#120=PRESENTATION_STYLE_ASSIGNMENT((#245));
#121=ADVANCED_FACE('240[2]',(#246),#247,.T.);
#122=PRODUCT('240[2]','240[2]','PART-240[2]-DESC',(#248));
#123=PRODUCT_DEFINITION('NONE','NONE',#249,#2);
#124=AXIS2_PLACEMENT_3D('',#250,#251,#252);
#127=LENGTH_MEASURE_WITH_UNIT(LENGTH_MEASURE(1.0),#253);
#130=DIMENSIONAL_EXPONENTS(1.0,0.0,0.0,0.0,0.0,0.0,0.0);
#132=DIMENSIONAL_EXPONENTS(0.0,0.0,0.0,0.0,0.0,0.0,0.0);
#138=CURVE_STYLE('',#254,POSITIVE_LENGTH_MEASURE(1000.0),#255);
#139=VERTEX_POINT('',#256);
#140=CIRCLE('',#257,10.0);
#141=CURVE_STYLE('',#258,POSITIVE_LENGTH_MEASURE(1000.0),#259);
#142=VERTEX_POINT('',#260);
#143=CIRCLE('',#261,10.0);
#144=CURVE_STYLE('',#262,POSITIVE_LENGTH_MEASURE(1000.0),#263);
#145=VERTEX_POINT('',#264);
#146=CIRCLE('',#265,13.0000000000004);
#147=SURFACE_STYLE_USAGE(.BOTH.,#266);
#148=CURVE_STYLE('',#267,POSITIVE_LENGTH_MEASURE(1000.0),#268);
#149=FACE_BOUND('',#269,.T.);
#150=FACE_BOUND('',#270,.T.);
#151=CYLINDRICAL_SURFACE('',#271,10.0);
#152=SURFACE_STYLE_USAGE(.BOTH.,#272);
#153=CURVE_STYLE('',#273,POSITIVE_LENGTH_MEASURE(1000.0),#274);
#154=FACE_BOUND('',#275,.T.);
#155=FACE_BOUND('',#276,.T.);
#156=CYLINDRICAL_SURFACE('',#277,10.0);
#157=CURVE_STYLE('',#278,POSITIVE_LENGTH_MEASURE(1000.0),#279);
#158=VERTEX_POINT('',#280);
#159=CIRCLE('',#281,9.99999999999327);
#160=SURFACE_STYLE_USAGE(.BOTH.,#282);
#161=CURVE_STYLE('',#283,POSITIVE_LENGTH_MEASURE(1000.0),#284);
#162=FACE_OUTER_BOUND('',#285,.T.);
#163=FACE_BOUND('',#286,.T.);
#164=PLANE('',#287);
#165=SURFACE_STYLE_USAGE(.BOTH.,#288);
#166=CURVE_STYLE('',#289,POSITIVE_LENGTH_MEASURE(1000.0),#290);
#167=FACE_OUTER_BOUND('',#291,.T.);
#168=FACE_BOUND('',#292,.T.);
#169=PLANE('',#293);
#170=SURFACE_STYLE_USAGE(.BOTH.,#294);
#171=CURVE_STYLE('',#295,POSITIVE_LENGTH_MEASURE(1000.0),#296);
#172=FACE_OUTER_BOUND('',#297,.T.);
#173=PLANE('',#298);
#174=CURVE_STYLE('',#299,POSITIVE_LENGTH_MEASURE(1000.0),#300);
#175=VERTEX_POINT('',#301);
#176=CIRCLE('',#302,10.0);
#177=SURFACE_STYLE_USAGE(.BOTH.,#303);
#178=CURVE_STYLE('',#304,POSITIVE_LENGTH_MEASURE(1000.0),#305);
#179=FACE_BOUND('',#306,.T.);
#180=FACE_BOUND('',#307,.T.);
#181=CONICAL_SURFACE('',#308,13.2500000000018,0.349065850398916);
#182=SURFACE_STYLE_USAGE(.BOTH.,#309);
#183=CURVE_STYLE('',#310,POSITIVE_LENGTH_MEASURE(1000.0),#311);
#184=FACE_BOUND('',#312,.T.);
#185=FACE_BOUND('',#313,.T.);
#186=CYLINDRICAL_SURFACE('',#314,10.1499999999996);
#187=CURVE_STYLE('',#315,POSITIVE_LENGTH_MEASURE(1000.0),#316);
#188=VERTEX_POINT('',#317);
#189=CIRCLE('',#318,13.4999999999991);
#190=SURFACE_STYLE_USAGE(.BOTH.,#319);
#191=CURVE_STYLE('',#320,POSITIVE_LENGTH_MEASURE(1000.0),#321);
#192=FACE_BOUND('',#322,.T.);
#193=FACE_BOUND('',#323,.T.);
#194=CYLINDRICAL_SURFACE('',#324,8.20000000000073);
#195=CURVE_STYLE('',#325,POSITIVE_LENGTH_MEASURE(1000.0),#326);
#196=VERTEX_POINT('',#327);
#197=CIRCLE('',#328,10.1499999999996);
#198=CURVE_STYLE('',#329,POSITIVE_LENGTH_MEASURE(1000.0),#330);
#199=VERTEX_POINT('',#331);
#200=CIRCLE('',#332,10.1499999999996);
#201=SURFACE_STYLE_USAGE(.BOTH.,#333);
#202=CURVE_STYLE('',#334,POSITIVE_LENGTH_MEASURE(1000.0),#335);
#203=FACE_BOUND('',#336,.T.);
#204=FACE_BOUND('',#337,.T.);
#205=CYLINDRICAL_SURFACE('',#338,13.5000000000011);
#206=SURFACE_STYLE_USAGE(.BOTH.,#339);
#207=CURVE_STYLE('',#340,POSITIVE_LENGTH_MEASURE(1000.0),#341);
#208=FACE_BOUND('',#342,.T.);
#209=FACE_BOUND('',#343,.T.);
#210=CYLINDRICAL_SURFACE('',#344,9.99999999999724);
#211=CURVE_STYLE('',#345,POSITIVE_LENGTH_MEASURE(1000.0),#346);
#212=VERTEX_POINT('',#347);
#213=CIRCLE('',#348,8.20000000000073);
#214=SURFACE_STYLE_USAGE(.BOTH.,#349);
#215=CURVE_STYLE('',#350,POSITIVE_LENGTH_MEASURE(1000.0),#351);
#216=FACE_BOUND('',#352,.T.);
#217=FACE_BOUND('',#353,.T.);
#218=CONICAL_SURFACE('',#354,11.7499999999995,1.3089969389957);
#219=CURVE_STYLE('',#355,POSITIVE_LENGTH_MEASURE(1000.0),#356);
#220=VERTEX_POINT('',#357);
#221=CIRCLE('',#358,10.0000000000012);
#222=SURFACE_STYLE_USAGE(.BOTH.,#359);
#223=CURVE_STYLE('',#360,POSITIVE_LENGTH_MEASURE(1000.0),#361);
#224=CLOSED_SHELL('',(#67,#78,#93,#101,#59,#118,#86,#70,#81,#109,#62,#73,#121,#96));
#225=SURFACE_STYLE_USAGE(.BOTH.,#362);
#226=CURVE_STYLE('',#363,POSITIVE_LENGTH_MEASURE(1000.0),#364);
#227=FACE_BOUND('',#365,.T.);
#228=FACE_BOUND('',#366,.T.);
#229=CONICAL_SURFACE('',#367,10.0749999999998,0.12435499454636);
#230=CURVE_STYLE('',#368,POSITIVE_LENGTH_MEASURE(1000.0),#369);
#231=VERTEX_POINT('',#370);
#232=CIRCLE('',#371,13.5000000000031);
#233=CURVE_STYLE('',#372,POSITIVE_LENGTH_MEASURE(1000.0),#373);
#234=VERTEX_POINT('',#374);
#235=CIRCLE('',#375,10.0);
#236=CURVE_STYLE('',#376,POSITIVE_LENGTH_MEASURE(1000.0),#377);
#237=VERTEX_POINT('',#378);
#238=CIRCLE('',#379,8.20000000000073);
#239=SURFACE_STYLE_USAGE(.BOTH.,#380);
#240=CURVE_STYLE('',#381,POSITIVE_LENGTH_MEASURE(1000.0),#382);
#241=FACE_OUTER_BOUND('',#383,.T.);
#242=FACE_BOUND('',#384,.T.);
#243=PLANE('',#385);
#244=SURFACE_STYLE_USAGE(.BOTH.,#386);
#245=CURVE_STYLE('',#387,POSITIVE_LENGTH_MEASURE(1000.0),#388);
#246=FACE_OUTER_BOUND('',#389,.T.);
#247=PLANE('',#390);
#248=PRODUCT_CONTEXT('',#38,'mechanical');
#249=PRODUCT_DEFINITION_FORMATION_WITH_SPECIFIED_SOURCE(' ','NONE',#122,.NOT_KNOWN.);
#250=CARTESIAN_POINT('',(0.0,0.0,0.0));
#251=DIRECTION('',(0.0,0.0,1.0));
#252=DIRECTION('',(1.0,0.0,0.0));
#253= (NAMED_UNIT(#130)LENGTH_UNIT()SI_UNIT(.MILLI.,.METRE.));
#254=DRAUGHTING_PRE_DEFINED_CURVE_FONT('continuous');
#255=COLOUR_RGB('',0.0,1.0,1.0);
#256=CARTESIAN_POINT('',(-4.22883875086729E-015,9.99999999999999,69.0621778264815));
#257=AXIS2_PLACEMENT_3D('',#392,#393,#394);
#258=DRAUGHTING_PRE_DEFINED_CURVE_FONT('continuous');
#259=COLOUR_RGB('',0.0,1.0,1.0);
#260=CARTESIAN_POINT('',(-1.08993565124109E-015,10.0,17.799999999999));
#261=AXIS2_PLACEMENT_3D('',#395,#396,#397);
#262=DRAUGHTING_PRE_DEFINED_CURVE_FONT('continuous');
#263=COLOUR_RGB('',0.0,1.0,1.0);
#264=CARTESIAN_POINT('',(-4.68427400673846E-015,13.0000000000004,76.4999999999974));
#265=AXIS2_PLACEMENT_3D('',#398,#399,#400);
#266=SURFACE_SIDE_STYLE('',(#401));
#267=DRAUGHTING_PRE_DEFINED_CURVE_FONT('continuous');
#268=COLOUR_RGB('',0.0,1.0,1.0);
#269=EDGE_LOOP('',(#402));
#270=EDGE_LOOP('',(#403));
#271=AXIS2_PLACEMENT_3D('',#404,#405,#406);
#272=SURFACE_SIDE_STYLE('',(#407));
#273=DRAUGHTING_PRE_DEFINED_CURVE_FONT('continuous');
#274=COLOUR_RGB('',0.0,1.0,1.0);
#275=EDGE_LOOP('',(#408));
#276=EDGE_LOOP('',(#409));
#277=AXIS2_PLACEMENT_3D('',#410,#411,#412);
#278=DRAUGHTING_PRE_DEFINED_CURVE_FONT('continuous');
#279=COLOUR_RGB('',0.0,1.0,1.0);
#280=CARTESIAN_POINT('',(-4.92920336656803E-015,9.99999999999326,76.4999999999974));
#281=AXIS2_PLACEMENT_3D('',#413,#414,#415);
#282=SURFACE_SIDE_STYLE('',(#416));
#283=DRAUGHTING_PRE_DEFINED_CURVE_FONT('continuous');
#284=COLOUR_RGB('',0.0,1.0,1.0);
#285=EDGE_LOOP('',(#417));
#286=EDGE_LOOP('',(#418));
#287=AXIS2_PLACEMENT_3D('',#419,#420,#421);
#288=SURFACE_SIDE_STYLE('',(#422));
#289=DRAUGHTING_PRE_DEFINED_CURVE_FONT('continuous');
#290=COLOUR_RGB('',0.0,1.0,1.0);
#291=EDGE_LOOP('',(#423));
#292=EDGE_LOOP('',(#424));
#293=AXIS2_PLACEMENT_3D('',#425,#426,#427);
#294=SURFACE_SIDE_STYLE('',(#428));
#295=DRAUGHTING_PRE_DEFINED_CURVE_FONT('continuous');
#296=COLOUR_RGB('',0.0,1.0,1.0);
#297=EDGE_LOOP('',(#429));
#298=AXIS2_PLACEMENT_3D('',#430,#431,#432);
#299=DRAUGHTING_PRE_DEFINED_CURVE_FONT('continuous');
#300=COLOUR_RGB('',0.0,1.0,1.0);
#301=CARTESIAN_POINT('',(1.23440012438413E-028,10.0,-2.01671672275954E-012));
#302=AXIS2_PLACEMENT_3D('',#433,#434,#435);
#303=SURFACE_SIDE_STYLE('',(#436));
#304=DRAUGHTING_PRE_DEFINED_CURVE_FONT('continuous');
#305=COLOUR_RGB('',0.0,1.0,1.0);
#306=EDGE_LOOP('',(#437));
#307=EDGE_LOOP('',(#438));
#308=AXIS2_PLACEMENT_3D('',#439,#440,#441);
#309=SURFACE_SIDE_STYLE('',(#442));
#310=DRAUGHTING_PRE_DEFINED_CURVE_FONT('continuous');
#311=COLOUR_RGB('',0.0,1.0,1.0);
#312=EDGE_LOOP('',(#443));
#313=EDGE_LOOP('',(#444));
#314=AXIS2_PLACEMENT_3D('',#445,#446,#447);
#315=DRAUGHTING_PRE_DEFINED_CURVE_FONT('continuous');
#316=COLOUR_RGB('',0.0,1.0,1.0);
#317=CARTESIAN_POINT('',(-4.28626379701515E-015,13.499999999999,69.9999999999904));
#318=AXIS2_PLACEMENT_3D('',#448,#449,#450);
#319=SURFACE_SIDE_STYLE('',(#451));
#320=DRAUGHTING_PRE_DEFINED_CURVE_FONT('continuous');
#321=COLOUR_RGB('',0.0,1.0,1.0);
#322=EDGE_LOOP('',(#452));
#323=EDGE_LOOP('',(#453));
#324=AXIS2_PLACEMENT_3D('',#454,#455,#456);
#325=DRAUGHTING_PRE_DEFINED_CURVE_FONT('continuous');
#326=COLOUR_RGB('',0.0,1.0,1.0);
#327=CARTESIAN_POINT('',(-1.16341445918999E-015,10.1499999999996,19.0));
#328=AXIS2_PLACEMENT_3D('',#457,#458,#459);
#329=DRAUGHTING_PRE_DEFINED_CURVE_FONT('continuous');
#330=COLOUR_RGB('',0.0,1.0,1.0);
#331=CARTESIAN_POINT('',(-1.28587913910472E-015,10.1499999999996,21.0));
#332=AXIS2_PLACEMENT_3D('',#460,#461,#462);
#333=SURFACE_SIDE_STYLE('',(#463));
#334=DRAUGHTING_PRE_DEFINED_CURVE_FONT('continuous');
#335=COLOUR_RGB('',0.0,1.0,1.0);
#336=EDGE_LOOP('',(#464));
#337=EDGE_LOOP('',(#465));
#338=AXIS2_PLACEMENT_3D('',#466,#467,#468);
#339=SURFACE_SIDE_STYLE('',(#469));
#340=DRAUGHTING_PRE_DEFINED_CURVE_FONT('continuous');
#341=COLOUR_RGB('',0.0,1.0,1.0);
#342=EDGE_LOOP('',(#470));
#343=EDGE_LOOP('',(#471));
#344=AXIS2_PLACEMENT_3D('',#472,#473,#474);
#345=DRAUGHTING_PRE_DEFINED_CURVE_FONT('continuous');
#346=COLOUR_RGB('',0.0,1.0,1.0);
#347=CARTESIAN_POINT('',(-1.3471114790625E-015,8.20000000000072,22.0000000000067));
#348=AXIS2_PLACEMENT_3D('',#475,#476,#477);
#349=SURFACE_SIDE_STYLE('',(#478));
#350=DRAUGHTING_PRE_DEFINED_CURVE_FONT('continuous');
#351=COLOUR_RGB('',0.0,1.0,1.0);
#352=EDGE_LOOP('',(#479));
#353=EDGE_LOOP('',(#480));
#354=AXIS2_PLACEMENT_3D('',#481,#482,#483);
#355=DRAUGHTING_PRE_DEFINED_CURVE_FONT('continuous');
#356=COLOUR_RGB('',0.0,1.0,1.0);
#357=CARTESIAN_POINT('',(-7.40911313484143E-015,10.0000000000012,120.999999999999));
#358=AXIS2_PLACEMENT_3D('',#484,#485,#486);
#359=SURFACE_SIDE_STYLE('',(#487));
#360=DRAUGHTING_PRE_DEFINED_CURVE_FONT('continuous');
#361=COLOUR_RGB('',0.0,1.0,1.0);
#362=SURFACE_SIDE_STYLE('',(#488));
#363=DRAUGHTING_PRE_DEFINED_CURVE_FONT('continuous');
#364=COLOUR_RGB('',0.0,1.0,1.0);
#365=EDGE_LOOP('',(#489));
#366=EDGE_LOOP('',(#490));
#367=AXIS2_PLACEMENT_3D('',#491,#492,#493);
#368=DRAUGHTING_PRE_DEFINED_CURVE_FONT('continuous');
#369=COLOUR_RGB('',0.0,1.0,1.0);
#370=CARTESIAN_POINT('',(-4.60015677105142E-015,13.500000000003,75.1262612902631));
#371=AXIS2_PLACEMENT_3D('',#494,#495,#496);
#372=DRAUGHTING_PRE_DEFINED_CURVE_FONT('continuous');
#373=COLOUR_RGB('',0.0,1.0,1.0);
#374=CARTESIAN_POINT('',(-1.34711147906162E-015,10.0,21.9999999999924));
#375=AXIS2_PLACEMENT_3D('',#497,#498,#499);
#376=DRAUGHTING_PRE_DEFINED_CURVE_FONT('continuous');
#377=COLOUR_RGB('',0.0,1.0,1.0);
#378=CARTESIAN_POINT('',(-1.28587913910472E-015,8.20000000000072,21.0));
#379=AXIS2_PLACEMENT_3D('',#500,#501,#502);
#380=SURFACE_SIDE_STYLE('',(#503));
#381=DRAUGHTING_PRE_DEFINED_CURVE_FONT('continuous');
#382=COLOUR_RGB('',0.0,1.0,1.0);
#383=EDGE_LOOP('',(#504));
#384=EDGE_LOOP('',(#505));
#385=AXIS2_PLACEMENT_3D('',#506,#507,#508);
#386=SURFACE_SIDE_STYLE('',(#509));
#387=DRAUGHTING_PRE_DEFINED_CURVE_FONT('continuous');
#388=COLOUR_RGB('',0.0,1.0,1.0);
#389=EDGE_LOOP('',(#510));
#390=AXIS2_PLACEMENT_3D('',#511,#512,#513);
#392=CARTESIAN_POINT('',(-4.22883875086729E-015,-8.45767750173459E-015,69.0621778264815));
#393=DIRECTION('',(6.12323399573677E-017,1.22464679914735E-016,-1.0));
#394=DIRECTION('',(-1.23259516440783E-032,1.0,1.22464679914735E-016));
#395=CARTESIAN_POINT('',(-1.08993565124109E-015,-2.17987130248217E-015,17.799999999999));
#396=DIRECTION('',(6.12323399573677E-017,1.22464679914735E-016,-1.0));
#397=DIRECTION('',(-1.23259516440783E-032,1.0,1.22464679914735E-016));
#398=CARTESIAN_POINT('',(-4.68427400673846E-015,-9.36854801347693E-015,76.4999999999974));
#399=DIRECTION('',(6.12323399573677E-017,1.22464679914735E-016,-1.0));
#400=DIRECTION('',(-1.23259516440783E-032,1.0,1.22464679914735E-016));
#401=SURFACE_STYLE_FILL_AREA(#514);
#402=ORIENTED_EDGE('',*,*,#113,.F.);
#403=ORIENTED_EDGE('',*,*,#52,.T.);
#404=CARTESIAN_POINT('',(-2.78797511496446E-015,-5.57595022992892E-015,45.5310889132369));
#405=DIRECTION('',(6.12323399573677E-017,1.22464679914735E-016,-1.0));
#406=DIRECTION('',(-1.23259516440783E-032,1.0,1.22464679914735E-016));
#407=SURFACE_STYLE_FILL_AREA(#515);
#408=ORIENTED_EDGE('',*,*,#75,.F.);
#409=ORIENTED_EDGE('',*,*,#54,.T.);
#410=CARTESIAN_POINT('',(-5.44967825620481E-016,-1.08993565124096E-015,8.89999999999851));
#411=DIRECTION('',(6.12323399573677E-017,1.22464679914735E-016,-1.0));
#412=DIRECTION('',(-1.23259516440783E-032,1.0,1.22464679914735E-016));
#413=CARTESIAN_POINT('',(-4.92920336656803E-015,-9.85840673313606E-015,76.4999999999974));
#414=DIRECTION('',(6.12323399573676E-017,1.22464679914735E-016,-1.0));
#415=DIRECTION('',(-1.23259516440783E-032,1.0,1.22464679914735E-016));
#416=SURFACE_STYLE_FILL_AREA(#516);
#417=ORIENTED_EDGE('',*,*,#56,.F.);
#418=ORIENTED_EDGE('',*,*,#64,.T.);
#419=CARTESIAN_POINT('',(-9.84184850476247,1.77144517532163,76.4999999999974));
#420=DIRECTION('',(0.0,0.0,1.0));
#421=DIRECTION('',(-1.0,0.0,0.0));
#422=SURFACE_STYLE_FILL_AREA(#517);
#423=ORIENTED_EDGE('',*,*,#90,.F.);
#424=ORIENTED_EDGE('',*,*,#115,.T.);
#425=CARTESIAN_POINT('',(-1.28587913910472E-015,9.17500000000018,21.0));
#426=DIRECTION('',(7.49879891330927E-033,-1.22464679914735E-016,1.0));
#427=DIRECTION('',(1.0,6.12323399573677E-017,0.0));
#428=SURFACE_STYLE_FILL_AREA(#518);
#429=ORIENTED_EDGE('',*,*,#75,.T.);
#430=CARTESIAN_POINT('',(1.23501642196633E-028,5.0,-2.01732904615911E-012));
#431=DIRECTION('',(6.12323399573677E-017,1.22464679914735E-016,-1.0));
#432=DIRECTION('',(-1.0,0.0,-6.12323399573677E-017));
#433=CARTESIAN_POINT('',(1.23563271954853E-028,2.47126543909707E-028,-2.01794136955868E-012));
#434=DIRECTION('',(6.12323399573677E-017,1.22464679914735E-016,-1.0));
#435=DIRECTION('',(-1.23259516440783E-032,1.0,1.22464679914735E-016));
#436=SURFACE_STYLE_FILL_AREA(#519);
#437=ORIENTED_EDGE('',*,*,#111,.F.);
#438=ORIENTED_EDGE('',*,*,#56,.T.);
#439=CARTESIAN_POINT('',(-4.64221538889494E-015,-9.28443077778989E-015,75.8131306451303));
#440=DIRECTION('',(6.12323399573677E-017,1.22464679914735E-016,-1.0));
#441=DIRECTION('',(-1.23259516440783E-032,1.0,1.22464679914735E-016));
#442=SURFACE_STYLE_FILL_AREA(#520);
#443=ORIENTED_EDGE('',*,*,#88,.F.);
#444=ORIENTED_EDGE('',*,*,#90,.T.);
#445=CARTESIAN_POINT('',(-1.22464679914735E-015,-2.44929359829471E-015,20.0));
#446=DIRECTION('',(6.12323399573677E-017,1.22464679914735E-016,-1.0));
#447=DIRECTION('',(-1.23259516440783E-032,1.0,1.22464679914735E-016));
#448=CARTESIAN_POINT('',(-4.28626379701515E-015,-8.57252759403029E-015,69.9999999999904));
#449=DIRECTION('',(6.12323399573677E-017,1.22464679914735E-016,-1.0));
#450=DIRECTION('',(-1.23259516440783E-032,1.0,1.22464679914735E-016));
#451=SURFACE_STYLE_FILL_AREA(#521);
#452=ORIENTED_EDGE('',*,*,#115,.F.);
#453=ORIENTED_EDGE('',*,*,#98,.T.);
#454=CARTESIAN_POINT('',(-1.31649530908361E-015,-2.63299061816722E-015,21.5000000000034));
#455=DIRECTION('',(6.12323399573676E-017,1.22464679914735E-016,-1.0));
#456=DIRECTION('',(-1.23259516440783E-032,1.0,1.22464679914735E-016));
#457=CARTESIAN_POINT('',(-1.16341445918999E-015,-2.32682891837997E-015,19.0));
#458=DIRECTION('',(6.12323399573677E-017,1.22464679914735E-016,-1.0));
#459=DIRECTION('',(-1.23259516440783E-032,1.0,1.22464679914735E-016));
#460=CARTESIAN_POINT('',(-1.28587913910472E-015,-2.57175827820944E-015,21.0));
#461=DIRECTION('',(6.12323399573677E-017,1.22464679914735E-016,-1.0));
#462=DIRECTION('',(-1.23259516440783E-032,1.0,1.22464679914735E-016));
#463=SURFACE_STYLE_FILL_AREA(#522);
#464=ORIENTED_EDGE('',*,*,#83,.F.);
#465=ORIENTED_EDGE('',*,*,#111,.T.);
#466=CARTESIAN_POINT('',(-4.44321028403329E-015,-8.88642056806657E-015,72.5631306451268));
#467=DIRECTION('',(6.12323399573677E-017,1.22464679914735E-016,-1.0));
#468=DIRECTION('',(-1.23259516440783E-032,1.0,1.22464679914735E-016));
#469=SURFACE_STYLE_FILL_AREA(#523);
#470=ORIENTED_EDGE('',*,*,#64,.F.);
#471=ORIENTED_EDGE('',*,*,#103,.T.);
#472=CARTESIAN_POINT('',(-6.16915825070473E-015,-1.23383165014095E-014,100.749999999999));
#473=DIRECTION('',(6.12323399573677E-017,1.22464679914735E-016,-1.0));
#474=DIRECTION('',(-1.23259516440783E-032,1.0,1.22464679914735E-016));
#475=CARTESIAN_POINT('',(-1.3471114790625E-015,-2.694222958125E-015,22.0000000000067));
#476=DIRECTION('',(6.12323399573676E-017,1.22464679914735E-016,-1.0));
#477=DIRECTION('',(-1.23259516440783E-032,1.0,1.22464679914735E-016));
#478=SURFACE_STYLE_FILL_AREA(#524);
#479=ORIENTED_EDGE('',*,*,#52,.F.);
#480=ORIENTED_EDGE('',*,*,#83,.T.);
#481=CARTESIAN_POINT('',(-4.25755127394122E-015,-8.51510254788244E-015,69.5310889132359));
#482=DIRECTION('',(-6.12323399573677E-017,-1.22464679914735E-016,1.0));
#483=DIRECTION('',(-1.23259516440783E-032,1.0,1.22464679914735E-016));
#484=CARTESIAN_POINT('',(-7.40911313484143E-015,-1.48182262696828E-014,120.999999999999));
#485=DIRECTION('',(6.12323399573677E-017,1.22464679914735E-016,-1.0));
#486=DIRECTION('',(-1.23259516440783E-032,1.0,1.22464679914735E-016));
#487=SURFACE_STYLE_FILL_AREA(#525);
#488=SURFACE_STYLE_FILL_AREA(#526);
#489=ORIENTED_EDGE('',*,*,#54,.F.);
#490=ORIENTED_EDGE('',*,*,#88,.T.);
#491=CARTESIAN_POINT('',(-1.12667505521554E-015,-2.25335011043107E-015,18.3999999999995));
#492=DIRECTION('',(-6.12323399573677E-017,-1.22464679914735E-016,1.0));
#493=DIRECTION('',(-1.23259516440783E-032,1.0,1.22464679914735E-016));
#494=CARTESIAN_POINT('',(-4.60015677105142E-015,-9.20031354210284E-015,75.1262612902631));
#495=DIRECTION('',(6.12323399573677E-017,1.22464679914735E-016,-1.0));
#496=DIRECTION('',(-1.23259516440783E-032,1.0,1.22464679914735E-016));
#497=CARTESIAN_POINT('',(-1.34711147906162E-015,-2.69422295812324E-015,21.9999999999924));
#498=DIRECTION('',(6.12323399573677E-017,1.22464679914735E-016,-1.0));
#499=DIRECTION('',(-1.23259516440783E-032,1.0,1.22464679914735E-016));
#500=CARTESIAN_POINT('',(-1.28587913910472E-015,-2.57175827820944E-015,21.0));
#501=DIRECTION('',(6.12323399573676E-017,1.22464679914735E-016,-1.0));
#502=DIRECTION('',(-1.23259516440783E-032,1.0,1.22464679914735E-016));
#503=SURFACE_STYLE_FILL_AREA(#527);
#504=ORIENTED_EDGE('',*,*,#113,.T.);
#505=ORIENTED_EDGE('',*,*,#98,.F.);
#506=CARTESIAN_POINT('',(-1.34711147906206E-015,9.10000000000036,21.9999999999996));
#507=DIRECTION('',(6.12323399573677E-017,-7.9678248249442E-012,-1.0));
#508=DIRECTION('',(0.0,-1.0,7.9678248249442E-012));
#509=SURFACE_STYLE_FILL_AREA(#528);
#510=ORIENTED_EDGE('',*,*,#103,.F.);
#511=CARTESIAN_POINT('',(-7.40911313484143E-015,5.00000000000059,120.999999999999));
#512=DIRECTION('',(7.49879891330927E-033,-1.22464679914735E-016,1.0));
#513=DIRECTION('',(1.0,6.12323399573677E-017,0.0));
#514=FILL_AREA_STYLE('',(#529));
#515=FILL_AREA_STYLE('',(#530));
#516=FILL_AREA_STYLE('',(#531));
#517=FILL_AREA_STYLE('',(#532));
#518=FILL_AREA_STYLE('',(#533));
#519=FILL_AREA_STYLE('',(#534));
#520=FILL_AREA_STYLE('',(#535));
#521=FILL_AREA_STYLE('',(#536));
#522=FILL_AREA_STYLE('',(#537));
#523=FILL_AREA_STYLE('',(#538));
#524=FILL_AREA_STYLE('',(#539));
#525=FILL_AREA_STYLE('',(#540));
#526=FILL_AREA_STYLE('',(#541));
#527=FILL_AREA_STYLE('',(#542));
#528=FILL_AREA_STYLE('',(#543));
#529=FILL_AREA_STYLE_COLOUR('',#544);
#530=FILL_AREA_STYLE_COLOUR('',#545);
#531=FILL_AREA_STYLE_COLOUR('',#546);
#532=FILL_AREA_STYLE_COLOUR('',#547);
#533=FILL_AREA_STYLE_COLOUR('',#548);
#534=FILL_AREA_STYLE_COLOUR('',#549);
#535=FILL_AREA_STYLE_COLOUR('',#550);
#536=FILL_AREA_STYLE_COLOUR('',#551);
#537=FILL_AREA_STYLE_COLOUR('',#552);
#538=FILL_AREA_STYLE_COLOUR('',#553);
#539=FILL_AREA_STYLE_COLOUR('',#554);
#540=FILL_AREA_STYLE_COLOUR('',#555);
#541=FILL_AREA_STYLE_COLOUR('',#556);
#542=FILL_AREA_STYLE_COLOUR('',#557);
#543=FILL_AREA_STYLE_COLOUR('',#558);
#544=COLOUR_RGB('',0.0,1.0,1.0);
#545=COLOUR_RGB('',0.0,1.0,1.0);
#546=COLOUR_RGB('',0.0,1.0,1.0);
#547=COLOUR_RGB('',0.0,1.0,1.0);
#548=COLOUR_RGB('',0.0,1.0,1.0);
#549=COLOUR_RGB('',0.0,1.0,1.0);
#550=COLOUR_RGB('',0.0,1.0,1.0);
#551=COLOUR_RGB('',0.0,1.0,1.0);
#552=COLOUR_RGB('',0.0,1.0,1.0);
#553=COLOUR_RGB('',0.0,1.0,1.0);
#554=COLOUR_RGB('',0.0,1.0,1.0);
#555=COLOUR_RGB('',0.0,1.0,1.0);
#556=COLOUR_RGB('',0.0,1.0,1.0);
#557=COLOUR_RGB('',0.0,1.0,1.0);
#558=COLOUR_RGB('',0.0,1.0,1.0);
ENDSEC;
END-ISO-10303-21;
