ISO-10303-21;
HEADER;
FILE_DESCRIPTION((''),'1');
FILE_NAME('T:/02_3D_Field-HP\X2\FF71FF6FFF8CFF9F5916\X0\2013/02_Step_Field-HP\X2\FF71FF6FFF8CFF9F5916\X0\2013/MGT12-d-70_060049-090071.stp','2017-02-08T07:50:18',(''),(''),'Spatial Interop R21 SP3','Kubotek KeyCreator 2011 V10.0.2 (22737)',' ');
FILE_SCHEMA(('automotive_design'));
ENDSEC;
DATA;
#1=MECHANICAL_DESIGN_GEOMETRIC_PRESENTATION_REPRESENTATION(' ',(#10,#11,#12,#13,#14,#15,#16,#17,#18,#19,#20,#21,#22,#23,#24,#25,#26,#27,#28,#29,#30,#31,#32,#33,#34,#35,#36,#37),#6);
#2=PRODUCT_DEFINITION_CONTEXT('',#38,'design');
#3=APPLICATION_PROTOCOL_DEFINITION('INTERNATIONAL STANDARD','automotive_design',1994,#38);
#4=PRODUCT_CATEGORY_RELATIONSHIP('NONE','NONE',#39,#40);
#5=SHAPE_DEFINITION_REPRESENTATION(#41,#42);
#6= (GEOMETRIC_REPRESENTATION_CONTEXT(3)GLOBAL_UNCERTAINTY_ASSIGNED_CONTEXT((#45))GLOBAL_UNIT_ASSIGNED_CONTEXT((#47,#48,#49))REPRESENTATION_CONTEXT('NONE','WORKSPACE'));
#10=STYLED_ITEM('',(#51),#52);
#11=STYLED_ITEM('',(#53),#54);
#12=STYLED_ITEM('',(#55),#56);
#13=STYLED_ITEM('',(#57,#58),#59);
#14=STYLED_ITEM('',(#60,#61),#62);
#15=STYLED_ITEM('',(#63),#64);
#16=STYLED_ITEM('',(#65),#66);
#17=STYLED_ITEM('',(#67),#68);
#18=STYLED_ITEM('',(#69),#70);
#19=STYLED_ITEM('',(#71,#72),#73);
#20=STYLED_ITEM('',(#74),#75);
#21=STYLED_ITEM('',(#76,#77),#78);
#22=STYLED_ITEM('',(#79),#80);
#23=STYLED_ITEM('',(#81,#82),#83);
#24=STYLED_ITEM('',(#84,#85),#86);
#25=STYLED_ITEM('',(#87),#88);
#26=STYLED_ITEM('',(#89,#90),#91);
#27=STYLED_ITEM('',(#92,#93),#94);
#28=STYLED_ITEM('',(#95),#96);
#29=STYLED_ITEM('',(#97,#98),#99);
#30=STYLED_ITEM('',(#100,#101),#102);
#31=STYLED_ITEM('',(#103),#104);
#32=STYLED_ITEM('',(#105,#106),#107);
#33=STYLED_ITEM('',(#108),#109);
#34=STYLED_ITEM('',(#110,#111),#112);
#35=STYLED_ITEM('',(#113,#114),#115);
#36=STYLED_ITEM('',(#116,#117),#118);
#37=STYLED_ITEM('',(#119,#120),#121);
#38=APPLICATION_CONTEXT(' ');
#39=PRODUCT_CATEGORY('part','NONE');
#40=PRODUCT_RELATED_PRODUCT_CATEGORY('detail',' ',(#122));
#41=PRODUCT_DEFINITION_SHAPE('NONE','NONE',#123);
#42=ADVANCED_BREP_SHAPE_REPRESENTATION('240[2]',(#78,#124),#6);
#45=UNCERTAINTY_MEASURE_WITH_UNIT(LENGTH_MEASURE(1.0E-006),#47,'','');
#47= (CONVERSION_BASED_UNIT('MILLIMETRE',#127)LENGTH_UNIT()NAMED_UNIT(#130));
#48= (NAMED_UNIT(#132)PLANE_ANGLE_UNIT()SI_UNIT($,.RADIAN.));
#49= (NAMED_UNIT(#132)SOLID_ANGLE_UNIT()SI_UNIT($,.STERADIAN.));
#51=PRESENTATION_STYLE_ASSIGNMENT((#138));
#52=EDGE_CURVE('240[2]',#139,#139,#140,.T.);
#53=PRESENTATION_STYLE_ASSIGNMENT((#141));
#54=EDGE_CURVE('240[2]',#142,#142,#143,.T.);
#55=PRESENTATION_STYLE_ASSIGNMENT((#144));
#56=EDGE_CURVE('240[2]',#145,#145,#146,.T.);
#57=PRESENTATION_STYLE_ASSIGNMENT((#147));
#58=PRESENTATION_STYLE_ASSIGNMENT((#148));
#59=ADVANCED_FACE('240[2]',(#149,#150),#151,.T.);
#60=PRESENTATION_STYLE_ASSIGNMENT((#152));
#61=PRESENTATION_STYLE_ASSIGNMENT((#153));
#62=ADVANCED_FACE('240[2]',(#154,#155),#156,.T.);
#63=PRESENTATION_STYLE_ASSIGNMENT((#157));
#64=EDGE_CURVE('240[2]',#158,#158,#159,.T.);
#65=PRESENTATION_STYLE_ASSIGNMENT((#160));
#66=EDGE_CURVE('240[2]',#161,#161,#162,.T.);
#67=PRESENTATION_STYLE_ASSIGNMENT((#163));
#68=EDGE_CURVE('240[2]',#164,#164,#165,.T.);
#69=PRESENTATION_STYLE_ASSIGNMENT((#166));
#70=EDGE_CURVE('240[2]',#167,#167,#168,.T.);
#71=PRESENTATION_STYLE_ASSIGNMENT((#169));
#72=PRESENTATION_STYLE_ASSIGNMENT((#170));
#73=ADVANCED_FACE('240[2]',(#171),#172,.T.);
#74=PRESENTATION_STYLE_ASSIGNMENT((#173));
#75=EDGE_CURVE('240[2]',#174,#174,#175,.T.);
#76=PRESENTATION_STYLE_ASSIGNMENT((#176));
#77=PRESENTATION_STYLE_ASSIGNMENT((#177));
#78=MANIFOLD_SOLID_BREP('240[2]',#178);
#79=PRESENTATION_STYLE_ASSIGNMENT((#179));
#80=EDGE_CURVE('240[2]',#180,#180,#181,.T.);
#81=PRESENTATION_STYLE_ASSIGNMENT((#182));
#82=PRESENTATION_STYLE_ASSIGNMENT((#183));
#83=ADVANCED_FACE('240[2]',(#184,#185),#186,.T.);
#84=PRESENTATION_STYLE_ASSIGNMENT((#187));
#85=PRESENTATION_STYLE_ASSIGNMENT((#188));
#86=ADVANCED_FACE('240[2]',(#189,#190),#191,.T.);
#87=PRESENTATION_STYLE_ASSIGNMENT((#192));
#88=EDGE_CURVE('240[2]',#193,#193,#194,.T.);
#89=PRESENTATION_STYLE_ASSIGNMENT((#195));
#90=PRESENTATION_STYLE_ASSIGNMENT((#196));
#91=ADVANCED_FACE('240[2]',(#197,#198),#199,.T.);
#92=PRESENTATION_STYLE_ASSIGNMENT((#200));
#93=PRESENTATION_STYLE_ASSIGNMENT((#201));
#94=ADVANCED_FACE('240[2]',(#202,#203),#204,.T.);
#95=PRESENTATION_STYLE_ASSIGNMENT((#205));
#96=EDGE_CURVE('240[2]',#206,#206,#207,.T.);
#97=PRESENTATION_STYLE_ASSIGNMENT((#208));
#98=PRESENTATION_STYLE_ASSIGNMENT((#209));
#99=ADVANCED_FACE('240[2]',(#210,#211),#212,.T.);
#100=PRESENTATION_STYLE_ASSIGNMENT((#213));
#101=PRESENTATION_STYLE_ASSIGNMENT((#214));
#102=ADVANCED_FACE('240[2]',(#215,#216),#217,.T.);
#103=PRESENTATION_STYLE_ASSIGNMENT((#218));
#104=EDGE_CURVE('240[2]',#219,#219,#220,.T.);
#105=PRESENTATION_STYLE_ASSIGNMENT((#221));
#106=PRESENTATION_STYLE_ASSIGNMENT((#222));
#107=ADVANCED_FACE('240[2]',(#223,#224),#225,.T.);
#108=PRESENTATION_STYLE_ASSIGNMENT((#226));
#109=EDGE_CURVE('240[2]',#227,#227,#228,.T.);
#110=PRESENTATION_STYLE_ASSIGNMENT((#229));
#111=PRESENTATION_STYLE_ASSIGNMENT((#230));
#112=ADVANCED_FACE('240[2]',(#231,#232),#233,.T.);
#113=PRESENTATION_STYLE_ASSIGNMENT((#234));
#114=PRESENTATION_STYLE_ASSIGNMENT((#235));
#115=ADVANCED_FACE('240[2]',(#236),#237,.T.);
#116=PRESENTATION_STYLE_ASSIGNMENT((#238));
#117=PRESENTATION_STYLE_ASSIGNMENT((#239));
#118=ADVANCED_FACE('240[2]',(#240,#241),#242,.T.);
#119=PRESENTATION_STYLE_ASSIGNMENT((#243));
#120=PRESENTATION_STYLE_ASSIGNMENT((#244));
#121=ADVANCED_FACE('240[2]',(#245,#246),#247,.T.);
#122=PRODUCT('240[2]','240[2]','PART-240[2]-DESC',(#248));
#123=PRODUCT_DEFINITION('NONE','NONE',#249,#2);
#124=AXIS2_PLACEMENT_3D('',#250,#251,#252);
#127=LENGTH_MEASURE_WITH_UNIT(LENGTH_MEASURE(1.0),#253);
#130=DIMENSIONAL_EXPONENTS(1.0,0.0,0.0,0.0,0.0,0.0,0.0);
#132=DIMENSIONAL_EXPONENTS(0.0,0.0,0.0,0.0,0.0,0.0,0.0);
#138=CURVE_STYLE('',#254,POSITIVE_LENGTH_MEASURE(1000.0),#255);
#139=VERTEX_POINT('',#256);
#140=CIRCLE('',#257,8.20000000000073);
#141=CURVE_STYLE('',#258,POSITIVE_LENGTH_MEASURE(1000.0),#259);
#142=VERTEX_POINT('',#260);
#143=CIRCLE('',#261,10.0000000000012);
#144=CURVE_STYLE('',#262,POSITIVE_LENGTH_MEASURE(1000.0),#263);
#145=VERTEX_POINT('',#264);
#146=CIRCLE('',#265,10.0);
#147=SURFACE_STYLE_USAGE(.BOTH.,#266);
#148=CURVE_STYLE('',#267,POSITIVE_LENGTH_MEASURE(1000.0),#268);
#149=FACE_OUTER_BOUND('',#269,.T.);
#150=FACE_BOUND('',#270,.T.);
#151=PLANE('',#271);
#152=SURFACE_STYLE_USAGE(.BOTH.,#272);
#153=CURVE_STYLE('',#273,POSITIVE_LENGTH_MEASURE(1000.0),#274);
#154=FACE_OUTER_BOUND('',#275,.T.);
#155=FACE_BOUND('',#276,.T.);
#156=PLANE('',#277);
#157=CURVE_STYLE('',#278,POSITIVE_LENGTH_MEASURE(1000.0),#279);
#158=VERTEX_POINT('',#280);
#159=CIRCLE('',#281,9.99999999999327);
#160=CURVE_STYLE('',#282,POSITIVE_LENGTH_MEASURE(1000.0),#283);
#161=VERTEX_POINT('',#284);
#162=CIRCLE('',#285,13.5000000000031);
#163=CURVE_STYLE('',#286,POSITIVE_LENGTH_MEASURE(1000.0),#287);
#164=VERTEX_POINT('',#288);
#165=CIRCLE('',#289,13.4999999999991);
#166=CURVE_STYLE('',#290,POSITIVE_LENGTH_MEASURE(1000.0),#291);
#167=VERTEX_POINT('',#292);
#168=CIRCLE('',#293,8.20000000000073);
#169=SURFACE_STYLE_USAGE(.BOTH.,#294);
#170=CURVE_STYLE('',#295,POSITIVE_LENGTH_MEASURE(1000.0),#296);
#171=FACE_OUTER_BOUND('',#297,.T.);
#172=PLANE('',#298);
#173=CURVE_STYLE('',#299,POSITIVE_LENGTH_MEASURE(1000.0),#300);
#174=VERTEX_POINT('',#301);
#175=CIRCLE('',#302,10.0);
#176=SURFACE_STYLE_USAGE(.BOTH.,#303);
#177=CURVE_STYLE('',#304,POSITIVE_LENGTH_MEASURE(1000.0),#305);
#178=CLOSED_SHELL('',(#59,#112,#99,#94,#86,#62,#107,#83,#118,#102,#91,#115,#73,#121));
#179=CURVE_STYLE('',#306,POSITIVE_LENGTH_MEASURE(1000.0),#307);
#180=VERTEX_POINT('',#308);
#181=CIRCLE('',#309,10.1499999999996);
#182=SURFACE_STYLE_USAGE(.BOTH.,#310);
#183=CURVE_STYLE('',#311,POSITIVE_LENGTH_MEASURE(1000.0),#312);
#184=FACE_OUTER_BOUND('',#313,.T.);
#185=FACE_BOUND('',#314,.T.);
#186=PLANE('',#315);
#187=SURFACE_STYLE_USAGE(.BOTH.,#316);
#188=CURVE_STYLE('',#317,POSITIVE_LENGTH_MEASURE(1000.0),#318);
#189=FACE_BOUND('',#319,.T.);
#190=FACE_BOUND('',#320,.T.);
#191=CYLINDRICAL_SURFACE('',#321,10.0);
#192=CURVE_STYLE('',#322,POSITIVE_LENGTH_MEASURE(1000.0),#323);
#193=VERTEX_POINT('',#324);
#194=CIRCLE('',#325,10.0);
#195=SURFACE_STYLE_USAGE(.BOTH.,#326);
#196=CURVE_STYLE('',#327,POSITIVE_LENGTH_MEASURE(1000.0),#328);
#197=FACE_BOUND('',#329,.T.);
#198=FACE_BOUND('',#330,.T.);
#199=CYLINDRICAL_SURFACE('',#331,10.0);
#200=SURFACE_STYLE_USAGE(.BOTH.,#332);
#201=CURVE_STYLE('',#333,POSITIVE_LENGTH_MEASURE(1000.0),#334);
#202=FACE_BOUND('',#335,.T.);
#203=FACE_BOUND('',#336,.T.);
#204=CONICAL_SURFACE('',#337,11.7499999999995,1.3089969389957);
#205=CURVE_STYLE('',#338,POSITIVE_LENGTH_MEASURE(1000.0),#339);
#206=VERTEX_POINT('',#340);
#207=CIRCLE('',#341,13.0000000000004);
#208=SURFACE_STYLE_USAGE(.BOTH.,#342);
#209=CURVE_STYLE('',#343,POSITIVE_LENGTH_MEASURE(1000.0),#344);
#210=FACE_BOUND('',#345,.T.);
#211=FACE_BOUND('',#346,.T.);
#212=CYLINDRICAL_SURFACE('',#347,13.5000000000011);
#213=SURFACE_STYLE_USAGE(.BOTH.,#348);
#214=CURVE_STYLE('',#349,POSITIVE_LENGTH_MEASURE(1000.0),#350);
#215=FACE_BOUND('',#351,.T.);
#216=FACE_BOUND('',#352,.T.);
#217=CONICAL_SURFACE('',#353,10.0749999999998,0.12435499454636);
#218=CURVE_STYLE('',#354,POSITIVE_LENGTH_MEASURE(1000.0),#355);
#219=VERTEX_POINT('',#356);
#220=CIRCLE('',#357,10.1499999999996);
#221=SURFACE_STYLE_USAGE(.BOTH.,#358);
#222=CURVE_STYLE('',#359,POSITIVE_LENGTH_MEASURE(1000.0),#360);
#223=FACE_BOUND('',#361,.T.);
#224=FACE_BOUND('',#362,.T.);
#225=CYLINDRICAL_SURFACE('',#363,8.20000000000073);
#226=CURVE_STYLE('',#364,POSITIVE_LENGTH_MEASURE(1000.0),#365);
#227=VERTEX_POINT('',#366);
#228=CIRCLE('',#367,10.0);
#229=SURFACE_STYLE_USAGE(.BOTH.,#368);
#230=CURVE_STYLE('',#369,POSITIVE_LENGTH_MEASURE(1000.0),#370);
#231=FACE_BOUND('',#371,.T.);
#232=FACE_BOUND('',#372,.T.);
#233=CONICAL_SURFACE('',#373,13.2500000000018,0.349065850398916);
#234=SURFACE_STYLE_USAGE(.BOTH.,#374);
#235=CURVE_STYLE('',#375,POSITIVE_LENGTH_MEASURE(1000.0),#376);
#236=FACE_OUTER_BOUND('',#377,.T.);
#237=PLANE('',#378);
#238=SURFACE_STYLE_USAGE(.BOTH.,#379);
#239=CURVE_STYLE('',#380,POSITIVE_LENGTH_MEASURE(1000.0),#381);
#240=FACE_BOUND('',#382,.T.);
#241=FACE_BOUND('',#383,.T.);
#242=CYLINDRICAL_SURFACE('',#384,10.1499999999996);
#243=SURFACE_STYLE_USAGE(.BOTH.,#385);
#244=CURVE_STYLE('',#386,POSITIVE_LENGTH_MEASURE(1000.0),#387);
#245=FACE_BOUND('',#388,.T.);
#246=FACE_BOUND('',#389,.T.);
#247=CYLINDRICAL_SURFACE('',#390,9.99999999999724);
#248=PRODUCT_CONTEXT('',#38,'mechanical');
#249=PRODUCT_DEFINITION_FORMATION_WITH_SPECIFIED_SOURCE(' ','NONE',#122,.NOT_KNOWN.);
#250=CARTESIAN_POINT('',(0.0,0.0,0.0));
#251=DIRECTION('',(0.0,0.0,1.0));
#252=DIRECTION('',(1.0,0.0,0.0));
#253= (NAMED_UNIT(#130)LENGTH_UNIT()SI_UNIT(.MILLI.,.METRE.));
#254=DRAUGHTING_PRE_DEFINED_CURVE_FONT('continuous');
#255=COLOUR_RGB('',0.0,1.0,1.0);
#256=CARTESIAN_POINT('',(-1.3471114790625E-015,8.20000000000072,22.0000000000067));
#257=AXIS2_PLACEMENT_3D('',#392,#393,#394);
#258=DRAUGHTING_PRE_DEFINED_CURVE_FONT('continuous');
#259=COLOUR_RGB('',0.0,1.0,1.0);
#260=CARTESIAN_POINT('',(-7.40911313484143E-015,10.0000000000012,120.999999999999));
#261=AXIS2_PLACEMENT_3D('',#395,#396,#397);
#262=DRAUGHTING_PRE_DEFINED_CURVE_FONT('continuous');
#263=COLOUR_RGB('',0.0,1.0,1.0);
#264=CARTESIAN_POINT('',(1.23440012438413E-028,10.0,-2.01671672275954E-012));
#265=AXIS2_PLACEMENT_3D('',#398,#399,#400);
#266=SURFACE_SIDE_STYLE('',(#401));
#267=DRAUGHTING_PRE_DEFINED_CURVE_FONT('continuous');
#268=COLOUR_RGB('',0.0,1.0,1.0);
#269=EDGE_LOOP('',(#402));
#270=EDGE_LOOP('',(#403));
#271=AXIS2_PLACEMENT_3D('',#404,#405,#406);
#272=SURFACE_SIDE_STYLE('',(#407));
#273=DRAUGHTING_PRE_DEFINED_CURVE_FONT('continuous');
#274=COLOUR_RGB('',0.0,1.0,1.0);
#275=EDGE_LOOP('',(#408));
#276=EDGE_LOOP('',(#409));
#277=AXIS2_PLACEMENT_3D('',#410,#411,#412);
#278=DRAUGHTING_PRE_DEFINED_CURVE_FONT('continuous');
#279=COLOUR_RGB('',0.0,1.0,1.0);
#280=CARTESIAN_POINT('',(-4.92920336656803E-015,9.99999999999326,76.4999999999974));
#281=AXIS2_PLACEMENT_3D('',#413,#414,#415);
#282=DRAUGHTING_PRE_DEFINED_CURVE_FONT('continuous');
#283=COLOUR_RGB('',0.0,1.0,1.0);
#284=CARTESIAN_POINT('',(-4.60015677105142E-015,13.500000000003,75.1262612902631));
#285=AXIS2_PLACEMENT_3D('',#416,#417,#418);
#286=DRAUGHTING_PRE_DEFINED_CURVE_FONT('continuous');
#287=COLOUR_RGB('',0.0,1.0,1.0);
#288=CARTESIAN_POINT('',(-4.28626379701515E-015,13.499999999999,69.9999999999904));
#289=AXIS2_PLACEMENT_3D('',#419,#420,#421);
#290=DRAUGHTING_PRE_DEFINED_CURVE_FONT('continuous');
#291=COLOUR_RGB('',0.0,1.0,1.0);
#292=CARTESIAN_POINT('',(-1.28587913910472E-015,8.20000000000072,21.0));
#293=AXIS2_PLACEMENT_3D('',#422,#423,#424);
#294=SURFACE_SIDE_STYLE('',(#425));
#295=DRAUGHTING_PRE_DEFINED_CURVE_FONT('continuous');
#296=COLOUR_RGB('',0.0,1.0,1.0);
#297=EDGE_LOOP('',(#426));
#298=AXIS2_PLACEMENT_3D('',#427,#428,#429);
#299=DRAUGHTING_PRE_DEFINED_CURVE_FONT('continuous');
#300=COLOUR_RGB('',0.0,1.0,1.0);
#301=CARTESIAN_POINT('',(-1.34711147906162E-015,10.0,21.9999999999924));
#302=AXIS2_PLACEMENT_3D('',#430,#431,#432);
#303=SURFACE_SIDE_STYLE('',(#433));
#304=DRAUGHTING_PRE_DEFINED_CURVE_FONT('continuous');
#305=COLOUR_RGB('',0.0,1.0,1.0);
#306=DRAUGHTING_PRE_DEFINED_CURVE_FONT('continuous');
#307=COLOUR_RGB('',0.0,1.0,1.0);
#308=CARTESIAN_POINT('',(-1.28587913910472E-015,10.1499999999996,21.0));
#309=AXIS2_PLACEMENT_3D('',#434,#435,#436);
#310=SURFACE_SIDE_STYLE('',(#437));
#311=DRAUGHTING_PRE_DEFINED_CURVE_FONT('continuous');
#312=COLOUR_RGB('',0.0,1.0,1.0);
#313=EDGE_LOOP('',(#438));
#314=EDGE_LOOP('',(#439));
#315=AXIS2_PLACEMENT_3D('',#440,#441,#442);
#316=SURFACE_SIDE_STYLE('',(#443));
#317=DRAUGHTING_PRE_DEFINED_CURVE_FONT('continuous');
#318=COLOUR_RGB('',0.0,1.0,1.0);
#319=EDGE_LOOP('',(#444));
#320=EDGE_LOOP('',(#445));
#321=AXIS2_PLACEMENT_3D('',#446,#447,#448);
#322=DRAUGHTING_PRE_DEFINED_CURVE_FONT('continuous');
#323=COLOUR_RGB('',0.0,1.0,1.0);
#324=CARTESIAN_POINT('',(-4.22883875086729E-015,9.99999999999999,69.0621778264815));
#325=AXIS2_PLACEMENT_3D('',#449,#450,#451);
#326=SURFACE_SIDE_STYLE('',(#452));
#327=DRAUGHTING_PRE_DEFINED_CURVE_FONT('continuous');
#328=COLOUR_RGB('',0.0,1.0,1.0);
#329=EDGE_LOOP('',(#453));
#330=EDGE_LOOP('',(#454));
#331=AXIS2_PLACEMENT_3D('',#455,#456,#457);
#332=SURFACE_SIDE_STYLE('',(#458));
#333=DRAUGHTING_PRE_DEFINED_CURVE_FONT('continuous');
#334=COLOUR_RGB('',0.0,1.0,1.0);
#335=EDGE_LOOP('',(#459));
#336=EDGE_LOOP('',(#460));
#337=AXIS2_PLACEMENT_3D('',#461,#462,#463);
#338=DRAUGHTING_PRE_DEFINED_CURVE_FONT('continuous');
#339=COLOUR_RGB('',0.0,1.0,1.0);
#340=CARTESIAN_POINT('',(-4.68427400673846E-015,13.0000000000004,76.4999999999974));
#341=AXIS2_PLACEMENT_3D('',#464,#465,#466);
#342=SURFACE_SIDE_STYLE('',(#467));
#343=DRAUGHTING_PRE_DEFINED_CURVE_FONT('continuous');
#344=COLOUR_RGB('',0.0,1.0,1.0);
#345=EDGE_LOOP('',(#468));
#346=EDGE_LOOP('',(#469));
#347=AXIS2_PLACEMENT_3D('',#470,#471,#472);
#348=SURFACE_SIDE_STYLE('',(#473));
#349=DRAUGHTING_PRE_DEFINED_CURVE_FONT('continuous');
#350=COLOUR_RGB('',0.0,1.0,1.0);
#351=EDGE_LOOP('',(#474));
#352=EDGE_LOOP('',(#475));
#353=AXIS2_PLACEMENT_3D('',#476,#477,#478);
#354=DRAUGHTING_PRE_DEFINED_CURVE_FONT('continuous');
#355=COLOUR_RGB('',0.0,1.0,1.0);
#356=CARTESIAN_POINT('',(-1.16341445918999E-015,10.1499999999996,19.0));
#357=AXIS2_PLACEMENT_3D('',#479,#480,#481);
#358=SURFACE_SIDE_STYLE('',(#482));
#359=DRAUGHTING_PRE_DEFINED_CURVE_FONT('continuous');
#360=COLOUR_RGB('',0.0,1.0,1.0);
#361=EDGE_LOOP('',(#483));
#362=EDGE_LOOP('',(#484));
#363=AXIS2_PLACEMENT_3D('',#485,#486,#487);
#364=DRAUGHTING_PRE_DEFINED_CURVE_FONT('continuous');
#365=COLOUR_RGB('',0.0,1.0,1.0);
#366=CARTESIAN_POINT('',(-1.08993565124109E-015,10.0,17.799999999999));
#367=AXIS2_PLACEMENT_3D('',#488,#489,#490);
#368=SURFACE_SIDE_STYLE('',(#491));
#369=DRAUGHTING_PRE_DEFINED_CURVE_FONT('continuous');
#370=COLOUR_RGB('',0.0,1.0,1.0);
#371=EDGE_LOOP('',(#492));
#372=EDGE_LOOP('',(#493));
#373=AXIS2_PLACEMENT_3D('',#494,#495,#496);
#374=SURFACE_SIDE_STYLE('',(#497));
#375=DRAUGHTING_PRE_DEFINED_CURVE_FONT('continuous');
#376=COLOUR_RGB('',0.0,1.0,1.0);
#377=EDGE_LOOP('',(#498));
#378=AXIS2_PLACEMENT_3D('',#499,#500,#501);
#379=SURFACE_SIDE_STYLE('',(#502));
#380=DRAUGHTING_PRE_DEFINED_CURVE_FONT('continuous');
#381=COLOUR_RGB('',0.0,1.0,1.0);
#382=EDGE_LOOP('',(#503));
#383=EDGE_LOOP('',(#504));
#384=AXIS2_PLACEMENT_3D('',#505,#506,#507);
#385=SURFACE_SIDE_STYLE('',(#508));
#386=DRAUGHTING_PRE_DEFINED_CURVE_FONT('continuous');
#387=COLOUR_RGB('',0.0,1.0,1.0);
#388=EDGE_LOOP('',(#509));
#389=EDGE_LOOP('',(#510));
#390=AXIS2_PLACEMENT_3D('',#511,#512,#513);
#392=CARTESIAN_POINT('',(-1.3471114790625E-015,-2.694222958125E-015,22.0000000000067));
#393=DIRECTION('',(6.12323399573676E-017,1.22464679914735E-016,-1.0));
#394=DIRECTION('',(-1.23259516440783E-032,1.0,1.22464679914735E-016));
#395=CARTESIAN_POINT('',(-7.40911313484143E-015,-1.48182262696828E-014,120.999999999999));
#396=DIRECTION('',(6.12323399573677E-017,1.22464679914735E-016,-1.0));
#397=DIRECTION('',(-1.23259516440783E-032,1.0,1.22464679914735E-016));
#398=CARTESIAN_POINT('',(1.23563271954853E-028,2.47126543909707E-028,-2.01794136955868E-012));
#399=DIRECTION('',(6.12323399573677E-017,1.22464679914735E-016,-1.0));
#400=DIRECTION('',(-1.23259516440783E-032,1.0,1.22464679914735E-016));
#401=SURFACE_STYLE_FILL_AREA(#514);
#402=ORIENTED_EDGE('',*,*,#96,.F.);
#403=ORIENTED_EDGE('',*,*,#64,.T.);
#404=CARTESIAN_POINT('',(-9.84184850476247,1.77144517532163,76.4999999999974));
#405=DIRECTION('',(0.0,0.0,1.0));
#406=DIRECTION('',(1.0,-0.0,0.0));
#407=SURFACE_STYLE_FILL_AREA(#515);
#408=ORIENTED_EDGE('',*,*,#75,.T.);
#409=ORIENTED_EDGE('',*,*,#52,.F.);
#410=CARTESIAN_POINT('',(-1.34711147906206E-015,9.10000000000036,21.9999999999996));
#411=DIRECTION('',(6.12323399573677E-017,-7.9678248249442E-012,-1.0));
#412=DIRECTION('',(0.0,-1.0,7.9678248249442E-012));
#413=CARTESIAN_POINT('',(-4.92920336656803E-015,-9.85840673313606E-015,76.4999999999974));
#414=DIRECTION('',(6.12323399573676E-017,1.22464679914735E-016,-1.0));
#415=DIRECTION('',(-1.23259516440783E-032,1.0,1.22464679914735E-016));
#416=CARTESIAN_POINT('',(-4.60015677105142E-015,-9.20031354210284E-015,75.1262612902631));
#417=DIRECTION('',(6.12323399573677E-017,1.22464679914735E-016,-1.0));
#418=DIRECTION('',(-1.23259516440783E-032,1.0,1.22464679914735E-016));
#419=CARTESIAN_POINT('',(-4.28626379701515E-015,-8.57252759403029E-015,69.9999999999904));
#420=DIRECTION('',(6.12323399573677E-017,1.22464679914735E-016,-1.0));
#421=DIRECTION('',(-1.23259516440783E-032,1.0,1.22464679914735E-016));
#422=CARTESIAN_POINT('',(-1.28587913910472E-015,-2.57175827820944E-015,21.0));
#423=DIRECTION('',(6.12323399573676E-017,1.22464679914735E-016,-1.0));
#424=DIRECTION('',(-1.23259516440783E-032,1.0,1.22464679914735E-016));
#425=SURFACE_STYLE_FILL_AREA(#516);
#426=ORIENTED_EDGE('',*,*,#54,.F.);
#427=CARTESIAN_POINT('',(-7.40911313484143E-015,5.00000000000059,120.999999999999));
#428=DIRECTION('',(-9.18338008663382E-049,-1.22464679914735E-016,1.0));
#429=DIRECTION('',(1.0,-7.49879891330927E-033,0.0));
#430=CARTESIAN_POINT('',(-1.34711147906162E-015,-2.69422295812324E-015,21.9999999999924));
#431=DIRECTION('',(6.12323399573677E-017,1.22464679914735E-016,-1.0));
#432=DIRECTION('',(-1.23259516440783E-032,1.0,1.22464679914735E-016));
#433=SURFACE_STYLE_FILL_AREA(#517);
#434=CARTESIAN_POINT('',(-1.28587913910472E-015,-2.57175827820944E-015,21.0));
#435=DIRECTION('',(6.12323399573677E-017,1.22464679914735E-016,-1.0));
#436=DIRECTION('',(-1.23259516440783E-032,1.0,1.22464679914735E-016));
#437=SURFACE_STYLE_FILL_AREA(#518);
#438=ORIENTED_EDGE('',*,*,#80,.F.);
#439=ORIENTED_EDGE('',*,*,#70,.T.);
#440=CARTESIAN_POINT('',(-1.28587913910472E-015,9.17500000000018,21.0));
#441=DIRECTION('',(-9.18338008663382E-049,-1.22464679914735E-016,1.0));
#442=DIRECTION('',(1.0,-7.49879891330927E-033,0.0));
#443=SURFACE_STYLE_FILL_AREA(#519);
#444=ORIENTED_EDGE('',*,*,#75,.F.);
#445=ORIENTED_EDGE('',*,*,#88,.T.);
#446=CARTESIAN_POINT('',(-2.78797511496446E-015,-5.57595022992892E-015,45.5310889132369));
#447=DIRECTION('',(-6.12323399573677E-017,-1.22464679914735E-016,1.0));
#448=DIRECTION('',(-1.23259516440783E-032,1.0,1.22464679914735E-016));
#449=CARTESIAN_POINT('',(-4.22883875086729E-015,-8.45767750173459E-015,69.0621778264815));
#450=DIRECTION('',(6.12323399573677E-017,1.22464679914735E-016,-1.0));
#451=DIRECTION('',(-1.23259516440783E-032,1.0,1.22464679914735E-016));
#452=SURFACE_STYLE_FILL_AREA(#520);
#453=ORIENTED_EDGE('',*,*,#56,.F.);
#454=ORIENTED_EDGE('',*,*,#109,.T.);
#455=CARTESIAN_POINT('',(-5.44967825620481E-016,-1.08993565124096E-015,8.89999999999851));
#456=DIRECTION('',(-6.12323399573677E-017,-1.22464679914735E-016,1.0));
#457=DIRECTION('',(-1.23259516440783E-032,1.0,1.22464679914735E-016));
#458=SURFACE_STYLE_FILL_AREA(#521);
#459=ORIENTED_EDGE('',*,*,#88,.F.);
#460=ORIENTED_EDGE('',*,*,#68,.T.);
#461=CARTESIAN_POINT('',(-4.25755127394122E-015,-8.51510254788244E-015,69.5310889132359));
#462=DIRECTION('',(-6.12323399573677E-017,-1.22464679914735E-016,1.0));
#463=DIRECTION('',(-1.23259516440783E-032,1.0,1.22464679914735E-016));
#464=CARTESIAN_POINT('',(-4.68427400673846E-015,-9.36854801347693E-015,76.4999999999974));
#465=DIRECTION('',(6.12323399573677E-017,1.22464679914735E-016,-1.0));
#466=DIRECTION('',(-1.23259516440783E-032,1.0,1.22464679914735E-016));
#467=SURFACE_STYLE_FILL_AREA(#522);
#468=ORIENTED_EDGE('',*,*,#68,.F.);
#469=ORIENTED_EDGE('',*,*,#66,.T.);
#470=CARTESIAN_POINT('',(-4.44321028403329E-015,-8.88642056806657E-015,72.5631306451268));
#471=DIRECTION('',(-6.12323399573677E-017,-1.22464679914735E-016,1.0));
#472=DIRECTION('',(-1.23259516440783E-032,1.0,1.22464679914735E-016));
#473=SURFACE_STYLE_FILL_AREA(#523);
#474=ORIENTED_EDGE('',*,*,#109,.F.);
#475=ORIENTED_EDGE('',*,*,#104,.T.);
#476=CARTESIAN_POINT('',(-1.12667505521554E-015,-2.25335011043107E-015,18.3999999999995));
#477=DIRECTION('',(-6.12323399573677E-017,-1.22464679914735E-016,1.0));
#478=DIRECTION('',(-1.23259516440783E-032,1.0,1.22464679914735E-016));
#479=CARTESIAN_POINT('',(-1.16341445918999E-015,-2.32682891837997E-015,19.0));
#480=DIRECTION('',(6.12323399573677E-017,1.22464679914735E-016,-1.0));
#481=DIRECTION('',(-1.23259516440783E-032,1.0,1.22464679914735E-016));
#482=SURFACE_STYLE_FILL_AREA(#524);
#483=ORIENTED_EDGE('',*,*,#70,.F.);
#484=ORIENTED_EDGE('',*,*,#52,.T.);
#485=CARTESIAN_POINT('',(-1.31649530908361E-015,-2.63299061816722E-015,21.5000000000034));
#486=DIRECTION('',(-6.12323399573676E-017,-1.22464679914735E-016,1.0));
#487=DIRECTION('',(-1.23259516440783E-032,1.0,1.22464679914735E-016));
#488=CARTESIAN_POINT('',(-1.08993565124109E-015,-2.17987130248217E-015,17.799999999999));
#489=DIRECTION('',(6.12323399573677E-017,1.22464679914735E-016,-1.0));
#490=DIRECTION('',(-1.23259516440783E-032,1.0,1.22464679914735E-016));
#491=SURFACE_STYLE_FILL_AREA(#525);
#492=ORIENTED_EDGE('',*,*,#66,.F.);
#493=ORIENTED_EDGE('',*,*,#96,.T.);
#494=CARTESIAN_POINT('',(-4.64221538889494E-015,-9.28443077778989E-015,75.8131306451303));
#495=DIRECTION('',(6.12323399573677E-017,1.22464679914735E-016,-1.0));
#496=DIRECTION('',(-1.23259516440783E-032,1.0,1.22464679914735E-016));
#497=SURFACE_STYLE_FILL_AREA(#526);
#498=ORIENTED_EDGE('',*,*,#56,.T.);
#499=CARTESIAN_POINT('',(1.23501642196633E-028,5.0,-2.01732904615911E-012));
#500=DIRECTION('',(6.12323399573677E-017,1.22464679914735E-016,-1.0));
#501=DIRECTION('',(-1.0,0.0,-6.12323399573677E-017));
#502=SURFACE_STYLE_FILL_AREA(#527);
#503=ORIENTED_EDGE('',*,*,#104,.F.);
#504=ORIENTED_EDGE('',*,*,#80,.T.);
#505=CARTESIAN_POINT('',(-1.22464679914735E-015,-2.44929359829471E-015,20.0));
#506=DIRECTION('',(-6.12323399573677E-017,-1.22464679914735E-016,1.0));
#507=DIRECTION('',(-1.23259516440783E-032,1.0,1.22464679914735E-016));
#508=SURFACE_STYLE_FILL_AREA(#528);
#509=ORIENTED_EDGE('',*,*,#64,.F.);
#510=ORIENTED_EDGE('',*,*,#54,.T.);
#511=CARTESIAN_POINT('',(-6.16915825070473E-015,-1.23383165014095E-014,100.749999999999));
#512=DIRECTION('',(-6.12323399573677E-017,-1.22464679914735E-016,1.0));
#513=DIRECTION('',(-1.23259516440783E-032,1.0,1.22464679914735E-016));
#514=FILL_AREA_STYLE('',(#529));
#515=FILL_AREA_STYLE('',(#530));
#516=FILL_AREA_STYLE('',(#531));
#517=FILL_AREA_STYLE('',(#532));
#518=FILL_AREA_STYLE('',(#533));
#519=FILL_AREA_STYLE('',(#534));
#520=FILL_AREA_STYLE('',(#535));
#521=FILL_AREA_STYLE('',(#536));
#522=FILL_AREA_STYLE('',(#537));
#523=FILL_AREA_STYLE('',(#538));
#524=FILL_AREA_STYLE('',(#539));
#525=FILL_AREA_STYLE('',(#540));
#526=FILL_AREA_STYLE('',(#541));
#527=FILL_AREA_STYLE('',(#542));
#528=FILL_AREA_STYLE('',(#543));
#529=FILL_AREA_STYLE_COLOUR('',#544);
#530=FILL_AREA_STYLE_COLOUR('',#545);
#531=FILL_AREA_STYLE_COLOUR('',#546);
#532=FILL_AREA_STYLE_COLOUR('',#547);
#533=FILL_AREA_STYLE_COLOUR('',#548);
#534=FILL_AREA_STYLE_COLOUR('',#549);
#535=FILL_AREA_STYLE_COLOUR('',#550);
#536=FILL_AREA_STYLE_COLOUR('',#551);
#537=FILL_AREA_STYLE_COLOUR('',#552);
#538=FILL_AREA_STYLE_COLOUR('',#553);
#539=FILL_AREA_STYLE_COLOUR('',#554);
#540=FILL_AREA_STYLE_COLOUR('',#555);
#541=FILL_AREA_STYLE_COLOUR('',#556);
#542=FILL_AREA_STYLE_COLOUR('',#557);
#543=FILL_AREA_STYLE_COLOUR('',#558);
#544=COLOUR_RGB('',0.0,1.0,1.0);
#545=COLOUR_RGB('',0.0,1.0,1.0);
#546=COLOUR_RGB('',0.0,1.0,1.0);
#547=COLOUR_RGB('',0.0,1.0,1.0);
#548=COLOUR_RGB('',0.0,1.0,1.0);
#549=COLOUR_RGB('',0.0,1.0,1.0);
#550=COLOUR_RGB('',0.0,1.0,1.0);
#551=COLOUR_RGB('',0.0,1.0,1.0);
#552=COLOUR_RGB('',0.0,1.0,1.0);
#553=COLOUR_RGB('',0.0,1.0,1.0);
#554=COLOUR_RGB('',0.0,1.0,1.0);
#555=COLOUR_RGB('',0.0,1.0,1.0);
#556=COLOUR_RGB('',0.0,1.0,1.0);
#557=COLOUR_RGB('',0.0,1.0,1.0);
#558=COLOUR_RGB('',0.0,1.0,1.0);
ENDSEC;
END-ISO-10303-21;
