ISO-10303-21;
HEADER;
FILE_DESCRIPTION((''),'1');
FILE_NAME('T:/02_3D_Field-HP\X2\FF71FF6FFF8CFF9F5916\X0\2013/02_Step_Field-HP\X2\FF71FF6FFF8CFF9F5916\X0\2013/MGT12-d-30_M6-12.stp','2017-02-08T06:03:00',(''),(''),'Spatial Interop R21 SP3','Kubotek KeyCreator 2011 V10.0.2 (22737)',' ');
FILE_SCHEMA(('automotive_design'));
ENDSEC;
DATA;
#1=MECHANICAL_DESIGN_GEOMETRIC_PRESENTATION_REPRESENTATION(' ',(#10,#11,#12,#13,#14,#15,#16,#17,#18,#19,#20,#21,#22,#23,#24,#25,#26,#27,#28,#29,#30,#31,#32,#33,#34,#35,#36,#37),#6);
#2=PRODUCT_DEFINITION_CONTEXT('',#38,'design');
#3=APPLICATION_PROTOCOL_DEFINITION('INTERNATIONAL STANDARD','automotive_design',1994,#38);
#4=PRODUCT_CATEGORY_RELATIONSHIP('NONE','NONE',#39,#40);
#5=SHAPE_DEFINITION_REPRESENTATION(#41,#42);
#6= (GEOMETRIC_REPRESENTATION_CONTEXT(3)GLOBAL_UNCERTAINTY_ASSIGNED_CONTEXT((#45))GLOBAL_UNIT_ASSIGNED_CONTEXT((#47,#48,#49))REPRESENTATION_CONTEXT('NONE','WORKSPACE'));
#10=STYLED_ITEM('',(#51),#52);
#11=STYLED_ITEM('',(#53),#54);
#12=STYLED_ITEM('',(#55,#56),#57);
#13=STYLED_ITEM('',(#58,#59),#60);
#14=STYLED_ITEM('',(#61,#62),#63);
#15=STYLED_ITEM('',(#64,#65),#66);
#16=STYLED_ITEM('',(#67,#68),#69);
#17=STYLED_ITEM('',(#70),#71);
#18=STYLED_ITEM('',(#72),#73);
#19=STYLED_ITEM('',(#74,#75),#76);
#20=STYLED_ITEM('',(#77),#78);
#21=STYLED_ITEM('',(#79,#80),#81);
#22=STYLED_ITEM('',(#82),#83);
#23=STYLED_ITEM('',(#84,#85),#86);
#24=STYLED_ITEM('',(#87,#88),#89);
#25=STYLED_ITEM('',(#90),#91);
#26=STYLED_ITEM('',(#92,#93),#94);
#27=STYLED_ITEM('',(#95),#96);
#28=STYLED_ITEM('',(#97),#98);
#29=STYLED_ITEM('',(#99),#100);
#30=STYLED_ITEM('',(#101,#102),#103);
#31=STYLED_ITEM('',(#104,#105),#106);
#32=STYLED_ITEM('',(#107),#108);
#33=STYLED_ITEM('',(#109,#110),#111);
#34=STYLED_ITEM('',(#112),#113);
#35=STYLED_ITEM('',(#114,#115),#116);
#36=STYLED_ITEM('',(#117,#118),#119);
#37=STYLED_ITEM('',(#120),#121);
#38=APPLICATION_CONTEXT(' ');
#39=PRODUCT_CATEGORY('part','NONE');
#40=PRODUCT_RELATED_PRODUCT_CATEGORY('detail',' ',(#122));
#41=PRODUCT_DEFINITION_SHAPE('NONE','NONE',#123);
#42=ADVANCED_BREP_SHAPE_REPRESENTATION('240[2]',(#89,#124),#6);
#45=UNCERTAINTY_MEASURE_WITH_UNIT(LENGTH_MEASURE(1.0E-006),#47,'','');
#47= (CONVERSION_BASED_UNIT('MILLIMETRE',#127)LENGTH_UNIT()NAMED_UNIT(#130));
#48= (NAMED_UNIT(#132)PLANE_ANGLE_UNIT()SI_UNIT($,.RADIAN.));
#49= (NAMED_UNIT(#132)SOLID_ANGLE_UNIT()SI_UNIT($,.STERADIAN.));
#51=PRESENTATION_STYLE_ASSIGNMENT((#138));
#52=EDGE_CURVE('240[2]',#139,#139,#140,.T.);
#53=PRESENTATION_STYLE_ASSIGNMENT((#141));
#54=EDGE_CURVE('240[2]',#142,#142,#143,.T.);
#55=PRESENTATION_STYLE_ASSIGNMENT((#144));
#56=PRESENTATION_STYLE_ASSIGNMENT((#145));
#57=ADVANCED_FACE('240[2]',(#146,#147),#148,.T.);
#58=PRESENTATION_STYLE_ASSIGNMENT((#149));
#59=PRESENTATION_STYLE_ASSIGNMENT((#150));
#60=ADVANCED_FACE('240[2]',(#151,#152),#153,.T.);
#61=PRESENTATION_STYLE_ASSIGNMENT((#154));
#62=PRESENTATION_STYLE_ASSIGNMENT((#155));
#63=ADVANCED_FACE('240[2]',(#156,#157),#158,.T.);
#64=PRESENTATION_STYLE_ASSIGNMENT((#159));
#65=PRESENTATION_STYLE_ASSIGNMENT((#160));
#66=ADVANCED_FACE('240[2]',(#161,#162),#163,.T.);
#67=PRESENTATION_STYLE_ASSIGNMENT((#164));
#68=PRESENTATION_STYLE_ASSIGNMENT((#165));
#69=ADVANCED_FACE('240[2]',(#166,#167),#168,.T.);
#70=PRESENTATION_STYLE_ASSIGNMENT((#169));
#71=EDGE_CURVE('240[2]',#170,#170,#171,.T.);
#72=PRESENTATION_STYLE_ASSIGNMENT((#172));
#73=EDGE_CURVE('240[2]',#173,#173,#174,.T.);
#74=PRESENTATION_STYLE_ASSIGNMENT((#175));
#75=PRESENTATION_STYLE_ASSIGNMENT((#176));
#76=ADVANCED_FACE('240[2]',(#177),#178,.T.);
#77=PRESENTATION_STYLE_ASSIGNMENT((#179));
#78=EDGE_CURVE('240[2]',#180,#180,#181,.T.);
#79=PRESENTATION_STYLE_ASSIGNMENT((#182));
#80=PRESENTATION_STYLE_ASSIGNMENT((#183));
#81=ADVANCED_FACE('240[2]',(#184,#185),#186,.T.);
#82=PRESENTATION_STYLE_ASSIGNMENT((#187));
#83=EDGE_CURVE('240[2]',#188,#188,#189,.T.);
#84=PRESENTATION_STYLE_ASSIGNMENT((#190));
#85=PRESENTATION_STYLE_ASSIGNMENT((#191));
#86=ADVANCED_FACE('240[2]',(#192,#193),#194,.T.);
#87=PRESENTATION_STYLE_ASSIGNMENT((#195));
#88=PRESENTATION_STYLE_ASSIGNMENT((#196));
#89=MANIFOLD_SOLID_BREP('240[2]',#197);
#90=PRESENTATION_STYLE_ASSIGNMENT((#198));
#91=EDGE_CURVE('240[2]',#199,#199,#200,.T.);
#92=PRESENTATION_STYLE_ASSIGNMENT((#201));
#93=PRESENTATION_STYLE_ASSIGNMENT((#202));
#94=ADVANCED_FACE('240[2]',(#203,#204),#205,.T.);
#95=PRESENTATION_STYLE_ASSIGNMENT((#206));
#96=EDGE_CURVE('240[2]',#207,#207,#208,.T.);
#97=PRESENTATION_STYLE_ASSIGNMENT((#209));
#98=EDGE_CURVE('240[2]',#210,#210,#211,.T.);
#99=PRESENTATION_STYLE_ASSIGNMENT((#212));
#100=EDGE_CURVE('240[2]',#213,#213,#214,.T.);
#101=PRESENTATION_STYLE_ASSIGNMENT((#215));
#102=PRESENTATION_STYLE_ASSIGNMENT((#216));
#103=ADVANCED_FACE('240[2]',(#217,#218),#219,.T.);
#104=PRESENTATION_STYLE_ASSIGNMENT((#220));
#105=PRESENTATION_STYLE_ASSIGNMENT((#221));
#106=ADVANCED_FACE('240[2]',(#222,#223),#224,.T.);
#107=PRESENTATION_STYLE_ASSIGNMENT((#225));
#108=EDGE_CURVE('240[2]',#226,#226,#227,.T.);
#109=PRESENTATION_STYLE_ASSIGNMENT((#228));
#110=PRESENTATION_STYLE_ASSIGNMENT((#229));
#111=ADVANCED_FACE('240[2]',(#230,#231),#232,.T.);
#112=PRESENTATION_STYLE_ASSIGNMENT((#233));
#113=EDGE_CURVE('240[2]',#234,#234,#235,.T.);
#114=PRESENTATION_STYLE_ASSIGNMENT((#236));
#115=PRESENTATION_STYLE_ASSIGNMENT((#237));
#116=ADVANCED_FACE('240[2]',(#238),#239,.T.);
#117=PRESENTATION_STYLE_ASSIGNMENT((#240));
#118=PRESENTATION_STYLE_ASSIGNMENT((#241));
#119=ADVANCED_FACE('240[2]',(#242,#243),#244,.T.);
#120=PRESENTATION_STYLE_ASSIGNMENT((#245));
#121=EDGE_CURVE('240[2]',#246,#246,#247,.T.);
#122=PRODUCT('240[2]','240[2]','PART-240[2]-DESC',(#248));
#123=PRODUCT_DEFINITION('NONE','NONE',#249,#2);
#124=AXIS2_PLACEMENT_3D('',#250,#251,#252);
#127=LENGTH_MEASURE_WITH_UNIT(LENGTH_MEASURE(1.0),#253);
#130=DIMENSIONAL_EXPONENTS(1.0,0.0,0.0,0.0,0.0,0.0,0.0);
#132=DIMENSIONAL_EXPONENTS(0.0,0.0,0.0,0.0,0.0,0.0,0.0);
#138=CURVE_STYLE('',#254,POSITIVE_LENGTH_MEASURE(1000.0),#255);
#139=VERTEX_POINT('',#256);
#140=CIRCLE('',#257,8.20000000000027);
#141=CURVE_STYLE('',#258,POSITIVE_LENGTH_MEASURE(1000.0),#259);
#142=VERTEX_POINT('',#260);
#143=CIRCLE('',#261,10.0);
#144=SURFACE_STYLE_USAGE(.BOTH.,#262);
#145=CURVE_STYLE('',#263,POSITIVE_LENGTH_MEASURE(1000.0),#264);
#146=FACE_BOUND('',#265,.T.);
#147=FACE_BOUND('',#266,.T.);
#148=CYLINDRICAL_SURFACE('',#267,8.20000000000027);
#149=SURFACE_STYLE_USAGE(.BOTH.,#268);
#150=CURVE_STYLE('',#269,POSITIVE_LENGTH_MEASURE(1000.0),#270);
#151=FACE_BOUND('',#271,.T.);
#152=FACE_BOUND('',#272,.T.);
#153=CYLINDRICAL_SURFACE('',#273,10.1499999999992);
#154=SURFACE_STYLE_USAGE(.BOTH.,#274);
#155=CURVE_STYLE('',#275,POSITIVE_LENGTH_MEASURE(1000.0),#276);
#156=FACE_BOUND('',#277,.T.);
#157=FACE_BOUND('',#278,.T.);
#158=CONICAL_SURFACE('',#279,13.2500000000022,0.349065850398911);
#159=SURFACE_STYLE_USAGE(.BOTH.,#280);
#160=CURVE_STYLE('',#281,POSITIVE_LENGTH_MEASURE(1000.0),#282);
#161=FACE_BOUND('',#283,.T.);
#162=FACE_BOUND('',#284,.T.);
#163=CONICAL_SURFACE('',#285,10.0749999999996,0.124354994546012);
#164=SURFACE_STYLE_USAGE(.BOTH.,#286);
#165=CURVE_STYLE('',#287,POSITIVE_LENGTH_MEASURE(1000.0),#288);
#166=FACE_OUTER_BOUND('',#289,.T.);
#167=FACE_BOUND('',#290,.T.);
#168=PLANE('',#291);
#169=CURVE_STYLE('',#292,POSITIVE_LENGTH_MEASURE(1000.0),#293);
#170=VERTEX_POINT('',#294);
#171=CIRCLE('',#295,13.0000000000009);
#172=CURVE_STYLE('',#296,POSITIVE_LENGTH_MEASURE(1000.0),#297);
#173=VERTEX_POINT('',#298);
#174=CIRCLE('',#299,13.4999999999995);
#175=SURFACE_STYLE_USAGE(.BOTH.,#300);
#176=CURVE_STYLE('',#301,POSITIVE_LENGTH_MEASURE(1000.0),#302);
#177=FACE_OUTER_BOUND('',#303,.T.);
#178=PLANE('',#304);
#179=CURVE_STYLE('',#305,POSITIVE_LENGTH_MEASURE(1000.0),#306);
#180=VERTEX_POINT('',#307);
#181=CIRCLE('',#308,13.5000000000035);
#182=SURFACE_STYLE_USAGE(.BOTH.,#309);
#183=CURVE_STYLE('',#310,POSITIVE_LENGTH_MEASURE(1000.0),#311);
#184=FACE_BOUND('',#312,.T.);
#185=FACE_BOUND('',#313,.T.);
#186=CYLINDRICAL_SURFACE('',#314,10.0);
#187=CURVE_STYLE('',#315,POSITIVE_LENGTH_MEASURE(1000.0),#316);
#188=VERTEX_POINT('',#317);
#189=CIRCLE('',#318,10.1499999999992);
#190=SURFACE_STYLE_USAGE(.BOTH.,#319);
#191=CURVE_STYLE('',#320,POSITIVE_LENGTH_MEASURE(1000.0),#321);
#192=FACE_BOUND('',#322,.T.);
#193=FACE_BOUND('',#323,.T.);
#194=CONICAL_SURFACE('',#324,11.7499999999998,1.30899693899569);
#195=SURFACE_STYLE_USAGE(.BOTH.,#325);
#196=CURVE_STYLE('',#326,POSITIVE_LENGTH_MEASURE(1000.0),#327);
#197=CLOSED_SHELL('',(#69,#76,#116,#119,#63,#103,#86,#81,#111,#57,#106,#60,#66,#94));
#198=CURVE_STYLE('',#328,POSITIVE_LENGTH_MEASURE(1000.0),#329);
#199=VERTEX_POINT('',#330);
#200=CIRCLE('',#331,10.0000000000017);
#201=SURFACE_STYLE_USAGE(.BOTH.,#332);
#202=CURVE_STYLE('',#333,POSITIVE_LENGTH_MEASURE(1000.0),#334);
#203=FACE_BOUND('',#335,.T.);
#204=FACE_BOUND('',#336,.T.);
#205=CYLINDRICAL_SURFACE('',#337,10.0);
#206=CURVE_STYLE('',#338,POSITIVE_LENGTH_MEASURE(1000.0),#339);
#207=VERTEX_POINT('',#340);
#208=CIRCLE('',#341,8.20000000000027);
#209=CURVE_STYLE('',#342,POSITIVE_LENGTH_MEASURE(1000.0),#343);
#210=VERTEX_POINT('',#344);
#211=CIRCLE('',#345,10.0);
#212=CURVE_STYLE('',#346,POSITIVE_LENGTH_MEASURE(1000.0),#347);
#213=VERTEX_POINT('',#348);
#214=CIRCLE('',#349,10.0);
#215=SURFACE_STYLE_USAGE(.BOTH.,#350);
#216=CURVE_STYLE('',#351,POSITIVE_LENGTH_MEASURE(1000.0),#352);
#217=FACE_BOUND('',#353,.T.);
#218=FACE_BOUND('',#354,.T.);
#219=CYLINDRICAL_SURFACE('',#355,13.5000000000015);
#220=SURFACE_STYLE_USAGE(.BOTH.,#356);
#221=CURVE_STYLE('',#357,POSITIVE_LENGTH_MEASURE(1000.0),#358);
#222=FACE_OUTER_BOUND('',#359,.T.);
#223=FACE_BOUND('',#360,.T.);
#224=PLANE('',#361);
#225=CURVE_STYLE('',#362,POSITIVE_LENGTH_MEASURE(1000.0),#363);
#226=VERTEX_POINT('',#364);
#227=CIRCLE('',#365,10.0);
#228=SURFACE_STYLE_USAGE(.BOTH.,#366);
#229=CURVE_STYLE('',#367,POSITIVE_LENGTH_MEASURE(1000.0),#368);
#230=FACE_OUTER_BOUND('',#369,.T.);
#231=FACE_BOUND('',#370,.T.);
#232=PLANE('',#371);
#233=CURVE_STYLE('',#372,POSITIVE_LENGTH_MEASURE(1000.0),#373);
#234=VERTEX_POINT('',#374);
#235=CIRCLE('',#375,10.1499999999992);
#236=SURFACE_STYLE_USAGE(.BOTH.,#376);
#237=CURVE_STYLE('',#377,POSITIVE_LENGTH_MEASURE(1000.0),#378);
#238=FACE_OUTER_BOUND('',#379,.T.);
#239=PLANE('',#380);
#240=SURFACE_STYLE_USAGE(.BOTH.,#381);
#241=CURVE_STYLE('',#382,POSITIVE_LENGTH_MEASURE(1000.0),#383);
#242=FACE_BOUND('',#384,.T.);
#243=FACE_BOUND('',#385,.T.);
#244=CYLINDRICAL_SURFACE('',#386,9.9999999999977);
#245=CURVE_STYLE('',#387,POSITIVE_LENGTH_MEASURE(1000.0),#388);
#246=VERTEX_POINT('',#389);
#247=CIRCLE('',#390,9.99999999999372);
#248=PRODUCT_CONTEXT('',#38,'mechanical');
#249=PRODUCT_DEFINITION_FORMATION_WITH_SPECIFIED_SOURCE(' ','NONE',#122,.NOT_KNOWN.);
#250=CARTESIAN_POINT('',(0.0,0.0,0.0));
#251=DIRECTION('',(0.0,0.0,1.0));
#252=DIRECTION('',(1.0,0.0,0.0));
#253= (NAMED_UNIT(#130)LENGTH_UNIT()SI_UNIT(.MILLI.,.METRE.));
#254=DRAUGHTING_PRE_DEFINED_CURVE_FONT('continuous');
#255=COLOUR_RGB('',0.0,1.0,1.0);
#256=CARTESIAN_POINT('',(-1.3471114790625E-015,8.20000000000027,22.0000000000068));
#257=AXIS2_PLACEMENT_3D('',#392,#393,#394);
#258=DRAUGHTING_PRE_DEFINED_CURVE_FONT('continuous');
#259=COLOUR_RGB('',0.0,1.0,1.0);
#260=CARTESIAN_POINT('',(-1.0899356512411E-015,10.0,17.7999999999993));
#261=AXIS2_PLACEMENT_3D('',#395,#396,#397);
#262=SURFACE_SIDE_STYLE('',(#398));
#263=DRAUGHTING_PRE_DEFINED_CURVE_FONT('continuous');
#264=COLOUR_RGB('',0.0,1.0,1.0);
#265=EDGE_LOOP('',(#399));
#266=EDGE_LOOP('',(#400));
#267=AXIS2_PLACEMENT_3D('',#401,#402,#403);
#268=SURFACE_SIDE_STYLE('',(#404));
#269=DRAUGHTING_PRE_DEFINED_CURVE_FONT('continuous');
#270=COLOUR_RGB('',0.0,1.0,1.0);
#271=EDGE_LOOP('',(#405));
#272=EDGE_LOOP('',(#406));
#273=AXIS2_PLACEMENT_3D('',#407,#408,#409);
#274=SURFACE_SIDE_STYLE('',(#410));
#275=DRAUGHTING_PRE_DEFINED_CURVE_FONT('continuous');
#276=COLOUR_RGB('',0.0,1.0,1.0);
#277=EDGE_LOOP('',(#411));
#278=EDGE_LOOP('',(#412));
#279=AXIS2_PLACEMENT_3D('',#413,#414,#415);
#280=SURFACE_SIDE_STYLE('',(#416));
#281=DRAUGHTING_PRE_DEFINED_CURVE_FONT('continuous');
#282=COLOUR_RGB('',0.0,1.0,1.0);
#283=EDGE_LOOP('',(#417));
#284=EDGE_LOOP('',(#418));
#285=AXIS2_PLACEMENT_3D('',#419,#420,#421);
#286=SURFACE_SIDE_STYLE('',(#422));
#287=DRAUGHTING_PRE_DEFINED_CURVE_FONT('continuous');
#288=COLOUR_RGB('',0.0,1.0,1.0);
#289=EDGE_LOOP('',(#423));
#290=EDGE_LOOP('',(#424));
#291=AXIS2_PLACEMENT_3D('',#425,#426,#427);
#292=DRAUGHTING_PRE_DEFINED_CURVE_FONT('continuous');
#293=COLOUR_RGB('',0.0,1.0,1.0);
#294=CARTESIAN_POINT('',(-2.23498040844376E-015,13.0000000000009,36.4999999999974));
#295=AXIS2_PLACEMENT_3D('',#428,#429,#430);
#296=DRAUGHTING_PRE_DEFINED_CURVE_FONT('continuous');
#297=COLOUR_RGB('',0.0,1.0,1.0);
#298=CARTESIAN_POINT('',(-1.83697019872044E-015,13.4999999999995,29.9999999999904));
#299=AXIS2_PLACEMENT_3D('',#431,#432,#433);
#300=SURFACE_SIDE_STYLE('',(#434));
#301=DRAUGHTING_PRE_DEFINED_CURVE_FONT('continuous');
#302=COLOUR_RGB('',0.0,1.0,1.0);
#303=EDGE_LOOP('',(#435));
#304=AXIS2_PLACEMENT_3D('',#436,#437,#438);
#305=DRAUGHTING_PRE_DEFINED_CURVE_FONT('continuous');
#306=COLOUR_RGB('',0.0,1.0,1.0);
#307=CARTESIAN_POINT('',(-2.15086317275672E-015,13.5000000000035,35.1262612902631));
#308=AXIS2_PLACEMENT_3D('',#439,#440,#441);
#309=SURFACE_SIDE_STYLE('',(#442));
#310=DRAUGHTING_PRE_DEFINED_CURVE_FONT('continuous');
#311=COLOUR_RGB('',0.0,1.0,1.0);
#312=EDGE_LOOP('',(#443));
#313=EDGE_LOOP('',(#444));
#314=AXIS2_PLACEMENT_3D('',#445,#446,#447);
#315=DRAUGHTING_PRE_DEFINED_CURVE_FONT('continuous');
#316=COLOUR_RGB('',0.0,1.0,1.0);
#317=CARTESIAN_POINT('',(-1.28587913910472E-015,10.1499999999992,21.0));
#318=AXIS2_PLACEMENT_3D('',#448,#449,#450);
#319=SURFACE_SIDE_STYLE('',(#451));
#320=DRAUGHTING_PRE_DEFINED_CURVE_FONT('continuous');
#321=COLOUR_RGB('',0.0,1.0,1.0);
#322=EDGE_LOOP('',(#452));
#323=EDGE_LOOP('',(#453));
#324=AXIS2_PLACEMENT_3D('',#454,#455,#456);
#325=SURFACE_SIDE_STYLE('',(#457));
#326=DRAUGHTING_PRE_DEFINED_CURVE_FONT('continuous');
#327=COLOUR_RGB('',0.0,1.0,1.0);
#328=DRAUGHTING_PRE_DEFINED_CURVE_FONT('continuous');
#329=COLOUR_RGB('',0.0,1.0,1.0);
#330=CARTESIAN_POINT('',(-4.95981953654672E-015,10.0000000000017,80.9999999999989));
#331=AXIS2_PLACEMENT_3D('',#458,#459,#460);
#332=SURFACE_SIDE_STYLE('',(#461));
#333=DRAUGHTING_PRE_DEFINED_CURVE_FONT('continuous');
#334=COLOUR_RGB('',0.0,1.0,1.0);
#335=EDGE_LOOP('',(#462));
#336=EDGE_LOOP('',(#463));
#337=AXIS2_PLACEMENT_3D('',#464,#465,#466);
#338=DRAUGHTING_PRE_DEFINED_CURVE_FONT('continuous');
#339=COLOUR_RGB('',0.0,1.0,1.0);
#340=CARTESIAN_POINT('',(-1.28587913910472E-015,8.20000000000027,21.0));
#341=AXIS2_PLACEMENT_3D('',#467,#468,#469);
#342=DRAUGHTING_PRE_DEFINED_CURVE_FONT('continuous');
#343=COLOUR_RGB('',0.0,1.0,1.0);
#344=CARTESIAN_POINT('',(-1.34711147906161E-015,10.0,21.9999999999922));
#345=AXIS2_PLACEMENT_3D('',#470,#471,#472);
#346=DRAUGHTING_PRE_DEFINED_CURVE_FONT('continuous');
#347=COLOUR_RGB('',0.0,1.0,1.0);
#348=CARTESIAN_POINT('',(-1.77954515257258E-015,10.0,29.0621778264814));
#349=AXIS2_PLACEMENT_3D('',#473,#474,#475);
#350=SURFACE_SIDE_STYLE('',(#476));
#351=DRAUGHTING_PRE_DEFINED_CURVE_FONT('continuous');
#352=COLOUR_RGB('',0.0,1.0,1.0);
#353=EDGE_LOOP('',(#477));
#354=EDGE_LOOP('',(#478));
#355=AXIS2_PLACEMENT_3D('',#479,#480,#481);
#356=SURFACE_SIDE_STYLE('',(#482));
#357=DRAUGHTING_PRE_DEFINED_CURVE_FONT('continuous');
#358=COLOUR_RGB('',0.0,1.0,1.0);
#359=EDGE_LOOP('',(#483));
#360=EDGE_LOOP('',(#484));
#361=AXIS2_PLACEMENT_3D('',#485,#486,#487);
#362=DRAUGHTING_PRE_DEFINED_CURVE_FONT('continuous');
#363=COLOUR_RGB('',0.0,1.0,1.0);
#364=CARTESIAN_POINT('',(1.39320503376272E-028,10.0,-2.27606482131197E-012));
#365=AXIS2_PLACEMENT_3D('',#488,#489,#490);
#366=SURFACE_SIDE_STYLE('',(#491));
#367=DRAUGHTING_PRE_DEFINED_CURVE_FONT('continuous');
#368=COLOUR_RGB('',0.0,1.0,1.0);
#369=EDGE_LOOP('',(#492));
#370=EDGE_LOOP('',(#493));
#371=AXIS2_PLACEMENT_3D('',#494,#495,#496);
#372=DRAUGHTING_PRE_DEFINED_CURVE_FONT('continuous');
#373=COLOUR_RGB('',0.0,1.0,1.0);
#374=CARTESIAN_POINT('',(-1.16341445918999E-015,10.1499999999992,19.0));
#375=AXIS2_PLACEMENT_3D('',#497,#498,#499);
#376=SURFACE_SIDE_STYLE('',(#500));
#377=DRAUGHTING_PRE_DEFINED_CURVE_FONT('continuous');
#378=COLOUR_RGB('',0.0,1.0,1.0);
#379=EDGE_LOOP('',(#501));
#380=AXIS2_PLACEMENT_3D('',#502,#503,#504);
#381=SURFACE_SIDE_STYLE('',(#505));
#382=DRAUGHTING_PRE_DEFINED_CURVE_FONT('continuous');
#383=COLOUR_RGB('',0.0,1.0,1.0);
#384=EDGE_LOOP('',(#506));
#385=EDGE_LOOP('',(#507));
#386=AXIS2_PLACEMENT_3D('',#508,#509,#510);
#387=DRAUGHTING_PRE_DEFINED_CURVE_FONT('continuous');
#388=COLOUR_RGB('',0.0,1.0,1.0);
#389=CARTESIAN_POINT('',(-2.47990976827333E-015,9.99999999999372,36.4999999999974));
#390=AXIS2_PLACEMENT_3D('',#511,#512,#513);
#392=CARTESIAN_POINT('',(-1.3471114790625E-015,-2.694222958125E-015,22.0000000000068));
#393=DIRECTION('',(6.12323399573677E-017,1.22464679914735E-016,-1.0));
#394=DIRECTION('',(-1.23259516440783E-032,1.0,1.22464679914735E-016));
#395=CARTESIAN_POINT('',(-1.0899356512411E-015,-2.1798713024822E-015,17.7999999999993));
#396=DIRECTION('',(6.12323399573677E-017,1.22464679914735E-016,-1.0));
#397=DIRECTION('',(-1.23259516440783E-032,1.0,1.22464679914735E-016));
#398=SURFACE_STYLE_FILL_AREA(#514);
#399=ORIENTED_EDGE('',*,*,#96,.F.);
#400=ORIENTED_EDGE('',*,*,#52,.T.);
#401=CARTESIAN_POINT('',(-1.31649530908361E-015,-2.63299061816722E-015,21.5000000000034));
#402=DIRECTION('',(6.12323399573677E-017,1.22464679914735E-016,-1.0));
#403=DIRECTION('',(-1.23259516440783E-032,1.0,1.22464679914735E-016));
#404=SURFACE_STYLE_FILL_AREA(#515);
#405=ORIENTED_EDGE('',*,*,#113,.F.);
#406=ORIENTED_EDGE('',*,*,#83,.T.);
#407=CARTESIAN_POINT('',(-1.22464679914735E-015,-2.44929359829471E-015,20.0));
#408=DIRECTION('',(6.12323399573677E-017,1.22464679914735E-016,-1.0));
#409=DIRECTION('',(-1.23259516440783E-032,1.0,1.22464679914735E-016));
#410=SURFACE_STYLE_FILL_AREA(#516);
#411=ORIENTED_EDGE('',*,*,#78,.F.);
#412=ORIENTED_EDGE('',*,*,#71,.T.);
#413=CARTESIAN_POINT('',(-2.19292179060024E-015,-4.38584358120047E-015,35.8131306451303));
#414=DIRECTION('',(6.12323399573677E-017,1.22464679914735E-016,-1.0));
#415=DIRECTION('',(-1.23259516440783E-032,1.0,1.22464679914735E-016));
#416=SURFACE_STYLE_FILL_AREA(#517);
#417=ORIENTED_EDGE('',*,*,#54,.F.);
#418=ORIENTED_EDGE('',*,*,#113,.T.);
#419=CARTESIAN_POINT('',(-1.12667505521554E-015,-2.25335011043108E-015,18.3999999999996));
#420=DIRECTION('',(-6.12323399573677E-017,-1.22464679914735E-016,1.0));
#421=DIRECTION('',(-1.23259516440783E-032,1.0,1.22464679914735E-016));
#422=SURFACE_STYLE_FILL_AREA(#518);
#423=ORIENTED_EDGE('',*,*,#71,.F.);
#424=ORIENTED_EDGE('',*,*,#121,.T.);
#425=CARTESIAN_POINT('',(-9.84184850476291,1.77144517532171,36.4999999999974));
#426=DIRECTION('',(0.0,0.0,1.0));
#427=DIRECTION('',(-1.0,0.0,0.0));
#428=CARTESIAN_POINT('',(-2.23498040844376E-015,-4.46996081688752E-015,36.4999999999974));
#429=DIRECTION('',(6.12323399573677E-017,1.22464679914735E-016,-1.0));
#430=DIRECTION('',(-1.23259516440783E-032,1.0,1.22464679914735E-016));
#431=CARTESIAN_POINT('',(-1.83697019872044E-015,-3.67394039744088E-015,29.9999999999904));
#432=DIRECTION('',(6.12323399573677E-017,1.22464679914735E-016,-1.0));
#433=DIRECTION('',(-1.23259516440783E-032,1.0,1.22464679914735E-016));
#434=SURFACE_STYLE_FILL_AREA(#519);
#435=ORIENTED_EDGE('',*,*,#108,.T.);
#436=CARTESIAN_POINT('',(1.39382133134493E-028,5.0,-2.27667714471155E-012));
#437=DIRECTION('',(6.12323399573677E-017,1.22464679914735E-016,-1.0));
#438=DIRECTION('',(-1.0,0.0,-6.12323399573677E-017));
#439=CARTESIAN_POINT('',(-2.15086317275672E-015,-4.30172634551343E-015,35.1262612902631));
#440=DIRECTION('',(6.12323399573677E-017,1.22464679914735E-016,-1.0));
#441=DIRECTION('',(-1.23259516440783E-032,1.0,1.22464679914735E-016));
#442=SURFACE_STYLE_FILL_AREA(#520);
#443=ORIENTED_EDGE('',*,*,#98,.F.);
#444=ORIENTED_EDGE('',*,*,#100,.T.);
#445=CARTESIAN_POINT('',(-1.5633283158171E-015,-3.12665663163419E-015,25.5310889132368));
#446=DIRECTION('',(6.12323399573677E-017,1.22464679914735E-016,-1.0));
#447=DIRECTION('',(-1.23259516440783E-032,1.0,1.22464679914735E-016));
#448=CARTESIAN_POINT('',(-1.28587913910472E-015,-2.57175827820944E-015,21.0));
#449=DIRECTION('',(6.12323399573677E-017,1.22464679914735E-016,-1.0));
#450=DIRECTION('',(-1.23259516440783E-032,1.0,1.22464679914735E-016));
#451=SURFACE_STYLE_FILL_AREA(#521);
#452=ORIENTED_EDGE('',*,*,#100,.F.);
#453=ORIENTED_EDGE('',*,*,#73,.T.);
#454=CARTESIAN_POINT('',(-1.80825767564651E-015,-3.61651535129302E-015,29.5310889132359));
#455=DIRECTION('',(-6.12323399573677E-017,-1.22464679914735E-016,1.0));
#456=DIRECTION('',(-1.23259516440783E-032,1.0,1.22464679914735E-016));
#457=SURFACE_STYLE_FILL_AREA(#522);
#458=CARTESIAN_POINT('',(-4.95981953654672E-015,-9.91963907309343E-015,80.9999999999989));
#459=DIRECTION('',(6.12323399573677E-017,1.22464679914735E-016,-1.0));
#460=DIRECTION('',(-1.23259516440783E-032,1.0,1.22464679914735E-016));
#461=SURFACE_STYLE_FILL_AREA(#523);
#462=ORIENTED_EDGE('',*,*,#108,.F.);
#463=ORIENTED_EDGE('',*,*,#54,.T.);
#464=CARTESIAN_POINT('',(-5.4496782562048E-016,-1.08993565124096E-015,8.89999999999849));
#465=DIRECTION('',(6.12323399573677E-017,1.22464679914735E-016,-1.0));
#466=DIRECTION('',(-1.23259516440783E-032,1.0,1.22464679914735E-016));
#467=CARTESIAN_POINT('',(-1.28587913910472E-015,-2.57175827820944E-015,21.0));
#468=DIRECTION('',(6.12323399573677E-017,1.22464679914735E-016,-1.0));
#469=DIRECTION('',(-1.23259516440783E-032,1.0,1.22464679914735E-016));
#470=CARTESIAN_POINT('',(-1.34711147906161E-015,-2.69422295812322E-015,21.9999999999922));
#471=DIRECTION('',(6.12323399573677E-017,1.22464679914735E-016,-1.0));
#472=DIRECTION('',(-1.23259516440783E-032,1.0,1.22464679914735E-016));
#473=CARTESIAN_POINT('',(-1.77954515257258E-015,-3.55909030514516E-015,29.0621778264814));
#474=DIRECTION('',(6.12323399573677E-017,1.22464679914735E-016,-1.0));
#475=DIRECTION('',(-1.23259516440783E-032,1.0,1.22464679914735E-016));
#476=SURFACE_STYLE_FILL_AREA(#524);
#477=ORIENTED_EDGE('',*,*,#73,.F.);
#478=ORIENTED_EDGE('',*,*,#78,.T.);
#479=CARTESIAN_POINT('',(-1.99391668573858E-015,-3.98783337147716E-015,32.5631306451268));
#480=DIRECTION('',(6.12323399573677E-017,1.22464679914735E-016,-1.0));
#481=DIRECTION('',(-1.23259516440783E-032,1.0,1.22464679914735E-016));
#482=SURFACE_STYLE_FILL_AREA(#525);
#483=ORIENTED_EDGE('',*,*,#83,.F.);
#484=ORIENTED_EDGE('',*,*,#96,.T.);
#485=CARTESIAN_POINT('',(-1.28587913910472E-015,9.17499999999973,21.0));
#486=DIRECTION('',(7.49879891330927E-033,-1.22464679914735E-016,1.0));
#487=DIRECTION('',(1.0,6.12323399573677E-017,0.0));
#488=CARTESIAN_POINT('',(1.39443762892713E-028,2.78887525785426E-028,-2.27728946811112E-012));
#489=DIRECTION('',(6.12323399573677E-017,1.22464679914735E-016,-1.0));
#490=DIRECTION('',(-1.23259516440783E-032,1.0,1.22464679914735E-016));
#491=SURFACE_STYLE_FILL_AREA(#526);
#492=ORIENTED_EDGE('',*,*,#98,.T.);
#493=ORIENTED_EDGE('',*,*,#52,.F.);
#494=CARTESIAN_POINT('',(-1.34711147906206E-015,9.10000000000013,21.9999999999995));
#495=DIRECTION('',(6.12323399573677E-017,-8.08427488441401E-012,-1.0));
#496=DIRECTION('',(0.0,-1.0,8.08427488441401E-012));
#497=CARTESIAN_POINT('',(-1.16341445918999E-015,-2.32682891837997E-015,19.0));
#498=DIRECTION('',(6.12323399573677E-017,1.22464679914735E-016,-1.0));
#499=DIRECTION('',(-1.23259516440783E-032,1.0,1.22464679914735E-016));
#500=SURFACE_STYLE_FILL_AREA(#527);
#501=ORIENTED_EDGE('',*,*,#91,.F.);
#502=CARTESIAN_POINT('',(-4.95981953654672E-015,5.00000000000083,80.9999999999989));
#503=DIRECTION('',(-7.95175897872774E-032,1.29862079160523E-015,1.0));
#504=DIRECTION('',(1.0,6.12323399573677E-017,0.0));
#505=SURFACE_STYLE_FILL_AREA(#528);
#506=ORIENTED_EDGE('',*,*,#121,.F.);
#507=ORIENTED_EDGE('',*,*,#91,.T.);
#508=CARTESIAN_POINT('',(-3.71986465241002E-015,-7.43972930482004E-015,60.7499999999989));
#509=DIRECTION('',(6.12323399573677E-017,1.22464679914735E-016,-1.0));
#510=DIRECTION('',(-1.23259516440783E-032,1.0,1.22464679914735E-016));
#511=CARTESIAN_POINT('',(-2.47990976827333E-015,-4.95981953654665E-015,36.4999999999974));
#512=DIRECTION('',(6.12323399573677E-017,1.22464679914735E-016,-1.0));
#513=DIRECTION('',(-1.23259516440783E-032,1.0,1.22464679914735E-016));
#514=FILL_AREA_STYLE('',(#529));
#515=FILL_AREA_STYLE('',(#530));
#516=FILL_AREA_STYLE('',(#531));
#517=FILL_AREA_STYLE('',(#532));
#518=FILL_AREA_STYLE('',(#533));
#519=FILL_AREA_STYLE('',(#534));
#520=FILL_AREA_STYLE('',(#535));
#521=FILL_AREA_STYLE('',(#536));
#522=FILL_AREA_STYLE('',(#537));
#523=FILL_AREA_STYLE('',(#538));
#524=FILL_AREA_STYLE('',(#539));
#525=FILL_AREA_STYLE('',(#540));
#526=FILL_AREA_STYLE('',(#541));
#527=FILL_AREA_STYLE('',(#542));
#528=FILL_AREA_STYLE('',(#543));
#529=FILL_AREA_STYLE_COLOUR('',#544);
#530=FILL_AREA_STYLE_COLOUR('',#545);
#531=FILL_AREA_STYLE_COLOUR('',#546);
#532=FILL_AREA_STYLE_COLOUR('',#547);
#533=FILL_AREA_STYLE_COLOUR('',#548);
#534=FILL_AREA_STYLE_COLOUR('',#549);
#535=FILL_AREA_STYLE_COLOUR('',#550);
#536=FILL_AREA_STYLE_COLOUR('',#551);
#537=FILL_AREA_STYLE_COLOUR('',#552);
#538=FILL_AREA_STYLE_COLOUR('',#553);
#539=FILL_AREA_STYLE_COLOUR('',#554);
#540=FILL_AREA_STYLE_COLOUR('',#555);
#541=FILL_AREA_STYLE_COLOUR('',#556);
#542=FILL_AREA_STYLE_COLOUR('',#557);
#543=FILL_AREA_STYLE_COLOUR('',#558);
#544=COLOUR_RGB('',0.0,1.0,1.0);
#545=COLOUR_RGB('',0.0,1.0,1.0);
#546=COLOUR_RGB('',0.0,1.0,1.0);
#547=COLOUR_RGB('',0.0,1.0,1.0);
#548=COLOUR_RGB('',0.0,1.0,1.0);
#549=COLOUR_RGB('',0.0,1.0,1.0);
#550=COLOUR_RGB('',0.0,1.0,1.0);
#551=COLOUR_RGB('',0.0,1.0,1.0);
#552=COLOUR_RGB('',0.0,1.0,1.0);
#553=COLOUR_RGB('',0.0,1.0,1.0);
#554=COLOUR_RGB('',0.0,1.0,1.0);
#555=COLOUR_RGB('',0.0,1.0,1.0);
#556=COLOUR_RGB('',0.0,1.0,1.0);
#557=COLOUR_RGB('',0.0,1.0,1.0);
#558=COLOUR_RGB('',0.0,1.0,1.0);
ENDSEC;
END-ISO-10303-21;
