ISO-10303-21;
HEADER;
FILE_DESCRIPTION((''),'1');
FILE_NAME('T:/02_3D_Field-HP\X2\FF71FF6FFF8CFF9F5916\X0\2013/02_Step_Field-HP\X2\FF71FF6FFF8CFF9F5916\X0\2013/MGT12-d-30_060049-090071.stp','2017-02-08T07:49:38',(''),(''),'Spatial Interop R21 SP3','Kubotek KeyCreator 2011 V10.0.2 (22737)',' ');
FILE_SCHEMA(('automotive_design'));
ENDSEC;
DATA;
#1=MECHANICAL_DESIGN_GEOMETRIC_PRESENTATION_REPRESENTATION(' ',(#10,#11,#12,#13,#14,#15,#16,#17,#18,#19,#20,#21,#22,#23,#24,#25,#26,#27,#28,#29,#30,#31,#32,#33,#34,#35,#36,#37),#6);
#2=PRODUCT_DEFINITION_CONTEXT('',#38,'design');
#3=APPLICATION_PROTOCOL_DEFINITION('INTERNATIONAL STANDARD','automotive_design',1994,#38);
#4=PRODUCT_CATEGORY_RELATIONSHIP('NONE','NONE',#39,#40);
#5=SHAPE_DEFINITION_REPRESENTATION(#41,#42);
#6= (GEOMETRIC_REPRESENTATION_CONTEXT(3)GLOBAL_UNCERTAINTY_ASSIGNED_CONTEXT((#45))GLOBAL_UNIT_ASSIGNED_CONTEXT((#47,#48,#49))REPRESENTATION_CONTEXT('NONE','WORKSPACE'));
#10=STYLED_ITEM('',(#51),#52);
#11=STYLED_ITEM('',(#53,#54),#55);
#12=STYLED_ITEM('',(#56),#57);
#13=STYLED_ITEM('',(#58,#59),#60);
#14=STYLED_ITEM('',(#61,#62),#63);
#15=STYLED_ITEM('',(#64,#65),#66);
#16=STYLED_ITEM('',(#67),#68);
#17=STYLED_ITEM('',(#69,#70),#71);
#18=STYLED_ITEM('',(#72,#73),#74);
#19=STYLED_ITEM('',(#75,#76),#77);
#20=STYLED_ITEM('',(#78),#79);
#21=STYLED_ITEM('',(#80,#81),#82);
#22=STYLED_ITEM('',(#83,#84),#85);
#23=STYLED_ITEM('',(#86),#87);
#24=STYLED_ITEM('',(#88),#89);
#25=STYLED_ITEM('',(#90,#91),#92);
#26=STYLED_ITEM('',(#93,#94),#95);
#27=STYLED_ITEM('',(#96,#97),#98);
#28=STYLED_ITEM('',(#99),#100);
#29=STYLED_ITEM('',(#101),#102);
#30=STYLED_ITEM('',(#103),#104);
#31=STYLED_ITEM('',(#105),#106);
#32=STYLED_ITEM('',(#107,#108),#109);
#33=STYLED_ITEM('',(#110,#111),#112);
#34=STYLED_ITEM('',(#113),#114);
#35=STYLED_ITEM('',(#115),#116);
#36=STYLED_ITEM('',(#117),#118);
#37=STYLED_ITEM('',(#119,#120),#121);
#38=APPLICATION_CONTEXT(' ');
#39=PRODUCT_CATEGORY('part','NONE');
#40=PRODUCT_RELATED_PRODUCT_CATEGORY('detail',' ',(#122));
#41=PRODUCT_DEFINITION_SHAPE('NONE','NONE',#123);
#42=ADVANCED_BREP_SHAPE_REPRESENTATION('240[2]',(#55,#124),#6);
#45=UNCERTAINTY_MEASURE_WITH_UNIT(LENGTH_MEASURE(1.0E-006),#47,'','');
#47= (CONVERSION_BASED_UNIT('MILLIMETRE',#127)LENGTH_UNIT()NAMED_UNIT(#130));
#48= (NAMED_UNIT(#132)PLANE_ANGLE_UNIT()SI_UNIT($,.RADIAN.));
#49= (NAMED_UNIT(#132)SOLID_ANGLE_UNIT()SI_UNIT($,.STERADIAN.));
#51=PRESENTATION_STYLE_ASSIGNMENT((#138));
#52=EDGE_CURVE('240[2]',#139,#139,#140,.T.);
#53=PRESENTATION_STYLE_ASSIGNMENT((#141));
#54=PRESENTATION_STYLE_ASSIGNMENT((#142));
#55=MANIFOLD_SOLID_BREP('240[2]',#143);
#56=PRESENTATION_STYLE_ASSIGNMENT((#144));
#57=EDGE_CURVE('240[2]',#145,#145,#146,.T.);
#58=PRESENTATION_STYLE_ASSIGNMENT((#147));
#59=PRESENTATION_STYLE_ASSIGNMENT((#148));
#60=ADVANCED_FACE('240[2]',(#149),#150,.T.);
#61=PRESENTATION_STYLE_ASSIGNMENT((#151));
#62=PRESENTATION_STYLE_ASSIGNMENT((#152));
#63=ADVANCED_FACE('240[2]',(#153,#154),#155,.T.);
#64=PRESENTATION_STYLE_ASSIGNMENT((#156));
#65=PRESENTATION_STYLE_ASSIGNMENT((#157));
#66=ADVANCED_FACE('240[2]',(#158,#159),#160,.T.);
#67=PRESENTATION_STYLE_ASSIGNMENT((#161));
#68=EDGE_CURVE('240[2]',#162,#162,#163,.T.);
#69=PRESENTATION_STYLE_ASSIGNMENT((#164));
#70=PRESENTATION_STYLE_ASSIGNMENT((#165));
#71=ADVANCED_FACE('240[2]',(#166,#167),#168,.T.);
#72=PRESENTATION_STYLE_ASSIGNMENT((#169));
#73=PRESENTATION_STYLE_ASSIGNMENT((#170));
#74=ADVANCED_FACE('240[2]',(#171,#172),#173,.T.);
#75=PRESENTATION_STYLE_ASSIGNMENT((#174));
#76=PRESENTATION_STYLE_ASSIGNMENT((#175));
#77=ADVANCED_FACE('240[2]',(#176,#177),#178,.T.);
#78=PRESENTATION_STYLE_ASSIGNMENT((#179));
#79=EDGE_CURVE('240[2]',#180,#180,#181,.T.);
#80=PRESENTATION_STYLE_ASSIGNMENT((#182));
#81=PRESENTATION_STYLE_ASSIGNMENT((#183));
#82=ADVANCED_FACE('240[2]',(#184,#185),#186,.T.);
#83=PRESENTATION_STYLE_ASSIGNMENT((#187));
#84=PRESENTATION_STYLE_ASSIGNMENT((#188));
#85=ADVANCED_FACE('240[2]',(#189,#190),#191,.T.);
#86=PRESENTATION_STYLE_ASSIGNMENT((#192));
#87=EDGE_CURVE('240[2]',#193,#193,#194,.T.);
#88=PRESENTATION_STYLE_ASSIGNMENT((#195));
#89=EDGE_CURVE('240[2]',#196,#196,#197,.T.);
#90=PRESENTATION_STYLE_ASSIGNMENT((#198));
#91=PRESENTATION_STYLE_ASSIGNMENT((#199));
#92=ADVANCED_FACE('240[2]',(#200,#201),#202,.T.);
#93=PRESENTATION_STYLE_ASSIGNMENT((#203));
#94=PRESENTATION_STYLE_ASSIGNMENT((#204));
#95=ADVANCED_FACE('240[2]',(#205,#206),#207,.T.);
#96=PRESENTATION_STYLE_ASSIGNMENT((#208));
#97=PRESENTATION_STYLE_ASSIGNMENT((#209));
#98=ADVANCED_FACE('240[2]',(#210,#211),#212,.T.);
#99=PRESENTATION_STYLE_ASSIGNMENT((#213));
#100=EDGE_CURVE('240[2]',#214,#214,#215,.T.);
#101=PRESENTATION_STYLE_ASSIGNMENT((#216));
#102=EDGE_CURVE('240[2]',#217,#217,#218,.T.);
#103=PRESENTATION_STYLE_ASSIGNMENT((#219));
#104=EDGE_CURVE('240[2]',#220,#220,#221,.T.);
#105=PRESENTATION_STYLE_ASSIGNMENT((#222));
#106=EDGE_CURVE('240[2]',#223,#223,#224,.T.);
#107=PRESENTATION_STYLE_ASSIGNMENT((#225));
#108=PRESENTATION_STYLE_ASSIGNMENT((#226));
#109=ADVANCED_FACE('240[2]',(#227,#228),#229,.T.);
#110=PRESENTATION_STYLE_ASSIGNMENT((#230));
#111=PRESENTATION_STYLE_ASSIGNMENT((#231));
#112=ADVANCED_FACE('240[2]',(#232),#233,.T.);
#113=PRESENTATION_STYLE_ASSIGNMENT((#234));
#114=EDGE_CURVE('240[2]',#235,#235,#236,.T.);
#115=PRESENTATION_STYLE_ASSIGNMENT((#237));
#116=EDGE_CURVE('240[2]',#238,#238,#239,.T.);
#117=PRESENTATION_STYLE_ASSIGNMENT((#240));
#118=EDGE_CURVE('240[2]',#241,#241,#242,.T.);
#119=PRESENTATION_STYLE_ASSIGNMENT((#243));
#120=PRESENTATION_STYLE_ASSIGNMENT((#244));
#121=ADVANCED_FACE('240[2]',(#245,#246),#247,.T.);
#122=PRODUCT('240[2]','240[2]','PART-240[2]-DESC',(#248));
#123=PRODUCT_DEFINITION('NONE','NONE',#249,#2);
#124=AXIS2_PLACEMENT_3D('',#250,#251,#252);
#127=LENGTH_MEASURE_WITH_UNIT(LENGTH_MEASURE(1.0),#253);
#130=DIMENSIONAL_EXPONENTS(1.0,0.0,0.0,0.0,0.0,0.0,0.0);
#132=DIMENSIONAL_EXPONENTS(0.0,0.0,0.0,0.0,0.0,0.0,0.0);
#138=CURVE_STYLE('',#254,POSITIVE_LENGTH_MEASURE(1000.0),#255);
#139=VERTEX_POINT('',#256);
#140=CIRCLE('',#257,10.0);
#141=SURFACE_STYLE_USAGE(.BOTH.,#258);
#142=CURVE_STYLE('',#259,POSITIVE_LENGTH_MEASURE(1000.0),#260);
#143=CLOSED_SHELL('',(#92,#112,#60,#71,#82,#95,#74,#63,#98,#121,#66,#77,#85,#109));
#144=CURVE_STYLE('',#261,POSITIVE_LENGTH_MEASURE(1000.0),#262);
#145=VERTEX_POINT('',#263);
#146=CIRCLE('',#264,13.0000000000009);
#147=SURFACE_STYLE_USAGE(.BOTH.,#265);
#148=CURVE_STYLE('',#266,POSITIVE_LENGTH_MEASURE(1000.0),#267);
#149=FACE_OUTER_BOUND('',#268,.T.);
#150=PLANE('',#269);
#151=SURFACE_STYLE_USAGE(.BOTH.,#270);
#152=CURVE_STYLE('',#271,POSITIVE_LENGTH_MEASURE(1000.0),#272);
#153=FACE_BOUND('',#273,.T.);
#154=FACE_BOUND('',#274,.T.);
#155=CYLINDRICAL_SURFACE('',#275,10.0);
#156=SURFACE_STYLE_USAGE(.BOTH.,#276);
#157=CURVE_STYLE('',#277,POSITIVE_LENGTH_MEASURE(1000.0),#278);
#158=FACE_OUTER_BOUND('',#279,.T.);
#159=FACE_BOUND('',#280,.T.);
#160=PLANE('',#281);
#161=CURVE_STYLE('',#282,POSITIVE_LENGTH_MEASURE(1000.0),#283);
#162=VERTEX_POINT('',#284);
#163=CIRCLE('',#285,13.5000000000035);
#164=SURFACE_STYLE_USAGE(.BOTH.,#286);
#165=CURVE_STYLE('',#287,POSITIVE_LENGTH_MEASURE(1000.0),#288);
#166=FACE_BOUND('',#289,.T.);
#167=FACE_BOUND('',#290,.T.);
#168=CYLINDRICAL_SURFACE('',#291,9.9999999999977);
#169=SURFACE_STYLE_USAGE(.BOTH.,#292);
#170=CURVE_STYLE('',#293,POSITIVE_LENGTH_MEASURE(1000.0),#294);
#171=FACE_BOUND('',#295,.T.);
#172=FACE_BOUND('',#296,.T.);
#173=CONICAL_SURFACE('',#297,11.7499999999998,1.30899693899569);
#174=SURFACE_STYLE_USAGE(.BOTH.,#298);
#175=CURVE_STYLE('',#299,POSITIVE_LENGTH_MEASURE(1000.0),#300);
#176=FACE_BOUND('',#301,.T.);
#177=FACE_BOUND('',#302,.T.);
#178=CYLINDRICAL_SURFACE('',#303,10.1499999999992);
#179=CURVE_STYLE('',#304,POSITIVE_LENGTH_MEASURE(1000.0),#305);
#180=VERTEX_POINT('',#306);
#181=CIRCLE('',#307,8.20000000000027);
#182=SURFACE_STYLE_USAGE(.BOTH.,#308);
#183=CURVE_STYLE('',#309,POSITIVE_LENGTH_MEASURE(1000.0),#310);
#184=FACE_BOUND('',#311,.T.);
#185=FACE_BOUND('',#312,.T.);
#186=CONICAL_SURFACE('',#313,13.2500000000022,0.349065850398911);
#187=SURFACE_STYLE_USAGE(.BOTH.,#314);
#188=CURVE_STYLE('',#315,POSITIVE_LENGTH_MEASURE(1000.0),#316);
#189=FACE_BOUND('',#317,.T.);
#190=FACE_BOUND('',#318,.T.);
#191=CONICAL_SURFACE('',#319,10.0749999999996,0.124354994546012);
#192=CURVE_STYLE('',#320,POSITIVE_LENGTH_MEASURE(1000.0),#321);
#193=VERTEX_POINT('',#322);
#194=CIRCLE('',#323,9.99999999999372);
#195=CURVE_STYLE('',#324,POSITIVE_LENGTH_MEASURE(1000.0),#325);
#196=VERTEX_POINT('',#326);
#197=CIRCLE('',#327,10.1499999999992);
#198=SURFACE_STYLE_USAGE(.BOTH.,#328);
#199=CURVE_STYLE('',#329,POSITIVE_LENGTH_MEASURE(1000.0),#330);
#200=FACE_OUTER_BOUND('',#331,.T.);
#201=FACE_BOUND('',#332,.T.);
#202=PLANE('',#333);
#203=SURFACE_STYLE_USAGE(.BOTH.,#334);
#204=CURVE_STYLE('',#335,POSITIVE_LENGTH_MEASURE(1000.0),#336);
#205=FACE_BOUND('',#337,.T.);
#206=FACE_BOUND('',#338,.T.);
#207=CYLINDRICAL_SURFACE('',#339,13.5000000000015);
#208=SURFACE_STYLE_USAGE(.BOTH.,#340);
#209=CURVE_STYLE('',#341,POSITIVE_LENGTH_MEASURE(1000.0),#342);
#210=FACE_OUTER_BOUND('',#343,.T.);
#211=FACE_BOUND('',#344,.T.);
#212=PLANE('',#345);
#213=CURVE_STYLE('',#346,POSITIVE_LENGTH_MEASURE(1000.0),#347);
#214=VERTEX_POINT('',#348);
#215=CIRCLE('',#349,10.0);
#216=CURVE_STYLE('',#350,POSITIVE_LENGTH_MEASURE(1000.0),#351);
#217=VERTEX_POINT('',#352);
#218=CIRCLE('',#353,10.1499999999992);
#219=CURVE_STYLE('',#354,POSITIVE_LENGTH_MEASURE(1000.0),#355);
#220=VERTEX_POINT('',#356);
#221=CIRCLE('',#357,10.0);
#222=CURVE_STYLE('',#358,POSITIVE_LENGTH_MEASURE(1000.0),#359);
#223=VERTEX_POINT('',#360);
#224=CIRCLE('',#361,13.4999999999995);
#225=SURFACE_STYLE_USAGE(.BOTH.,#362);
#226=CURVE_STYLE('',#363,POSITIVE_LENGTH_MEASURE(1000.0),#364);
#227=FACE_BOUND('',#365,.T.);
#228=FACE_BOUND('',#366,.T.);
#229=CYLINDRICAL_SURFACE('',#367,10.0);
#230=SURFACE_STYLE_USAGE(.BOTH.,#368);
#231=CURVE_STYLE('',#369,POSITIVE_LENGTH_MEASURE(1000.0),#370);
#232=FACE_OUTER_BOUND('',#371,.T.);
#233=PLANE('',#372);
#234=CURVE_STYLE('',#373,POSITIVE_LENGTH_MEASURE(1000.0),#374);
#235=VERTEX_POINT('',#375);
#236=CIRCLE('',#376,10.0000000000017);
#237=CURVE_STYLE('',#377,POSITIVE_LENGTH_MEASURE(1000.0),#378);
#238=VERTEX_POINT('',#379);
#239=CIRCLE('',#380,10.0);
#240=CURVE_STYLE('',#381,POSITIVE_LENGTH_MEASURE(1000.0),#382);
#241=VERTEX_POINT('',#383);
#242=CIRCLE('',#384,8.20000000000027);
#243=SURFACE_STYLE_USAGE(.BOTH.,#385);
#244=CURVE_STYLE('',#386,POSITIVE_LENGTH_MEASURE(1000.0),#387);
#245=FACE_BOUND('',#388,.T.);
#246=FACE_BOUND('',#389,.T.);
#247=CYLINDRICAL_SURFACE('',#390,8.20000000000027);
#248=PRODUCT_CONTEXT('',#38,'mechanical');
#249=PRODUCT_DEFINITION_FORMATION_WITH_SPECIFIED_SOURCE(' ','NONE',#122,.NOT_KNOWN.);
#250=CARTESIAN_POINT('',(0.0,0.0,0.0));
#251=DIRECTION('',(0.0,0.0,1.0));
#252=DIRECTION('',(1.0,0.0,0.0));
#253= (NAMED_UNIT(#130)LENGTH_UNIT()SI_UNIT(.MILLI.,.METRE.));
#254=DRAUGHTING_PRE_DEFINED_CURVE_FONT('continuous');
#255=COLOUR_RGB('',0.0,1.0,1.0);
#256=CARTESIAN_POINT('',(-1.0899356512411E-015,10.0,17.7999999999993));
#257=AXIS2_PLACEMENT_3D('',#392,#393,#394);
#258=SURFACE_SIDE_STYLE('',(#395));
#259=DRAUGHTING_PRE_DEFINED_CURVE_FONT('continuous');
#260=COLOUR_RGB('',0.0,1.0,1.0);
#261=DRAUGHTING_PRE_DEFINED_CURVE_FONT('continuous');
#262=COLOUR_RGB('',0.0,1.0,1.0);
#263=CARTESIAN_POINT('',(-2.23498040844376E-015,13.0000000000009,36.4999999999974));
#264=AXIS2_PLACEMENT_3D('',#396,#397,#398);
#265=SURFACE_SIDE_STYLE('',(#399));
#266=DRAUGHTING_PRE_DEFINED_CURVE_FONT('continuous');
#267=COLOUR_RGB('',0.0,1.0,1.0);
#268=EDGE_LOOP('',(#400));
#269=AXIS2_PLACEMENT_3D('',#401,#402,#403);
#270=SURFACE_SIDE_STYLE('',(#404));
#271=DRAUGHTING_PRE_DEFINED_CURVE_FONT('continuous');
#272=COLOUR_RGB('',0.0,1.0,1.0);
#273=EDGE_LOOP('',(#405));
#274=EDGE_LOOP('',(#406));
#275=AXIS2_PLACEMENT_3D('',#407,#408,#409);
#276=SURFACE_SIDE_STYLE('',(#410));
#277=DRAUGHTING_PRE_DEFINED_CURVE_FONT('continuous');
#278=COLOUR_RGB('',0.0,1.0,1.0);
#279=EDGE_LOOP('',(#411));
#280=EDGE_LOOP('',(#412));
#281=AXIS2_PLACEMENT_3D('',#413,#414,#415);
#282=DRAUGHTING_PRE_DEFINED_CURVE_FONT('continuous');
#283=COLOUR_RGB('',0.0,1.0,1.0);
#284=CARTESIAN_POINT('',(-2.15086317275672E-015,13.5000000000035,35.1262612902631));
#285=AXIS2_PLACEMENT_3D('',#416,#417,#418);
#286=SURFACE_SIDE_STYLE('',(#419));
#287=DRAUGHTING_PRE_DEFINED_CURVE_FONT('continuous');
#288=COLOUR_RGB('',0.0,1.0,1.0);
#289=EDGE_LOOP('',(#420));
#290=EDGE_LOOP('',(#421));
#291=AXIS2_PLACEMENT_3D('',#422,#423,#424);
#292=SURFACE_SIDE_STYLE('',(#425));
#293=DRAUGHTING_PRE_DEFINED_CURVE_FONT('continuous');
#294=COLOUR_RGB('',0.0,1.0,1.0);
#295=EDGE_LOOP('',(#426));
#296=EDGE_LOOP('',(#427));
#297=AXIS2_PLACEMENT_3D('',#428,#429,#430);
#298=SURFACE_SIDE_STYLE('',(#431));
#299=DRAUGHTING_PRE_DEFINED_CURVE_FONT('continuous');
#300=COLOUR_RGB('',0.0,1.0,1.0);
#301=EDGE_LOOP('',(#432));
#302=EDGE_LOOP('',(#433));
#303=AXIS2_PLACEMENT_3D('',#434,#435,#436);
#304=DRAUGHTING_PRE_DEFINED_CURVE_FONT('continuous');
#305=COLOUR_RGB('',0.0,1.0,1.0);
#306=CARTESIAN_POINT('',(-1.3471114790625E-015,8.20000000000027,22.0000000000068));
#307=AXIS2_PLACEMENT_3D('',#437,#438,#439);
#308=SURFACE_SIDE_STYLE('',(#440));
#309=DRAUGHTING_PRE_DEFINED_CURVE_FONT('continuous');
#310=COLOUR_RGB('',0.0,1.0,1.0);
#311=EDGE_LOOP('',(#441));
#312=EDGE_LOOP('',(#442));
#313=AXIS2_PLACEMENT_3D('',#443,#444,#445);
#314=SURFACE_SIDE_STYLE('',(#446));
#315=DRAUGHTING_PRE_DEFINED_CURVE_FONT('continuous');
#316=COLOUR_RGB('',0.0,1.0,1.0);
#317=EDGE_LOOP('',(#447));
#318=EDGE_LOOP('',(#448));
#319=AXIS2_PLACEMENT_3D('',#449,#450,#451);
#320=DRAUGHTING_PRE_DEFINED_CURVE_FONT('continuous');
#321=COLOUR_RGB('',0.0,1.0,1.0);
#322=CARTESIAN_POINT('',(-2.47990976827333E-015,9.99999999999372,36.4999999999974));
#323=AXIS2_PLACEMENT_3D('',#452,#453,#454);
#324=DRAUGHTING_PRE_DEFINED_CURVE_FONT('continuous');
#325=COLOUR_RGB('',0.0,1.0,1.0);
#326=CARTESIAN_POINT('',(-1.16341445918999E-015,10.1499999999992,19.0));
#327=AXIS2_PLACEMENT_3D('',#455,#456,#457);
#328=SURFACE_SIDE_STYLE('',(#458));
#329=DRAUGHTING_PRE_DEFINED_CURVE_FONT('continuous');
#330=COLOUR_RGB('',0.0,1.0,1.0);
#331=EDGE_LOOP('',(#459));
#332=EDGE_LOOP('',(#460));
#333=AXIS2_PLACEMENT_3D('',#461,#462,#463);
#334=SURFACE_SIDE_STYLE('',(#464));
#335=DRAUGHTING_PRE_DEFINED_CURVE_FONT('continuous');
#336=COLOUR_RGB('',0.0,1.0,1.0);
#337=EDGE_LOOP('',(#465));
#338=EDGE_LOOP('',(#466));
#339=AXIS2_PLACEMENT_3D('',#467,#468,#469);
#340=SURFACE_SIDE_STYLE('',(#470));
#341=DRAUGHTING_PRE_DEFINED_CURVE_FONT('continuous');
#342=COLOUR_RGB('',0.0,1.0,1.0);
#343=EDGE_LOOP('',(#471));
#344=EDGE_LOOP('',(#472));
#345=AXIS2_PLACEMENT_3D('',#473,#474,#475);
#346=DRAUGHTING_PRE_DEFINED_CURVE_FONT('continuous');
#347=COLOUR_RGB('',0.0,1.0,1.0);
#348=CARTESIAN_POINT('',(-1.34711147906161E-015,10.0,21.9999999999922));
#349=AXIS2_PLACEMENT_3D('',#476,#477,#478);
#350=DRAUGHTING_PRE_DEFINED_CURVE_FONT('continuous');
#351=COLOUR_RGB('',0.0,1.0,1.0);
#352=CARTESIAN_POINT('',(-1.28587913910472E-015,10.1499999999992,21.0));
#353=AXIS2_PLACEMENT_3D('',#479,#480,#481);
#354=DRAUGHTING_PRE_DEFINED_CURVE_FONT('continuous');
#355=COLOUR_RGB('',0.0,1.0,1.0);
#356=CARTESIAN_POINT('',(-1.77954515257258E-015,10.0,29.0621778264814));
#357=AXIS2_PLACEMENT_3D('',#482,#483,#484);
#358=DRAUGHTING_PRE_DEFINED_CURVE_FONT('continuous');
#359=COLOUR_RGB('',0.0,1.0,1.0);
#360=CARTESIAN_POINT('',(-1.83697019872044E-015,13.4999999999995,29.9999999999904));
#361=AXIS2_PLACEMENT_3D('',#485,#486,#487);
#362=SURFACE_SIDE_STYLE('',(#488));
#363=DRAUGHTING_PRE_DEFINED_CURVE_FONT('continuous');
#364=COLOUR_RGB('',0.0,1.0,1.0);
#365=EDGE_LOOP('',(#489));
#366=EDGE_LOOP('',(#490));
#367=AXIS2_PLACEMENT_3D('',#491,#492,#493);
#368=SURFACE_SIDE_STYLE('',(#494));
#369=DRAUGHTING_PRE_DEFINED_CURVE_FONT('continuous');
#370=COLOUR_RGB('',0.0,1.0,1.0);
#371=EDGE_LOOP('',(#495));
#372=AXIS2_PLACEMENT_3D('',#496,#497,#498);
#373=DRAUGHTING_PRE_DEFINED_CURVE_FONT('continuous');
#374=COLOUR_RGB('',0.0,1.0,1.0);
#375=CARTESIAN_POINT('',(-4.95981953654672E-015,10.0000000000017,80.9999999999989));
#376=AXIS2_PLACEMENT_3D('',#499,#500,#501);
#377=DRAUGHTING_PRE_DEFINED_CURVE_FONT('continuous');
#378=COLOUR_RGB('',0.0,1.0,1.0);
#379=CARTESIAN_POINT('',(1.39320503376272E-028,10.0,-2.27606482131197E-012));
#380=AXIS2_PLACEMENT_3D('',#502,#503,#504);
#381=DRAUGHTING_PRE_DEFINED_CURVE_FONT('continuous');
#382=COLOUR_RGB('',0.0,1.0,1.0);
#383=CARTESIAN_POINT('',(-1.28587913910472E-015,8.20000000000027,21.0));
#384=AXIS2_PLACEMENT_3D('',#505,#506,#507);
#385=SURFACE_SIDE_STYLE('',(#508));
#386=DRAUGHTING_PRE_DEFINED_CURVE_FONT('continuous');
#387=COLOUR_RGB('',0.0,1.0,1.0);
#388=EDGE_LOOP('',(#509));
#389=EDGE_LOOP('',(#510));
#390=AXIS2_PLACEMENT_3D('',#511,#512,#513);
#392=CARTESIAN_POINT('',(-1.0899356512411E-015,-2.1798713024822E-015,17.7999999999993));
#393=DIRECTION('',(6.12323399573677E-017,1.22464679914735E-016,-1.0));
#394=DIRECTION('',(-1.23259516440783E-032,1.0,1.22464679914735E-016));
#395=SURFACE_STYLE_FILL_AREA(#514);
#396=CARTESIAN_POINT('',(-2.23498040844376E-015,-4.46996081688752E-015,36.4999999999974));
#397=DIRECTION('',(6.12323399573677E-017,1.22464679914735E-016,-1.0));
#398=DIRECTION('',(-1.23259516440783E-032,1.0,1.22464679914735E-016));
#399=SURFACE_STYLE_FILL_AREA(#515);
#400=ORIENTED_EDGE('',*,*,#114,.F.);
#401=CARTESIAN_POINT('',(-4.95981953654672E-015,5.00000000000083,80.9999999999989));
#402=DIRECTION('',(-1.03263195396094E-046,1.29862079160523E-015,1.0));
#403=DIRECTION('',(1.0,7.95175897872774E-032,0.0));
#404=SURFACE_STYLE_FILL_AREA(#516);
#405=ORIENTED_EDGE('',*,*,#100,.F.);
#406=ORIENTED_EDGE('',*,*,#104,.T.);
#407=CARTESIAN_POINT('',(-1.5633283158171E-015,-3.12665663163419E-015,25.5310889132368));
#408=DIRECTION('',(-6.12323399573677E-017,-1.22464679914735E-016,1.0));
#409=DIRECTION('',(-1.23259516440783E-032,1.0,1.22464679914735E-016));
#410=SURFACE_STYLE_FILL_AREA(#517);
#411=ORIENTED_EDGE('',*,*,#102,.F.);
#412=ORIENTED_EDGE('',*,*,#118,.T.);
#413=CARTESIAN_POINT('',(-1.28587913910472E-015,9.17499999999973,21.0));
#414=DIRECTION('',(-9.18338008663382E-049,-1.22464679914735E-016,1.0));
#415=DIRECTION('',(1.0,-7.49879891330927E-033,0.0));
#416=CARTESIAN_POINT('',(-2.15086317275672E-015,-4.30172634551343E-015,35.1262612902631));
#417=DIRECTION('',(6.12323399573677E-017,1.22464679914735E-016,-1.0));
#418=DIRECTION('',(-1.23259516440783E-032,1.0,1.22464679914735E-016));
#419=SURFACE_STYLE_FILL_AREA(#518);
#420=ORIENTED_EDGE('',*,*,#87,.F.);
#421=ORIENTED_EDGE('',*,*,#114,.T.);
#422=CARTESIAN_POINT('',(-3.71986465241002E-015,-7.43972930482004E-015,60.7499999999989));
#423=DIRECTION('',(-6.12323399573677E-017,-1.22464679914735E-016,1.0));
#424=DIRECTION('',(-1.23259516440783E-032,1.0,1.22464679914735E-016));
#425=SURFACE_STYLE_FILL_AREA(#519);
#426=ORIENTED_EDGE('',*,*,#104,.F.);
#427=ORIENTED_EDGE('',*,*,#106,.T.);
#428=CARTESIAN_POINT('',(-1.80825767564651E-015,-3.61651535129302E-015,29.5310889132359));
#429=DIRECTION('',(-6.12323399573677E-017,-1.22464679914735E-016,1.0));
#430=DIRECTION('',(-1.23259516440783E-032,1.0,1.22464679914735E-016));
#431=SURFACE_STYLE_FILL_AREA(#520);
#432=ORIENTED_EDGE('',*,*,#89,.F.);
#433=ORIENTED_EDGE('',*,*,#102,.T.);
#434=CARTESIAN_POINT('',(-1.22464679914735E-015,-2.44929359829471E-015,20.0));
#435=DIRECTION('',(-6.12323399573677E-017,-1.22464679914735E-016,1.0));
#436=DIRECTION('',(-1.23259516440783E-032,1.0,1.22464679914735E-016));
#437=CARTESIAN_POINT('',(-1.3471114790625E-015,-2.694222958125E-015,22.0000000000068));
#438=DIRECTION('',(6.12323399573677E-017,1.22464679914735E-016,-1.0));
#439=DIRECTION('',(-1.23259516440783E-032,1.0,1.22464679914735E-016));
#440=SURFACE_STYLE_FILL_AREA(#521);
#441=ORIENTED_EDGE('',*,*,#68,.F.);
#442=ORIENTED_EDGE('',*,*,#57,.T.);
#443=CARTESIAN_POINT('',(-2.19292179060024E-015,-4.38584358120047E-015,35.8131306451303));
#444=DIRECTION('',(6.12323399573677E-017,1.22464679914735E-016,-1.0));
#445=DIRECTION('',(-1.23259516440783E-032,1.0,1.22464679914735E-016));
#446=SURFACE_STYLE_FILL_AREA(#522);
#447=ORIENTED_EDGE('',*,*,#52,.F.);
#448=ORIENTED_EDGE('',*,*,#89,.T.);
#449=CARTESIAN_POINT('',(-1.12667505521554E-015,-2.25335011043108E-015,18.3999999999996));
#450=DIRECTION('',(-6.12323399573677E-017,-1.22464679914735E-016,1.0));
#451=DIRECTION('',(-1.23259516440783E-032,1.0,1.22464679914735E-016));
#452=CARTESIAN_POINT('',(-2.47990976827333E-015,-4.95981953654665E-015,36.4999999999974));
#453=DIRECTION('',(6.12323399573677E-017,1.22464679914735E-016,-1.0));
#454=DIRECTION('',(-1.23259516440783E-032,1.0,1.22464679914735E-016));
#455=CARTESIAN_POINT('',(-1.16341445918999E-015,-2.32682891837997E-015,19.0));
#456=DIRECTION('',(6.12323399573677E-017,1.22464679914735E-016,-1.0));
#457=DIRECTION('',(-1.23259516440783E-032,1.0,1.22464679914735E-016));
#458=SURFACE_STYLE_FILL_AREA(#523);
#459=ORIENTED_EDGE('',*,*,#57,.F.);
#460=ORIENTED_EDGE('',*,*,#87,.T.);
#461=CARTESIAN_POINT('',(-9.84184850476291,1.77144517532171,36.4999999999974));
#462=DIRECTION('',(0.0,0.0,1.0));
#463=DIRECTION('',(1.0,-0.0,0.0));
#464=SURFACE_STYLE_FILL_AREA(#524);
#465=ORIENTED_EDGE('',*,*,#106,.F.);
#466=ORIENTED_EDGE('',*,*,#68,.T.);
#467=CARTESIAN_POINT('',(-1.99391668573858E-015,-3.98783337147716E-015,32.5631306451268));
#468=DIRECTION('',(-6.12323399573677E-017,-1.22464679914735E-016,1.0));
#469=DIRECTION('',(-1.23259516440783E-032,1.0,1.22464679914735E-016));
#470=SURFACE_STYLE_FILL_AREA(#525);
#471=ORIENTED_EDGE('',*,*,#100,.T.);
#472=ORIENTED_EDGE('',*,*,#79,.F.);
#473=CARTESIAN_POINT('',(-1.34711147906206E-015,9.10000000000013,21.9999999999995));
#474=DIRECTION('',(6.12323399573677E-017,-8.08427488441401E-012,-1.0));
#475=DIRECTION('',(0.0,-1.0,8.08427488441401E-012));
#476=CARTESIAN_POINT('',(-1.34711147906161E-015,-2.69422295812322E-015,21.9999999999922));
#477=DIRECTION('',(6.12323399573677E-017,1.22464679914735E-016,-1.0));
#478=DIRECTION('',(-1.23259516440783E-032,1.0,1.22464679914735E-016));
#479=CARTESIAN_POINT('',(-1.28587913910472E-015,-2.57175827820944E-015,21.0));
#480=DIRECTION('',(6.12323399573677E-017,1.22464679914735E-016,-1.0));
#481=DIRECTION('',(-1.23259516440783E-032,1.0,1.22464679914735E-016));
#482=CARTESIAN_POINT('',(-1.77954515257258E-015,-3.55909030514516E-015,29.0621778264814));
#483=DIRECTION('',(6.12323399573677E-017,1.22464679914735E-016,-1.0));
#484=DIRECTION('',(-1.23259516440783E-032,1.0,1.22464679914735E-016));
#485=CARTESIAN_POINT('',(-1.83697019872044E-015,-3.67394039744088E-015,29.9999999999904));
#486=DIRECTION('',(6.12323399573677E-017,1.22464679914735E-016,-1.0));
#487=DIRECTION('',(-1.23259516440783E-032,1.0,1.22464679914735E-016));
#488=SURFACE_STYLE_FILL_AREA(#526);
#489=ORIENTED_EDGE('',*,*,#116,.F.);
#490=ORIENTED_EDGE('',*,*,#52,.T.);
#491=CARTESIAN_POINT('',(-5.4496782562048E-016,-1.08993565124096E-015,8.89999999999849));
#492=DIRECTION('',(-6.12323399573677E-017,-1.22464679914735E-016,1.0));
#493=DIRECTION('',(-1.23259516440783E-032,1.0,1.22464679914735E-016));
#494=SURFACE_STYLE_FILL_AREA(#527);
#495=ORIENTED_EDGE('',*,*,#116,.T.);
#496=CARTESIAN_POINT('',(1.39382133134493E-028,5.0,-2.27667714471155E-012));
#497=DIRECTION('',(6.12323399573677E-017,1.22464679914735E-016,-1.0));
#498=DIRECTION('',(-1.0,0.0,-6.12323399573677E-017));
#499=CARTESIAN_POINT('',(-4.95981953654672E-015,-9.91963907309343E-015,80.9999999999989));
#500=DIRECTION('',(6.12323399573677E-017,1.22464679914735E-016,-1.0));
#501=DIRECTION('',(-1.23259516440783E-032,1.0,1.22464679914735E-016));
#502=CARTESIAN_POINT('',(1.39443762892713E-028,2.78887525785426E-028,-2.27728946811112E-012));
#503=DIRECTION('',(6.12323399573677E-017,1.22464679914735E-016,-1.0));
#504=DIRECTION('',(-1.23259516440783E-032,1.0,1.22464679914735E-016));
#505=CARTESIAN_POINT('',(-1.28587913910472E-015,-2.57175827820944E-015,21.0));
#506=DIRECTION('',(6.12323399573677E-017,1.22464679914735E-016,-1.0));
#507=DIRECTION('',(-1.23259516440783E-032,1.0,1.22464679914735E-016));
#508=SURFACE_STYLE_FILL_AREA(#528);
#509=ORIENTED_EDGE('',*,*,#118,.F.);
#510=ORIENTED_EDGE('',*,*,#79,.T.);
#511=CARTESIAN_POINT('',(-1.31649530908361E-015,-2.63299061816722E-015,21.5000000000034));
#512=DIRECTION('',(-6.12323399573677E-017,-1.22464679914735E-016,1.0));
#513=DIRECTION('',(-1.23259516440783E-032,1.0,1.22464679914735E-016));
#514=FILL_AREA_STYLE('',(#529));
#515=FILL_AREA_STYLE('',(#530));
#516=FILL_AREA_STYLE('',(#531));
#517=FILL_AREA_STYLE('',(#532));
#518=FILL_AREA_STYLE('',(#533));
#519=FILL_AREA_STYLE('',(#534));
#520=FILL_AREA_STYLE('',(#535));
#521=FILL_AREA_STYLE('',(#536));
#522=FILL_AREA_STYLE('',(#537));
#523=FILL_AREA_STYLE('',(#538));
#524=FILL_AREA_STYLE('',(#539));
#525=FILL_AREA_STYLE('',(#540));
#526=FILL_AREA_STYLE('',(#541));
#527=FILL_AREA_STYLE('',(#542));
#528=FILL_AREA_STYLE('',(#543));
#529=FILL_AREA_STYLE_COLOUR('',#544);
#530=FILL_AREA_STYLE_COLOUR('',#545);
#531=FILL_AREA_STYLE_COLOUR('',#546);
#532=FILL_AREA_STYLE_COLOUR('',#547);
#533=FILL_AREA_STYLE_COLOUR('',#548);
#534=FILL_AREA_STYLE_COLOUR('',#549);
#535=FILL_AREA_STYLE_COLOUR('',#550);
#536=FILL_AREA_STYLE_COLOUR('',#551);
#537=FILL_AREA_STYLE_COLOUR('',#552);
#538=FILL_AREA_STYLE_COLOUR('',#553);
#539=FILL_AREA_STYLE_COLOUR('',#554);
#540=FILL_AREA_STYLE_COLOUR('',#555);
#541=FILL_AREA_STYLE_COLOUR('',#556);
#542=FILL_AREA_STYLE_COLOUR('',#557);
#543=FILL_AREA_STYLE_COLOUR('',#558);
#544=COLOUR_RGB('',0.0,1.0,1.0);
#545=COLOUR_RGB('',0.0,1.0,1.0);
#546=COLOUR_RGB('',0.0,1.0,1.0);
#547=COLOUR_RGB('',0.0,1.0,1.0);
#548=COLOUR_RGB('',0.0,1.0,1.0);
#549=COLOUR_RGB('',0.0,1.0,1.0);
#550=COLOUR_RGB('',0.0,1.0,1.0);
#551=COLOUR_RGB('',0.0,1.0,1.0);
#552=COLOUR_RGB('',0.0,1.0,1.0);
#553=COLOUR_RGB('',0.0,1.0,1.0);
#554=COLOUR_RGB('',0.0,1.0,1.0);
#555=COLOUR_RGB('',0.0,1.0,1.0);
#556=COLOUR_RGB('',0.0,1.0,1.0);
#557=COLOUR_RGB('',0.0,1.0,1.0);
#558=COLOUR_RGB('',0.0,1.0,1.0);
ENDSEC;
END-ISO-10303-21;
