ISO-10303-21;
HEADER;
FILE_DESCRIPTION((''),'1');
FILE_NAME('T:/02_3D_Field-HP\X2\FF71FF6FFF8CFF9F5916\X0\2013/02_Step_Field-HP\X2\FF71FF6FFF8CFF9F5916\X0\2013/MGT12-d-200_M6-12.stp','2017-02-08T06:12:39',(''),(''),'Spatial Interop R21 SP3','Kubotek KeyCreator 2011 V10.0.2 (22737)',' ');
FILE_SCHEMA(('automotive_design'));
ENDSEC;
DATA;
#1=MECHANICAL_DESIGN_GEOMETRIC_PRESENTATION_REPRESENTATION(' ',(#10,#11,#12,#13,#14,#15,#16,#17,#18,#19,#20,#21,#22,#23,#24,#25,#26,#27,#28,#29,#30,#31,#32,#33,#34,#35,#36,#37),#6);
#2=PRODUCT_DEFINITION_CONTEXT('',#38,'design');
#3=APPLICATION_PROTOCOL_DEFINITION('INTERNATIONAL STANDARD','automotive_design',1994,#38);
#4=PRODUCT_CATEGORY_RELATIONSHIP('NONE','NONE',#39,#40);
#5=SHAPE_DEFINITION_REPRESENTATION(#41,#42);
#6= (GEOMETRIC_REPRESENTATION_CONTEXT(3)GLOBAL_UNCERTAINTY_ASSIGNED_CONTEXT((#45))GLOBAL_UNIT_ASSIGNED_CONTEXT((#47,#48,#49))REPRESENTATION_CONTEXT('NONE','WORKSPACE'));
#10=STYLED_ITEM('',(#51),#52);
#11=STYLED_ITEM('',(#53,#54),#55);
#12=STYLED_ITEM('',(#56),#57);
#13=STYLED_ITEM('',(#58,#59),#60);
#14=STYLED_ITEM('',(#61,#62),#63);
#15=STYLED_ITEM('',(#64,#65),#66);
#16=STYLED_ITEM('',(#67),#68);
#17=STYLED_ITEM('',(#69,#70),#71);
#18=STYLED_ITEM('',(#72,#73),#74);
#19=STYLED_ITEM('',(#75,#76),#77);
#20=STYLED_ITEM('',(#78,#79),#80);
#21=STYLED_ITEM('',(#81,#82),#83);
#22=STYLED_ITEM('',(#84,#85),#86);
#23=STYLED_ITEM('',(#87,#88),#89);
#24=STYLED_ITEM('',(#90),#91);
#25=STYLED_ITEM('',(#92),#93);
#26=STYLED_ITEM('',(#94),#95);
#27=STYLED_ITEM('',(#96),#97);
#28=STYLED_ITEM('',(#98,#99),#100);
#29=STYLED_ITEM('',(#101,#102),#103);
#30=STYLED_ITEM('',(#104),#105);
#31=STYLED_ITEM('',(#106),#107);
#32=STYLED_ITEM('',(#108),#109);
#33=STYLED_ITEM('',(#110),#111);
#34=STYLED_ITEM('',(#112),#113);
#35=STYLED_ITEM('',(#114,#115),#116);
#36=STYLED_ITEM('',(#117,#118),#119);
#37=STYLED_ITEM('',(#120),#121);
#38=APPLICATION_CONTEXT(' ');
#39=PRODUCT_CATEGORY('part','NONE');
#40=PRODUCT_RELATED_PRODUCT_CATEGORY('detail',' ',(#122));
#41=PRODUCT_DEFINITION_SHAPE('NONE','NONE',#123);
#42=ADVANCED_BREP_SHAPE_REPRESENTATION('240[2]',(#55,#124),#6);
#45=UNCERTAINTY_MEASURE_WITH_UNIT(LENGTH_MEASURE(1.0E-006),#47,'','');
#47= (CONVERSION_BASED_UNIT('MILLIMETRE',#127)LENGTH_UNIT()NAMED_UNIT(#130));
#48= (NAMED_UNIT(#132)PLANE_ANGLE_UNIT()SI_UNIT($,.RADIAN.));
#49= (NAMED_UNIT(#132)SOLID_ANGLE_UNIT()SI_UNIT($,.STERADIAN.));
#51=PRESENTATION_STYLE_ASSIGNMENT((#138));
#52=EDGE_CURVE('240[2]',#139,#139,#140,.T.);
#53=PRESENTATION_STYLE_ASSIGNMENT((#141));
#54=PRESENTATION_STYLE_ASSIGNMENT((#142));
#55=MANIFOLD_SOLID_BREP('240[2]',#143);
#56=PRESENTATION_STYLE_ASSIGNMENT((#144));
#57=EDGE_CURVE('240[2]',#145,#145,#146,.T.);
#58=PRESENTATION_STYLE_ASSIGNMENT((#147));
#59=PRESENTATION_STYLE_ASSIGNMENT((#148));
#60=ADVANCED_FACE('240[2]',(#149,#150),#151,.T.);
#61=PRESENTATION_STYLE_ASSIGNMENT((#152));
#62=PRESENTATION_STYLE_ASSIGNMENT((#153));
#63=ADVANCED_FACE('240[2]',(#154,#155),#156,.T.);
#64=PRESENTATION_STYLE_ASSIGNMENT((#157));
#65=PRESENTATION_STYLE_ASSIGNMENT((#158));
#66=ADVANCED_FACE('240[2]',(#159,#160),#161,.T.);
#67=PRESENTATION_STYLE_ASSIGNMENT((#162));
#68=EDGE_CURVE('240[2]',#163,#163,#164,.T.);
#69=PRESENTATION_STYLE_ASSIGNMENT((#165));
#70=PRESENTATION_STYLE_ASSIGNMENT((#166));
#71=ADVANCED_FACE('240[2]',(#167,#168),#169,.T.);
#72=PRESENTATION_STYLE_ASSIGNMENT((#170));
#73=PRESENTATION_STYLE_ASSIGNMENT((#171));
#74=ADVANCED_FACE('240[2]',(#172),#173,.T.);
#75=PRESENTATION_STYLE_ASSIGNMENT((#174));
#76=PRESENTATION_STYLE_ASSIGNMENT((#175));
#77=ADVANCED_FACE('240[2]',(#176,#177),#178,.T.);
#78=PRESENTATION_STYLE_ASSIGNMENT((#179));
#79=PRESENTATION_STYLE_ASSIGNMENT((#180));
#80=ADVANCED_FACE('240[2]',(#181,#182),#183,.T.);
#81=PRESENTATION_STYLE_ASSIGNMENT((#184));
#82=PRESENTATION_STYLE_ASSIGNMENT((#185));
#83=ADVANCED_FACE('240[2]',(#186,#187),#188,.T.);
#84=PRESENTATION_STYLE_ASSIGNMENT((#189));
#85=PRESENTATION_STYLE_ASSIGNMENT((#190));
#86=ADVANCED_FACE('240[2]',(#191,#192),#193,.T.);
#87=PRESENTATION_STYLE_ASSIGNMENT((#194));
#88=PRESENTATION_STYLE_ASSIGNMENT((#195));
#89=ADVANCED_FACE('240[2]',(#196,#197),#198,.T.);
#90=PRESENTATION_STYLE_ASSIGNMENT((#199));
#91=EDGE_CURVE('240[2]',#200,#200,#201,.T.);
#92=PRESENTATION_STYLE_ASSIGNMENT((#202));
#93=EDGE_CURVE('240[2]',#203,#203,#204,.T.);
#94=PRESENTATION_STYLE_ASSIGNMENT((#205));
#95=EDGE_CURVE('240[2]',#206,#206,#207,.T.);
#96=PRESENTATION_STYLE_ASSIGNMENT((#208));
#97=EDGE_CURVE('240[2]',#209,#209,#210,.T.);
#98=PRESENTATION_STYLE_ASSIGNMENT((#211));
#99=PRESENTATION_STYLE_ASSIGNMENT((#212));
#100=ADVANCED_FACE('240[2]',(#213),#214,.T.);
#101=PRESENTATION_STYLE_ASSIGNMENT((#215));
#102=PRESENTATION_STYLE_ASSIGNMENT((#216));
#103=ADVANCED_FACE('240[2]',(#217,#218),#219,.T.);
#104=PRESENTATION_STYLE_ASSIGNMENT((#220));
#105=EDGE_CURVE('240[2]',#221,#221,#222,.T.);
#106=PRESENTATION_STYLE_ASSIGNMENT((#223));
#107=EDGE_CURVE('240[2]',#224,#224,#225,.T.);
#108=PRESENTATION_STYLE_ASSIGNMENT((#226));
#109=EDGE_CURVE('240[2]',#227,#227,#228,.T.);
#110=PRESENTATION_STYLE_ASSIGNMENT((#229));
#111=EDGE_CURVE('240[2]',#230,#230,#231,.T.);
#112=PRESENTATION_STYLE_ASSIGNMENT((#232));
#113=EDGE_CURVE('240[2]',#233,#233,#234,.T.);
#114=PRESENTATION_STYLE_ASSIGNMENT((#235));
#115=PRESENTATION_STYLE_ASSIGNMENT((#236));
#116=ADVANCED_FACE('240[2]',(#237,#238),#239,.T.);
#117=PRESENTATION_STYLE_ASSIGNMENT((#240));
#118=PRESENTATION_STYLE_ASSIGNMENT((#241));
#119=ADVANCED_FACE('240[2]',(#242,#243),#244,.T.);
#120=PRESENTATION_STYLE_ASSIGNMENT((#245));
#121=EDGE_CURVE('240[2]',#246,#246,#247,.T.);
#122=PRODUCT('240[2]','240[2]','PART-240[2]-DESC',(#248));
#123=PRODUCT_DEFINITION('NONE','NONE',#249,#2);
#124=AXIS2_PLACEMENT_3D('',#250,#251,#252);
#127=LENGTH_MEASURE_WITH_UNIT(LENGTH_MEASURE(1.0),#253);
#130=DIMENSIONAL_EXPONENTS(1.0,0.0,0.0,0.0,0.0,0.0,0.0);
#132=DIMENSIONAL_EXPONENTS(0.0,0.0,0.0,0.0,0.0,0.0,0.0);
#138=CURVE_STYLE('',#254,POSITIVE_LENGTH_MEASURE(1000.0),#255);
#139=VERTEX_POINT('',#256);
#140=CIRCLE('',#257,8.2);
#141=SURFACE_STYLE_USAGE(.BOTH.,#258);
#142=CURVE_STYLE('',#259,POSITIVE_LENGTH_MEASURE(1000.0),#260);
#143=CLOSED_SHELL('',(#63,#74,#119,#77,#103,#80,#89,#116,#66,#86,#71,#60,#83,#100));
#144=CURVE_STYLE('',#261,POSITIVE_LENGTH_MEASURE(1000.0),#262);
#145=VERTEX_POINT('',#263);
#146=CIRCLE('',#264,10.0);
#147=SURFACE_STYLE_USAGE(.BOTH.,#265);
#148=CURVE_STYLE('',#266,POSITIVE_LENGTH_MEASURE(1000.0),#267);
#149=FACE_BOUND('',#268,.T.);
#150=FACE_BOUND('',#269,.T.);
#151=CONICAL_SURFACE('',#270,10.075,0.523598777490513);
#152=SURFACE_STYLE_USAGE(.BOTH.,#271);
#153=CURVE_STYLE('',#272,POSITIVE_LENGTH_MEASURE(1000.0),#273);
#154=FACE_OUTER_BOUND('',#274,.T.);
#155=FACE_BOUND('',#275,.T.);
#156=PLANE('',#276);
#157=SURFACE_STYLE_USAGE(.BOTH.,#277);
#158=CURVE_STYLE('',#278,POSITIVE_LENGTH_MEASURE(1000.0),#279);
#159=FACE_BOUND('',#280,.T.);
#160=FACE_BOUND('',#281,.T.);
#161=CYLINDRICAL_SURFACE('',#282,8.2);
#162=CURVE_STYLE('',#283,POSITIVE_LENGTH_MEASURE(1000.0),#284);
#163=VERTEX_POINT('',#285);
#164=CIRCLE('',#286,8.2);
#165=SURFACE_STYLE_USAGE(.BOTH.,#287);
#166=CURVE_STYLE('',#288,POSITIVE_LENGTH_MEASURE(1000.0),#289);
#167=FACE_BOUND('',#290,.T.);
#168=FACE_BOUND('',#291,.T.);
#169=CYLINDRICAL_SURFACE('',#292,10.15);
#170=SURFACE_STYLE_USAGE(.BOTH.,#293);
#171=CURVE_STYLE('',#294,POSITIVE_LENGTH_MEASURE(1000.0),#295);
#172=FACE_OUTER_BOUND('',#296,.T.);
#173=PLANE('',#297);
#174=SURFACE_STYLE_USAGE(.BOTH.,#298);
#175=CURVE_STYLE('',#299,POSITIVE_LENGTH_MEASURE(1000.0),#300);
#176=FACE_BOUND('',#301,.T.);
#177=FACE_BOUND('',#302,.T.);
#178=CONICAL_SURFACE('',#303,13.25,0.349065845655958);
#179=SURFACE_STYLE_USAGE(.BOTH.,#304);
#180=CURVE_STYLE('',#305,POSITIVE_LENGTH_MEASURE(1000.0),#306);
#181=FACE_BOUND('',#307,.T.);
#182=FACE_BOUND('',#308,.T.);
#183=CONICAL_SURFACE('',#309,11.75,1.30899694215588);
#184=SURFACE_STYLE_USAGE(.BOTH.,#310);
#185=CURVE_STYLE('',#311,POSITIVE_LENGTH_MEASURE(1000.0),#312);
#186=FACE_BOUND('',#313,.T.);
#187=FACE_BOUND('',#314,.T.);
#188=CYLINDRICAL_SURFACE('',#315,10.0);
#189=SURFACE_STYLE_USAGE(.BOTH.,#316);
#190=CURVE_STYLE('',#317,POSITIVE_LENGTH_MEASURE(1000.0),#318);
#191=FACE_OUTER_BOUND('',#319,.T.);
#192=FACE_BOUND('',#320,.T.);
#193=PLANE('',#321);
#194=SURFACE_STYLE_USAGE(.BOTH.,#322);
#195=CURVE_STYLE('',#323,POSITIVE_LENGTH_MEASURE(1000.0),#324);
#196=FACE_BOUND('',#325,.T.);
#197=FACE_BOUND('',#326,.T.);
#198=CYLINDRICAL_SURFACE('',#327,10.0);
#199=CURVE_STYLE('',#328,POSITIVE_LENGTH_MEASURE(1000.0),#329);
#200=VERTEX_POINT('',#330);
#201=CIRCLE('',#331,13.0);
#202=CURVE_STYLE('',#332,POSITIVE_LENGTH_MEASURE(1000.0),#333);
#203=VERTEX_POINT('',#334);
#204=CIRCLE('',#335,10.0);
#205=CURVE_STYLE('',#336,POSITIVE_LENGTH_MEASURE(1000.0),#337);
#206=VERTEX_POINT('',#338);
#207=CIRCLE('',#339,13.5);
#208=CURVE_STYLE('',#340,POSITIVE_LENGTH_MEASURE(1000.0),#341);
#209=VERTEX_POINT('',#342);
#210=CIRCLE('',#343,10.15);
#211=SURFACE_STYLE_USAGE(.BOTH.,#344);
#212=CURVE_STYLE('',#345,POSITIVE_LENGTH_MEASURE(1000.0),#346);
#213=FACE_OUTER_BOUND('',#347,.T.);
#214=PLANE('',#348);
#215=SURFACE_STYLE_USAGE(.BOTH.,#349);
#216=CURVE_STYLE('',#350,POSITIVE_LENGTH_MEASURE(1000.0),#351);
#217=FACE_BOUND('',#352,.T.);
#218=FACE_BOUND('',#353,.T.);
#219=CYLINDRICAL_SURFACE('',#354,13.5);
#220=CURVE_STYLE('',#355,POSITIVE_LENGTH_MEASURE(1000.0),#356);
#221=VERTEX_POINT('',#357);
#222=CIRCLE('',#358,10.15);
#223=CURVE_STYLE('',#359,POSITIVE_LENGTH_MEASURE(1000.0),#360);
#224=VERTEX_POINT('',#361);
#225=CIRCLE('',#362,13.5);
#226=CURVE_STYLE('',#363,POSITIVE_LENGTH_MEASURE(1000.0),#364);
#227=VERTEX_POINT('',#365);
#228=CIRCLE('',#366,10.0);
#229=CURVE_STYLE('',#367,POSITIVE_LENGTH_MEASURE(1000.0),#368);
#230=VERTEX_POINT('',#369);
#231=CIRCLE('',#370,10.0);
#232=CURVE_STYLE('',#371,POSITIVE_LENGTH_MEASURE(1000.0),#372);
#233=VERTEX_POINT('',#373);
#234=CIRCLE('',#374,10.0);
#235=SURFACE_STYLE_USAGE(.BOTH.,#375);
#236=CURVE_STYLE('',#376,POSITIVE_LENGTH_MEASURE(1000.0),#377);
#237=FACE_OUTER_BOUND('',#378,.T.);
#238=FACE_BOUND('',#379,.T.);
#239=PLANE('',#380);
#240=SURFACE_STYLE_USAGE(.BOTH.,#381);
#241=CURVE_STYLE('',#382,POSITIVE_LENGTH_MEASURE(1000.0),#383);
#242=FACE_BOUND('',#384,.T.);
#243=FACE_BOUND('',#385,.T.);
#244=CYLINDRICAL_SURFACE('',#386,10.0);
#245=CURVE_STYLE('',#387,POSITIVE_LENGTH_MEASURE(1000.0),#388);
#246=VERTEX_POINT('',#389);
#247=CIRCLE('',#390,10.0);
#248=PRODUCT_CONTEXT('',#38,'mechanical');
#249=PRODUCT_DEFINITION_FORMATION_WITH_SPECIFIED_SOURCE(' ','NONE',#122,.NOT_KNOWN.);
#250=CARTESIAN_POINT('',(0.0,0.0,0.0));
#251=DIRECTION('',(0.0,0.0,1.0));
#252=DIRECTION('',(1.0,0.0,0.0));
#253= (NAMED_UNIT(#130)LENGTH_UNIT()SI_UNIT(.MILLI.,.METRE.));
#254=DRAUGHTING_PRE_DEFINED_CURVE_FONT('continuous');
#255=COLOUR_RGB('',0.0,1.0,1.0);
#256=CARTESIAN_POINT('',(-1.28587913910472E-015,8.2,21.0));
#257=AXIS2_PLACEMENT_3D('',#392,#393,#394);
#258=SURFACE_SIDE_STYLE('',(#395));
#259=DRAUGHTING_PRE_DEFINED_CURVE_FONT('continuous');
#260=COLOUR_RGB('',0.0,1.0,1.0);
#261=DRAUGHTING_PRE_DEFINED_CURVE_FONT('continuous');
#262=COLOUR_RGB('',0.0,1.0,1.0);
#263=CARTESIAN_POINT('',(-1.14750583067863E-015,10.0,18.74019238));
#264=AXIS2_PLACEMENT_3D('',#396,#397,#398);
#265=SURFACE_SIDE_STYLE('',(#399));
#266=DRAUGHTING_PRE_DEFINED_CURVE_FONT('continuous');
#267=COLOUR_RGB('',0.0,1.0,1.0);
#268=EDGE_LOOP('',(#400));
#269=EDGE_LOOP('',(#401));
#270=AXIS2_PLACEMENT_3D('',#402,#403,#404);
#271=SURFACE_SIDE_STYLE('',(#405));
#272=DRAUGHTING_PRE_DEFINED_CURVE_FONT('continuous');
#273=COLOUR_RGB('',0.0,1.0,1.0);
#274=EDGE_LOOP('',(#406));
#275=EDGE_LOOP('',(#407));
#276=AXIS2_PLACEMENT_3D('',#408,#409,#410);
#277=SURFACE_SIDE_STYLE('',(#411));
#278=DRAUGHTING_PRE_DEFINED_CURVE_FONT('continuous');
#279=COLOUR_RGB('',0.0,1.0,1.0);
#280=EDGE_LOOP('',(#412));
#281=EDGE_LOOP('',(#413));
#282=AXIS2_PLACEMENT_3D('',#414,#415,#416);
#283=DRAUGHTING_PRE_DEFINED_CURVE_FONT('continuous');
#284=COLOUR_RGB('',0.0,1.0,1.0);
#285=CARTESIAN_POINT('',(-1.34711147906209E-015,8.2,22.0));
#286=AXIS2_PLACEMENT_3D('',#417,#418,#419);
#287=SURFACE_SIDE_STYLE('',(#420));
#288=DRAUGHTING_PRE_DEFINED_CURVE_FONT('continuous');
#289=COLOUR_RGB('',0.0,1.0,1.0);
#290=EDGE_LOOP('',(#421));
#291=EDGE_LOOP('',(#422));
#292=AXIS2_PLACEMENT_3D('',#423,#424,#425);
#293=SURFACE_SIDE_STYLE('',(#426));
#294=DRAUGHTING_PRE_DEFINED_CURVE_FONT('continuous');
#295=COLOUR_RGB('',0.0,1.0,1.0);
#296=EDGE_LOOP('',(#427));
#297=AXIS2_PLACEMENT_3D('',#428,#429,#430);
#298=SURFACE_SIDE_STYLE('',(#431));
#299=DRAUGHTING_PRE_DEFINED_CURVE_FONT('continuous');
#300=COLOUR_RGB('',0.0,1.0,1.0);
#301=EDGE_LOOP('',(#432));
#302=EDGE_LOOP('',(#433));
#303=AXIS2_PLACEMENT_3D('',#434,#435,#436);
#304=SURFACE_SIDE_STYLE('',(#437));
#305=DRAUGHTING_PRE_DEFINED_CURVE_FONT('continuous');
#306=COLOUR_RGB('',0.0,1.0,1.0);
#307=EDGE_LOOP('',(#438));
#308=EDGE_LOOP('',(#439));
#309=AXIS2_PLACEMENT_3D('',#440,#441,#442);
#310=SURFACE_SIDE_STYLE('',(#443));
#311=DRAUGHTING_PRE_DEFINED_CURVE_FONT('continuous');
#312=COLOUR_RGB('',0.0,1.0,1.0);
#313=EDGE_LOOP('',(#444));
#314=EDGE_LOOP('',(#445));
#315=AXIS2_PLACEMENT_3D('',#446,#447,#448);
#316=SURFACE_SIDE_STYLE('',(#449));
#317=DRAUGHTING_PRE_DEFINED_CURVE_FONT('continuous');
#318=COLOUR_RGB('',0.0,1.0,1.0);
#319=EDGE_LOOP('',(#450));
#320=EDGE_LOOP('',(#451));
#321=AXIS2_PLACEMENT_3D('',#452,#453,#454);
#322=SURFACE_SIDE_STYLE('',(#455));
#323=DRAUGHTING_PRE_DEFINED_CURVE_FONT('continuous');
#324=COLOUR_RGB('',0.0,1.0,1.0);
#325=EDGE_LOOP('',(#456));
#326=EDGE_LOOP('',(#457));
#327=AXIS2_PLACEMENT_3D('',#458,#459,#460);
#328=DRAUGHTING_PRE_DEFINED_CURVE_FONT('continuous');
#329=COLOUR_RGB('',0.0,1.0,1.0);
#330=CARTESIAN_POINT('',(-1.26444782018087E-014,13.0,206.50000001));
#331=AXIS2_PLACEMENT_3D('',#461,#462,#463);
#332=DRAUGHTING_PRE_DEFINED_CURVE_FONT('continuous');
#333=COLOUR_RGB('',0.0,1.0,1.0);
#334=CARTESIAN_POINT('',(-1.2189042945714E-014,9.99999999999998,199.062177832833));
#335=AXIS2_PLACEMENT_3D('',#464,#465,#466);
#336=DRAUGHTING_PRE_DEFINED_CURVE_FONT('continuous');
#337=COLOUR_RGB('',0.0,1.0,1.0);
#338=CARTESIAN_POINT('',(-1.2246467991136E-014,13.5,199.999999994487));
#339=AXIS2_PLACEMENT_3D('',#467,#468,#469);
#340=DRAUGHTING_PRE_DEFINED_CURVE_FONT('continuous');
#341=COLOUR_RGB('',0.0,1.0,1.0);
#342=CARTESIAN_POINT('',(-1.28587913910472E-015,10.15,21.0));
#343=AXIS2_PLACEMENT_3D('',#470,#471,#472);
#344=SURFACE_SIDE_STYLE('',(#473));
#345=DRAUGHTING_PRE_DEFINED_CURVE_FONT('continuous');
#346=COLOUR_RGB('',0.0,1.0,1.0);
#347=EDGE_LOOP('',(#474));
#348=AXIS2_PLACEMENT_3D('',#475,#476,#477);
#349=SURFACE_SIDE_STYLE('',(#478));
#350=DRAUGHTING_PRE_DEFINED_CURVE_FONT('continuous');
#351=COLOUR_RGB('',0.0,1.0,1.0);
#352=EDGE_LOOP('',(#479));
#353=EDGE_LOOP('',(#480));
#354=AXIS2_PLACEMENT_3D('',#481,#482,#483);
#355=DRAUGHTING_PRE_DEFINED_CURVE_FONT('continuous');
#356=COLOUR_RGB('',0.0,1.0,1.0);
#357=CARTESIAN_POINT('',(-1.16341445918999E-015,10.15,19.0));
#358=AXIS2_PLACEMENT_3D('',#484,#485,#486);
#359=DRAUGHTING_PRE_DEFINED_CURVE_FONT('continuous');
#360=COLOUR_RGB('',0.0,1.0,1.0);
#361=CARTESIAN_POINT('',(-1.25603609648808E-014,13.5,205.12626128));
#362=AXIS2_PLACEMENT_3D('',#487,#488,#489);
#363=DRAUGHTING_PRE_DEFINED_CURVE_FONT('continuous');
#364=COLOUR_RGB('',0.0,1.0,1.0);
#365=CARTESIAN_POINT('',(-1.34711147906209E-015,10.0,22.0));
#366=AXIS2_PLACEMENT_3D('',#490,#491,#492);
#367=DRAUGHTING_PRE_DEFINED_CURVE_FONT('continuous');
#368=COLOUR_RGB('',0.0,1.0,1.0);
#369=CARTESIAN_POINT('',(-1.28894075610259E-014,9.99999999999997,206.50000001));
#370=AXIS2_PLACEMENT_3D('',#493,#494,#495);
#371=DRAUGHTING_PRE_DEFINED_CURVE_FONT('continuous');
#372=COLOUR_RGB('',0.0,1.0,1.0);
#373=CARTESIAN_POINT('',(0.0,10.0,0.0));
#374=AXIS2_PLACEMENT_3D('',#496,#497,#498);
#375=SURFACE_SIDE_STYLE('',(#499));
#376=DRAUGHTING_PRE_DEFINED_CURVE_FONT('continuous');
#377=COLOUR_RGB('',0.0,1.0,1.0);
#378=EDGE_LOOP('',(#500));
#379=EDGE_LOOP('',(#501));
#380=AXIS2_PLACEMENT_3D('',#502,#503,#504);
#381=SURFACE_SIDE_STYLE('',(#505));
#382=DRAUGHTING_PRE_DEFINED_CURVE_FONT('continuous');
#383=COLOUR_RGB('',0.0,1.0,1.0);
#384=EDGE_LOOP('',(#506));
#385=EDGE_LOOP('',(#507));
#386=AXIS2_PLACEMENT_3D('',#508,#509,#510);
#387=DRAUGHTING_PRE_DEFINED_CURVE_FONT('continuous');
#388=COLOUR_RGB('',0.0,1.0,1.0);
#389=CARTESIAN_POINT('',(-1.53693173292993E-014,9.99999999999997,251.0));
#390=AXIS2_PLACEMENT_3D('',#511,#512,#513);
#392=CARTESIAN_POINT('',(-1.28587913910472E-015,-2.57175827820944E-015,21.0));
#393=DIRECTION('',(6.12323399573676E-017,1.22464679914735E-016,-1.0));
#394=DIRECTION('',(-1.23259516440783E-032,1.0,1.22464679914735E-016));
#395=SURFACE_STYLE_FILL_AREA(#514);
#396=CARTESIAN_POINT('',(-1.14750583067863E-015,-2.29501166135726E-015,18.74019238));
#397=DIRECTION('',(6.12323399573677E-017,1.22464679914735E-016,-1.0));
#398=DIRECTION('',(-1.23259516440783E-032,1.0,1.22464679914735E-016));
#399=SURFACE_STYLE_FILL_AREA(#515);
#400=ORIENTED_EDGE('',*,*,#57,.F.);
#401=ORIENTED_EDGE('',*,*,#105,.T.);
#402=CARTESIAN_POINT('',(-1.15546014493431E-015,-2.31092028986862E-015,18.87009619));
#403=DIRECTION('',(-6.12323399573677E-017,-1.22464679914735E-016,1.0));
#404=DIRECTION('',(-1.23259516440783E-032,1.0,1.22464679914735E-016));
#405=SURFACE_STYLE_FILL_AREA(#516);
#406=ORIENTED_EDGE('',*,*,#91,.F.);
#407=ORIENTED_EDGE('',*,*,#111,.T.);
#408=CARTESIAN_POINT('',(-9.8418485047691,1.7714451753228,206.50000001));
#409=DIRECTION('',(0.0,0.0,1.0));
#410=DIRECTION('',(-1.0,0.0,0.0));
#411=SURFACE_STYLE_FILL_AREA(#517);
#412=ORIENTED_EDGE('',*,*,#52,.F.);
#413=ORIENTED_EDGE('',*,*,#68,.T.);
#414=CARTESIAN_POINT('',(-1.3164953090834E-015,-2.63299061816681E-015,21.5));
#415=DIRECTION('',(6.12323399573676E-017,1.22464679914735E-016,-1.0));
#416=DIRECTION('',(-1.23259516440783E-032,1.0,1.22464679914735E-016));
#417=CARTESIAN_POINT('',(-1.34711147906209E-015,-2.69422295812418E-015,22.0));
#418=DIRECTION('',(6.12323399573676E-017,1.22464679914735E-016,-1.0));
#419=DIRECTION('',(-1.23259516440783E-032,1.0,1.22464679914735E-016));
#420=SURFACE_STYLE_FILL_AREA(#518);
#421=ORIENTED_EDGE('',*,*,#105,.F.);
#422=ORIENTED_EDGE('',*,*,#97,.T.);
#423=CARTESIAN_POINT('',(-1.22464679914735E-015,-2.44929359829471E-015,20.0));
#424=DIRECTION('',(6.12323399573677E-017,1.22464679914735E-016,-1.0));
#425=DIRECTION('',(-1.23259516440783E-032,1.0,1.22464679914735E-016));
#426=SURFACE_STYLE_FILL_AREA(#519);
#427=ORIENTED_EDGE('',*,*,#121,.F.);
#428=CARTESIAN_POINT('',(-1.53693173292993E-014,4.99999999999997,251.0));
#429=DIRECTION('',(7.49879891330927E-033,-1.22464679914735E-016,1.0));
#430=DIRECTION('',(1.0,6.12323399573677E-017,0.0));
#431=SURFACE_STYLE_FILL_AREA(#520);
#432=ORIENTED_EDGE('',*,*,#107,.F.);
#433=ORIENTED_EDGE('',*,*,#91,.T.);
#434=CARTESIAN_POINT('',(-1.26024195833448E-014,-2.52048391666895E-014,205.813130645));
#435=DIRECTION('',(6.12323399573677E-017,1.22464679914735E-016,-1.0));
#436=DIRECTION('',(-1.23259516440783E-032,1.0,1.22464679914735E-016));
#437=SURFACE_STYLE_FILL_AREA(#521);
#438=ORIENTED_EDGE('',*,*,#93,.F.);
#439=ORIENTED_EDGE('',*,*,#95,.T.);
#440=CARTESIAN_POINT('',(-1.2217755468425E-014,-2.443551093685E-014,199.53108891366));
#441=DIRECTION('',(-6.12323399573677E-017,-1.22464679914735E-016,1.0));
#442=DIRECTION('',(-1.23259516440783E-032,1.0,1.22464679914735E-016));
#443=SURFACE_STYLE_FILL_AREA(#522);
#444=ORIENTED_EDGE('',*,*,#113,.F.);
#445=ORIENTED_EDGE('',*,*,#57,.T.);
#446=CARTESIAN_POINT('',(-5.73752915339316E-016,-1.14750583067863E-015,9.37009619));
#447=DIRECTION('',(6.12323399573677E-017,1.22464679914735E-016,-1.0));
#448=DIRECTION('',(-1.23259516440783E-032,1.0,1.22464679914735E-016));
#449=SURFACE_STYLE_FILL_AREA(#523);
#450=ORIENTED_EDGE('',*,*,#97,.F.);
#451=ORIENTED_EDGE('',*,*,#52,.T.);
#452=CARTESIAN_POINT('',(-1.28587913910472E-015,9.175,21.0));
#453=DIRECTION('',(7.49879891330927E-033,-1.22464679914735E-016,1.0));
#454=DIRECTION('',(1.0,6.12323399573677E-017,0.0));
#455=SURFACE_STYLE_FILL_AREA(#524);
#456=ORIENTED_EDGE('',*,*,#109,.F.);
#457=ORIENTED_EDGE('',*,*,#93,.T.);
#458=CARTESIAN_POINT('',(-6.76807721238805E-015,-1.35361544247761E-014,110.531088916417));
#459=DIRECTION('',(6.12323399573677E-017,1.22464679914735E-016,-1.0));
#460=DIRECTION('',(-1.23259516440783E-032,1.0,1.22464679914735E-016));
#461=CARTESIAN_POINT('',(-1.26444782018087E-014,-2.52889564036175E-014,206.50000001));
#462=DIRECTION('',(6.12323399573677E-017,1.22464679914735E-016,-1.0));
#463=DIRECTION('',(-1.23259516440783E-032,1.0,1.22464679914735E-016));
#464=CARTESIAN_POINT('',(-1.2189042945714E-014,-2.4378085891428E-014,199.062177832833));
#465=DIRECTION('',(6.12323399573677E-017,1.22464679914735E-016,-1.0));
#466=DIRECTION('',(-1.23259516440783E-032,1.0,1.22464679914735E-016));
#467=CARTESIAN_POINT('',(-1.2246467991136E-014,-2.4492935982272E-014,199.999999994487));
#468=DIRECTION('',(6.12323399573677E-017,1.22464679914735E-016,-1.0));
#469=DIRECTION('',(-1.23259516440783E-032,1.0,1.22464679914735E-016));
#470=CARTESIAN_POINT('',(-1.28587913910472E-015,-2.57175827820944E-015,21.0));
#471=DIRECTION('',(6.12323399573677E-017,1.22464679914735E-016,-1.0));
#472=DIRECTION('',(-1.23259516440783E-032,1.0,1.22464679914735E-016));
#473=SURFACE_STYLE_FILL_AREA(#525);
#474=ORIENTED_EDGE('',*,*,#113,.T.);
#475=CARTESIAN_POINT('',(0.0,5.0,0.0));
#476=DIRECTION('',(6.12323399573677E-017,1.22464679914735E-016,-1.0));
#477=DIRECTION('',(-1.0,0.0,-6.12323399573677E-017));
#478=SURFACE_STYLE_FILL_AREA(#526);
#479=ORIENTED_EDGE('',*,*,#95,.F.);
#480=ORIENTED_EDGE('',*,*,#107,.T.);
#481=CARTESIAN_POINT('',(-1.24034144780084E-014,-2.48068289560168E-014,202.563130637244));
#482=DIRECTION('',(6.12323399573677E-017,1.22464679914735E-016,-1.0));
#483=DIRECTION('',(-1.23259516440783E-032,1.0,1.22464679914735E-016));
#484=CARTESIAN_POINT('',(-1.16341445918999E-015,-2.32682891837997E-015,19.0));
#485=DIRECTION('',(6.12323399573677E-017,1.22464679914735E-016,-1.0));
#486=DIRECTION('',(-1.23259516440783E-032,1.0,1.22464679914735E-016));
#487=CARTESIAN_POINT('',(-1.25603609648808E-014,-2.51207219297616E-014,205.12626128));
#488=DIRECTION('',(6.12323399573677E-017,1.22464679914735E-016,-1.0));
#489=DIRECTION('',(-1.23259516440783E-032,1.0,1.22464679914735E-016));
#490=CARTESIAN_POINT('',(-1.34711147906209E-015,-2.69422295812418E-015,22.0));
#491=DIRECTION('',(6.12323399573677E-017,1.22464679914735E-016,-1.0));
#492=DIRECTION('',(-1.23259516440783E-032,1.0,1.22464679914735E-016));
#493=CARTESIAN_POINT('',(-1.28894075610259E-014,-2.57788151220518E-014,206.50000001));
#494=DIRECTION('',(6.12323399573677E-017,1.22464679914735E-016,-1.0));
#495=DIRECTION('',(-1.23259516440783E-032,1.0,1.22464679914735E-016));
#496=CARTESIAN_POINT('',(0.0,0.0,0.0));
#497=DIRECTION('',(6.12323399573677E-017,1.22464679914735E-016,-1.0));
#498=DIRECTION('',(-1.23259516440783E-032,1.0,1.22464679914735E-016));
#499=SURFACE_STYLE_FILL_AREA(#527);
#500=ORIENTED_EDGE('',*,*,#109,.T.);
#501=ORIENTED_EDGE('',*,*,#68,.F.);
#502=CARTESIAN_POINT('',(-1.34711147906209E-015,9.1,22.0));
#503=DIRECTION('',(6.12323399573677E-017,1.22464679914735E-016,-1.0));
#504=DIRECTION('',(-1.0,0.0,-6.12323399573677E-017));
#505=SURFACE_STYLE_FILL_AREA(#528);
#506=ORIENTED_EDGE('',*,*,#111,.F.);
#507=ORIENTED_EDGE('',*,*,#121,.T.);
#508=CARTESIAN_POINT('',(-1.41293624451626E-014,-2.82587248903252E-014,230.75));
#509=DIRECTION('',(6.12323399573677E-017,1.22464679914735E-016,-1.0));
#510=DIRECTION('',(-1.23259516440783E-032,1.0,1.22464679914735E-016));
#511=CARTESIAN_POINT('',(-1.53693173292993E-014,-3.07386346585986E-014,251.0));
#512=DIRECTION('',(6.12323399573677E-017,1.22464679914735E-016,-1.0));
#513=DIRECTION('',(-1.23259516440783E-032,1.0,1.22464679914735E-016));
#514=FILL_AREA_STYLE('',(#529));
#515=FILL_AREA_STYLE('',(#530));
#516=FILL_AREA_STYLE('',(#531));
#517=FILL_AREA_STYLE('',(#532));
#518=FILL_AREA_STYLE('',(#533));
#519=FILL_AREA_STYLE('',(#534));
#520=FILL_AREA_STYLE('',(#535));
#521=FILL_AREA_STYLE('',(#536));
#522=FILL_AREA_STYLE('',(#537));
#523=FILL_AREA_STYLE('',(#538));
#524=FILL_AREA_STYLE('',(#539));
#525=FILL_AREA_STYLE('',(#540));
#526=FILL_AREA_STYLE('',(#541));
#527=FILL_AREA_STYLE('',(#542));
#528=FILL_AREA_STYLE('',(#543));
#529=FILL_AREA_STYLE_COLOUR('',#544);
#530=FILL_AREA_STYLE_COLOUR('',#545);
#531=FILL_AREA_STYLE_COLOUR('',#546);
#532=FILL_AREA_STYLE_COLOUR('',#547);
#533=FILL_AREA_STYLE_COLOUR('',#548);
#534=FILL_AREA_STYLE_COLOUR('',#549);
#535=FILL_AREA_STYLE_COLOUR('',#550);
#536=FILL_AREA_STYLE_COLOUR('',#551);
#537=FILL_AREA_STYLE_COLOUR('',#552);
#538=FILL_AREA_STYLE_COLOUR('',#553);
#539=FILL_AREA_STYLE_COLOUR('',#554);
#540=FILL_AREA_STYLE_COLOUR('',#555);
#541=FILL_AREA_STYLE_COLOUR('',#556);
#542=FILL_AREA_STYLE_COLOUR('',#557);
#543=FILL_AREA_STYLE_COLOUR('',#558);
#544=COLOUR_RGB('',0.0,1.0,1.0);
#545=COLOUR_RGB('',0.0,1.0,1.0);
#546=COLOUR_RGB('',0.0,1.0,1.0);
#547=COLOUR_RGB('',0.0,1.0,1.0);
#548=COLOUR_RGB('',0.0,1.0,1.0);
#549=COLOUR_RGB('',0.0,1.0,1.0);
#550=COLOUR_RGB('',0.0,1.0,1.0);
#551=COLOUR_RGB('',0.0,1.0,1.0);
#552=COLOUR_RGB('',0.0,1.0,1.0);
#553=COLOUR_RGB('',0.0,1.0,1.0);
#554=COLOUR_RGB('',0.0,1.0,1.0);
#555=COLOUR_RGB('',0.0,1.0,1.0);
#556=COLOUR_RGB('',0.0,1.0,1.0);
#557=COLOUR_RGB('',0.0,1.0,1.0);
#558=COLOUR_RGB('',0.0,1.0,1.0);
ENDSEC;
END-ISO-10303-21;
