ISO-10303-21;
HEADER;
FILE_DESCRIPTION((''),'1');
FILE_NAME('T:/02_3D_Field-HP\X2\FF71FF6FFF8CFF9F5916\X0\2013/02_Step_Field-HP\X2\FF71FF6FFF8CFF9F5916\X0\2013/MGT12-d-200_060049-090071.stp','2017-02-08T07:53:35',(''),(''),'Spatial Interop R21 SP3','Kubotek KeyCreator 2011 V10.0.2 (22737)',' ');
FILE_SCHEMA(('automotive_design'));
ENDSEC;
DATA;
#1=MECHANICAL_DESIGN_GEOMETRIC_PRESENTATION_REPRESENTATION(' ',(#10,#11,#12,#13,#14,#15,#16,#17,#18,#19,#20,#21,#22,#23,#24,#25,#26,#27,#28,#29,#30,#31,#32,#33,#34,#35,#36,#37),#6);
#2=PRODUCT_DEFINITION_CONTEXT('',#38,'design');
#3=APPLICATION_PROTOCOL_DEFINITION('INTERNATIONAL STANDARD','automotive_design',1994,#38);
#4=PRODUCT_CATEGORY_RELATIONSHIP('NONE','NONE',#39,#40);
#5=SHAPE_DEFINITION_REPRESENTATION(#41,#42);
#6= (GEOMETRIC_REPRESENTATION_CONTEXT(3)GLOBAL_UNCERTAINTY_ASSIGNED_CONTEXT((#45))GLOBAL_UNIT_ASSIGNED_CONTEXT((#47,#48,#49))REPRESENTATION_CONTEXT('NONE','WORKSPACE'));
#10=STYLED_ITEM('',(#51,#52),#53);
#11=STYLED_ITEM('',(#54,#55),#56);
#12=STYLED_ITEM('',(#57),#58);
#13=STYLED_ITEM('',(#59),#60);
#14=STYLED_ITEM('',(#61,#62),#63);
#15=STYLED_ITEM('',(#64),#65);
#16=STYLED_ITEM('',(#66,#67),#68);
#17=STYLED_ITEM('',(#69,#70),#71);
#18=STYLED_ITEM('',(#72,#73),#74);
#19=STYLED_ITEM('',(#75),#76);
#20=STYLED_ITEM('',(#77,#78),#79);
#21=STYLED_ITEM('',(#80),#81);
#22=STYLED_ITEM('',(#82),#83);
#23=STYLED_ITEM('',(#84,#85),#86);
#24=STYLED_ITEM('',(#87),#88);
#25=STYLED_ITEM('',(#89),#90);
#26=STYLED_ITEM('',(#91,#92),#93);
#27=STYLED_ITEM('',(#94),#95);
#28=STYLED_ITEM('',(#96),#97);
#29=STYLED_ITEM('',(#98,#99),#100);
#30=STYLED_ITEM('',(#101,#102),#103);
#31=STYLED_ITEM('',(#104,#105),#106);
#32=STYLED_ITEM('',(#107,#108),#109);
#33=STYLED_ITEM('',(#110),#111);
#34=STYLED_ITEM('',(#112,#113),#114);
#35=STYLED_ITEM('',(#115),#116);
#36=STYLED_ITEM('',(#117),#118);
#37=STYLED_ITEM('',(#119,#120),#121);
#38=APPLICATION_CONTEXT(' ');
#39=PRODUCT_CATEGORY('part','NONE');
#40=PRODUCT_RELATED_PRODUCT_CATEGORY('detail',' ',(#122));
#41=PRODUCT_DEFINITION_SHAPE('NONE','NONE',#123);
#42=ADVANCED_BREP_SHAPE_REPRESENTATION('240[2]',(#79,#124),#6);
#45=UNCERTAINTY_MEASURE_WITH_UNIT(LENGTH_MEASURE(1.0E-006),#47,'','');
#47= (CONVERSION_BASED_UNIT('MILLIMETRE',#127)LENGTH_UNIT()NAMED_UNIT(#130));
#48= (NAMED_UNIT(#132)PLANE_ANGLE_UNIT()SI_UNIT($,.RADIAN.));
#49= (NAMED_UNIT(#132)SOLID_ANGLE_UNIT()SI_UNIT($,.STERADIAN.));
#51=PRESENTATION_STYLE_ASSIGNMENT((#138));
#52=PRESENTATION_STYLE_ASSIGNMENT((#139));
#53=ADVANCED_FACE('240[2]',(#140,#141),#142,.T.);
#54=PRESENTATION_STYLE_ASSIGNMENT((#143));
#55=PRESENTATION_STYLE_ASSIGNMENT((#144));
#56=ADVANCED_FACE('240[2]',(#145),#146,.T.);
#57=PRESENTATION_STYLE_ASSIGNMENT((#147));
#58=EDGE_CURVE('240[2]',#148,#148,#149,.T.);
#59=PRESENTATION_STYLE_ASSIGNMENT((#150));
#60=EDGE_CURVE('240[2]',#151,#151,#152,.T.);
#61=PRESENTATION_STYLE_ASSIGNMENT((#153));
#62=PRESENTATION_STYLE_ASSIGNMENT((#154));
#63=ADVANCED_FACE('240[2]',(#155,#156),#157,.T.);
#64=PRESENTATION_STYLE_ASSIGNMENT((#158));
#65=EDGE_CURVE('240[2]',#159,#159,#160,.T.);
#66=PRESENTATION_STYLE_ASSIGNMENT((#161));
#67=PRESENTATION_STYLE_ASSIGNMENT((#162));
#68=ADVANCED_FACE('240[2]',(#163,#164),#165,.T.);
#69=PRESENTATION_STYLE_ASSIGNMENT((#166));
#70=PRESENTATION_STYLE_ASSIGNMENT((#167));
#71=ADVANCED_FACE('240[2]',(#168,#169),#170,.T.);
#72=PRESENTATION_STYLE_ASSIGNMENT((#171));
#73=PRESENTATION_STYLE_ASSIGNMENT((#172));
#74=ADVANCED_FACE('240[2]',(#173,#174),#175,.T.);
#75=PRESENTATION_STYLE_ASSIGNMENT((#176));
#76=EDGE_CURVE('240[2]',#177,#177,#178,.T.);
#77=PRESENTATION_STYLE_ASSIGNMENT((#179));
#78=PRESENTATION_STYLE_ASSIGNMENT((#180));
#79=MANIFOLD_SOLID_BREP('240[2]',#181);
#80=PRESENTATION_STYLE_ASSIGNMENT((#182));
#81=EDGE_CURVE('240[2]',#183,#183,#184,.T.);
#82=PRESENTATION_STYLE_ASSIGNMENT((#185));
#83=EDGE_CURVE('240[2]',#186,#186,#187,.T.);
#84=PRESENTATION_STYLE_ASSIGNMENT((#188));
#85=PRESENTATION_STYLE_ASSIGNMENT((#189));
#86=ADVANCED_FACE('240[2]',(#190,#191),#192,.T.);
#87=PRESENTATION_STYLE_ASSIGNMENT((#193));
#88=EDGE_CURVE('240[2]',#194,#194,#195,.T.);
#89=PRESENTATION_STYLE_ASSIGNMENT((#196));
#90=EDGE_CURVE('240[2]',#197,#197,#198,.T.);
#91=PRESENTATION_STYLE_ASSIGNMENT((#199));
#92=PRESENTATION_STYLE_ASSIGNMENT((#200));
#93=ADVANCED_FACE('240[2]',(#201,#202),#203,.T.);
#94=PRESENTATION_STYLE_ASSIGNMENT((#204));
#95=EDGE_CURVE('240[2]',#205,#205,#206,.T.);
#96=PRESENTATION_STYLE_ASSIGNMENT((#207));
#97=EDGE_CURVE('240[2]',#208,#208,#209,.T.);
#98=PRESENTATION_STYLE_ASSIGNMENT((#210));
#99=PRESENTATION_STYLE_ASSIGNMENT((#211));
#100=ADVANCED_FACE('240[2]',(#212,#213),#214,.T.);
#101=PRESENTATION_STYLE_ASSIGNMENT((#215));
#102=PRESENTATION_STYLE_ASSIGNMENT((#216));
#103=ADVANCED_FACE('240[2]',(#217,#218),#219,.T.);
#104=PRESENTATION_STYLE_ASSIGNMENT((#220));
#105=PRESENTATION_STYLE_ASSIGNMENT((#221));
#106=ADVANCED_FACE('240[2]',(#222),#223,.T.);
#107=PRESENTATION_STYLE_ASSIGNMENT((#224));
#108=PRESENTATION_STYLE_ASSIGNMENT((#225));
#109=ADVANCED_FACE('240[2]',(#226,#227),#228,.T.);
#110=PRESENTATION_STYLE_ASSIGNMENT((#229));
#111=EDGE_CURVE('240[2]',#230,#230,#231,.T.);
#112=PRESENTATION_STYLE_ASSIGNMENT((#232));
#113=PRESENTATION_STYLE_ASSIGNMENT((#233));
#114=ADVANCED_FACE('240[2]',(#234,#235),#236,.T.);
#115=PRESENTATION_STYLE_ASSIGNMENT((#237));
#116=EDGE_CURVE('240[2]',#238,#238,#239,.T.);
#117=PRESENTATION_STYLE_ASSIGNMENT((#240));
#118=EDGE_CURVE('240[2]',#241,#241,#242,.T.);
#119=PRESENTATION_STYLE_ASSIGNMENT((#243));
#120=PRESENTATION_STYLE_ASSIGNMENT((#244));
#121=ADVANCED_FACE('240[2]',(#245,#246),#247,.T.);
#122=PRODUCT('240[2]','240[2]','PART-240[2]-DESC',(#248));
#123=PRODUCT_DEFINITION('NONE','NONE',#249,#2);
#124=AXIS2_PLACEMENT_3D('',#250,#251,#252);
#127=LENGTH_MEASURE_WITH_UNIT(LENGTH_MEASURE(1.0),#253);
#130=DIMENSIONAL_EXPONENTS(1.0,0.0,0.0,0.0,0.0,0.0,0.0);
#132=DIMENSIONAL_EXPONENTS(0.0,0.0,0.0,0.0,0.0,0.0,0.0);
#138=SURFACE_STYLE_USAGE(.BOTH.,#254);
#139=CURVE_STYLE('',#255,POSITIVE_LENGTH_MEASURE(1000.0),#256);
#140=FACE_BOUND('',#257,.T.);
#141=FACE_BOUND('',#258,.T.);
#142=CONICAL_SURFACE('',#259,13.25,0.349065845655958);
#143=SURFACE_STYLE_USAGE(.BOTH.,#260);
#144=CURVE_STYLE('',#261,POSITIVE_LENGTH_MEASURE(1000.0),#262);
#145=FACE_OUTER_BOUND('',#263,.T.);
#146=PLANE('',#264);
#147=CURVE_STYLE('',#265,POSITIVE_LENGTH_MEASURE(1000.0),#266);
#148=VERTEX_POINT('',#267);
#149=CIRCLE('',#268,10.0);
#150=CURVE_STYLE('',#269,POSITIVE_LENGTH_MEASURE(1000.0),#270);
#151=VERTEX_POINT('',#271);
#152=CIRCLE('',#272,10.0);
#153=SURFACE_STYLE_USAGE(.BOTH.,#273);
#154=CURVE_STYLE('',#274,POSITIVE_LENGTH_MEASURE(1000.0),#275);
#155=FACE_BOUND('',#276,.T.);
#156=FACE_BOUND('',#277,.T.);
#157=CONICAL_SURFACE('',#278,10.075,0.523598777490513);
#158=CURVE_STYLE('',#279,POSITIVE_LENGTH_MEASURE(1000.0),#280);
#159=VERTEX_POINT('',#281);
#160=CIRCLE('',#282,10.15);
#161=SURFACE_STYLE_USAGE(.BOTH.,#283);
#162=CURVE_STYLE('',#284,POSITIVE_LENGTH_MEASURE(1000.0),#285);
#163=FACE_BOUND('',#286,.T.);
#164=FACE_BOUND('',#287,.T.);
#165=CYLINDRICAL_SURFACE('',#288,8.2);
#166=SURFACE_STYLE_USAGE(.BOTH.,#289);
#167=CURVE_STYLE('',#290,POSITIVE_LENGTH_MEASURE(1000.0),#291);
#168=FACE_OUTER_BOUND('',#292,.T.);
#169=FACE_BOUND('',#293,.T.);
#170=PLANE('',#294);
#171=SURFACE_STYLE_USAGE(.BOTH.,#295);
#172=CURVE_STYLE('',#296,POSITIVE_LENGTH_MEASURE(1000.0),#297);
#173=FACE_BOUND('',#298,.T.);
#174=FACE_BOUND('',#299,.T.);
#175=CYLINDRICAL_SURFACE('',#300,10.0);
#176=CURVE_STYLE('',#301,POSITIVE_LENGTH_MEASURE(1000.0),#302);
#177=VERTEX_POINT('',#303);
#178=CIRCLE('',#304,13.5);
#179=SURFACE_STYLE_USAGE(.BOTH.,#305);
#180=CURVE_STYLE('',#306,POSITIVE_LENGTH_MEASURE(1000.0),#307);
#181=CLOSED_SHELL('',(#71,#106,#114,#53,#100,#93,#74,#121,#68,#109,#86,#63,#103,#56));
#182=CURVE_STYLE('',#308,POSITIVE_LENGTH_MEASURE(1000.0),#309);
#183=VERTEX_POINT('',#310);
#184=CIRCLE('',#311,10.15);
#185=CURVE_STYLE('',#312,POSITIVE_LENGTH_MEASURE(1000.0),#313);
#186=VERTEX_POINT('',#314);
#187=CIRCLE('',#315,8.2);
#188=SURFACE_STYLE_USAGE(.BOTH.,#316);
#189=CURVE_STYLE('',#317,POSITIVE_LENGTH_MEASURE(1000.0),#318);
#190=FACE_BOUND('',#319,.T.);
#191=FACE_BOUND('',#320,.T.);
#192=CYLINDRICAL_SURFACE('',#321,10.15);
#193=CURVE_STYLE('',#322,POSITIVE_LENGTH_MEASURE(1000.0),#323);
#194=VERTEX_POINT('',#324);
#195=CIRCLE('',#325,10.0);
#196=CURVE_STYLE('',#326,POSITIVE_LENGTH_MEASURE(1000.0),#327);
#197=VERTEX_POINT('',#328);
#198=CIRCLE('',#329,13.0);
#199=SURFACE_STYLE_USAGE(.BOTH.,#330);
#200=CURVE_STYLE('',#331,POSITIVE_LENGTH_MEASURE(1000.0),#332);
#201=FACE_BOUND('',#333,.T.);
#202=FACE_BOUND('',#334,.T.);
#203=CONICAL_SURFACE('',#335,11.75,1.30899694215588);
#204=CURVE_STYLE('',#336,POSITIVE_LENGTH_MEASURE(1000.0),#337);
#205=VERTEX_POINT('',#338);
#206=CIRCLE('',#339,8.2);
#207=CURVE_STYLE('',#340,POSITIVE_LENGTH_MEASURE(1000.0),#341);
#208=VERTEX_POINT('',#342);
#209=CIRCLE('',#343,10.0);
#210=SURFACE_STYLE_USAGE(.BOTH.,#344);
#211=CURVE_STYLE('',#345,POSITIVE_LENGTH_MEASURE(1000.0),#346);
#212=FACE_BOUND('',#347,.T.);
#213=FACE_BOUND('',#348,.T.);
#214=CYLINDRICAL_SURFACE('',#349,13.5);
#215=SURFACE_STYLE_USAGE(.BOTH.,#350);
#216=CURVE_STYLE('',#351,POSITIVE_LENGTH_MEASURE(1000.0),#352);
#217=FACE_BOUND('',#353,.T.);
#218=FACE_BOUND('',#354,.T.);
#219=CYLINDRICAL_SURFACE('',#355,10.0);
#220=SURFACE_STYLE_USAGE(.BOTH.,#356);
#221=CURVE_STYLE('',#357,POSITIVE_LENGTH_MEASURE(1000.0),#358);
#222=FACE_OUTER_BOUND('',#359,.T.);
#223=PLANE('',#360);
#224=SURFACE_STYLE_USAGE(.BOTH.,#361);
#225=CURVE_STYLE('',#362,POSITIVE_LENGTH_MEASURE(1000.0),#363);
#226=FACE_OUTER_BOUND('',#364,.T.);
#227=FACE_BOUND('',#365,.T.);
#228=PLANE('',#366);
#229=CURVE_STYLE('',#367,POSITIVE_LENGTH_MEASURE(1000.0),#368);
#230=VERTEX_POINT('',#369);
#231=CIRCLE('',#370,10.0);
#232=SURFACE_STYLE_USAGE(.BOTH.,#371);
#233=CURVE_STYLE('',#372,POSITIVE_LENGTH_MEASURE(1000.0),#373);
#234=FACE_BOUND('',#374,.T.);
#235=FACE_BOUND('',#375,.T.);
#236=CYLINDRICAL_SURFACE('',#376,10.0);
#237=CURVE_STYLE('',#377,POSITIVE_LENGTH_MEASURE(1000.0),#378);
#238=VERTEX_POINT('',#379);
#239=CIRCLE('',#380,10.0);
#240=CURVE_STYLE('',#381,POSITIVE_LENGTH_MEASURE(1000.0),#382);
#241=VERTEX_POINT('',#383);
#242=CIRCLE('',#384,13.5);
#243=SURFACE_STYLE_USAGE(.BOTH.,#385);
#244=CURVE_STYLE('',#386,POSITIVE_LENGTH_MEASURE(1000.0),#387);
#245=FACE_OUTER_BOUND('',#388,.T.);
#246=FACE_BOUND('',#389,.T.);
#247=PLANE('',#390);
#248=PRODUCT_CONTEXT('',#38,'mechanical');
#249=PRODUCT_DEFINITION_FORMATION_WITH_SPECIFIED_SOURCE(' ','NONE',#122,.NOT_KNOWN.);
#250=CARTESIAN_POINT('',(0.0,0.0,0.0));
#251=DIRECTION('',(0.0,0.0,1.0));
#252=DIRECTION('',(1.0,0.0,0.0));
#253= (NAMED_UNIT(#130)LENGTH_UNIT()SI_UNIT(.MILLI.,.METRE.));
#254=SURFACE_SIDE_STYLE('',(#392));
#255=DRAUGHTING_PRE_DEFINED_CURVE_FONT('continuous');
#256=COLOUR_RGB('',0.0,1.0,1.0);
#257=EDGE_LOOP('',(#393));
#258=EDGE_LOOP('',(#394));
#259=AXIS2_PLACEMENT_3D('',#395,#396,#397);
#260=SURFACE_SIDE_STYLE('',(#398));
#261=DRAUGHTING_PRE_DEFINED_CURVE_FONT('continuous');
#262=COLOUR_RGB('',0.0,1.0,1.0);
#263=EDGE_LOOP('',(#399));
#264=AXIS2_PLACEMENT_3D('',#400,#401,#402);
#265=DRAUGHTING_PRE_DEFINED_CURVE_FONT('continuous');
#266=COLOUR_RGB('',0.0,1.0,1.0);
#267=CARTESIAN_POINT('',(-1.53693173292993E-014,9.99999999999997,251.0));
#268=AXIS2_PLACEMENT_3D('',#403,#404,#405);
#269=DRAUGHTING_PRE_DEFINED_CURVE_FONT('continuous');
#270=COLOUR_RGB('',0.0,1.0,1.0);
#271=CARTESIAN_POINT('',(-1.14750583067863E-015,10.0,18.74019238));
#272=AXIS2_PLACEMENT_3D('',#406,#407,#408);
#273=SURFACE_SIDE_STYLE('',(#409));
#274=DRAUGHTING_PRE_DEFINED_CURVE_FONT('continuous');
#275=COLOUR_RGB('',0.0,1.0,1.0);
#276=EDGE_LOOP('',(#410));
#277=EDGE_LOOP('',(#411));
#278=AXIS2_PLACEMENT_3D('',#412,#413,#414);
#279=DRAUGHTING_PRE_DEFINED_CURVE_FONT('continuous');
#280=COLOUR_RGB('',0.0,1.0,1.0);
#281=CARTESIAN_POINT('',(-1.16341445918999E-015,10.15,19.0));
#282=AXIS2_PLACEMENT_3D('',#415,#416,#417);
#283=SURFACE_SIDE_STYLE('',(#418));
#284=DRAUGHTING_PRE_DEFINED_CURVE_FONT('continuous');
#285=COLOUR_RGB('',0.0,1.0,1.0);
#286=EDGE_LOOP('',(#419));
#287=EDGE_LOOP('',(#420));
#288=AXIS2_PLACEMENT_3D('',#421,#422,#423);
#289=SURFACE_SIDE_STYLE('',(#424));
#290=DRAUGHTING_PRE_DEFINED_CURVE_FONT('continuous');
#291=COLOUR_RGB('',0.0,1.0,1.0);
#292=EDGE_LOOP('',(#425));
#293=EDGE_LOOP('',(#426));
#294=AXIS2_PLACEMENT_3D('',#427,#428,#429);
#295=SURFACE_SIDE_STYLE('',(#430));
#296=DRAUGHTING_PRE_DEFINED_CURVE_FONT('continuous');
#297=COLOUR_RGB('',0.0,1.0,1.0);
#298=EDGE_LOOP('',(#431));
#299=EDGE_LOOP('',(#432));
#300=AXIS2_PLACEMENT_3D('',#433,#434,#435);
#301=DRAUGHTING_PRE_DEFINED_CURVE_FONT('continuous');
#302=COLOUR_RGB('',0.0,1.0,1.0);
#303=CARTESIAN_POINT('',(-1.2246467991136E-014,13.5,199.999999994487));
#304=AXIS2_PLACEMENT_3D('',#436,#437,#438);
#305=SURFACE_SIDE_STYLE('',(#439));
#306=DRAUGHTING_PRE_DEFINED_CURVE_FONT('continuous');
#307=COLOUR_RGB('',0.0,1.0,1.0);
#308=DRAUGHTING_PRE_DEFINED_CURVE_FONT('continuous');
#309=COLOUR_RGB('',0.0,1.0,1.0);
#310=CARTESIAN_POINT('',(-1.28587913910472E-015,10.15,21.0));
#311=AXIS2_PLACEMENT_3D('',#440,#441,#442);
#312=DRAUGHTING_PRE_DEFINED_CURVE_FONT('continuous');
#313=COLOUR_RGB('',0.0,1.0,1.0);
#314=CARTESIAN_POINT('',(-1.34711147906209E-015,8.2,22.0));
#315=AXIS2_PLACEMENT_3D('',#443,#444,#445);
#316=SURFACE_SIDE_STYLE('',(#446));
#317=DRAUGHTING_PRE_DEFINED_CURVE_FONT('continuous');
#318=COLOUR_RGB('',0.0,1.0,1.0);
#319=EDGE_LOOP('',(#447));
#320=EDGE_LOOP('',(#448));
#321=AXIS2_PLACEMENT_3D('',#449,#450,#451);
#322=DRAUGHTING_PRE_DEFINED_CURVE_FONT('continuous');
#323=COLOUR_RGB('',0.0,1.0,1.0);
#324=CARTESIAN_POINT('',(-1.2189042945714E-014,9.99999999999998,199.062177832833));
#325=AXIS2_PLACEMENT_3D('',#452,#453,#454);
#326=DRAUGHTING_PRE_DEFINED_CURVE_FONT('continuous');
#327=COLOUR_RGB('',0.0,1.0,1.0);
#328=CARTESIAN_POINT('',(-1.26444782018087E-014,13.0,206.50000001));
#329=AXIS2_PLACEMENT_3D('',#455,#456,#457);
#330=SURFACE_SIDE_STYLE('',(#458));
#331=DRAUGHTING_PRE_DEFINED_CURVE_FONT('continuous');
#332=COLOUR_RGB('',0.0,1.0,1.0);
#333=EDGE_LOOP('',(#459));
#334=EDGE_LOOP('',(#460));
#335=AXIS2_PLACEMENT_3D('',#461,#462,#463);
#336=DRAUGHTING_PRE_DEFINED_CURVE_FONT('continuous');
#337=COLOUR_RGB('',0.0,1.0,1.0);
#338=CARTESIAN_POINT('',(-1.28587913910472E-015,8.2,21.0));
#339=AXIS2_PLACEMENT_3D('',#464,#465,#466);
#340=DRAUGHTING_PRE_DEFINED_CURVE_FONT('continuous');
#341=COLOUR_RGB('',0.0,1.0,1.0);
#342=CARTESIAN_POINT('',(0.0,10.0,0.0));
#343=AXIS2_PLACEMENT_3D('',#467,#468,#469);
#344=SURFACE_SIDE_STYLE('',(#470));
#345=DRAUGHTING_PRE_DEFINED_CURVE_FONT('continuous');
#346=COLOUR_RGB('',0.0,1.0,1.0);
#347=EDGE_LOOP('',(#471));
#348=EDGE_LOOP('',(#472));
#349=AXIS2_PLACEMENT_3D('',#473,#474,#475);
#350=SURFACE_SIDE_STYLE('',(#476));
#351=DRAUGHTING_PRE_DEFINED_CURVE_FONT('continuous');
#352=COLOUR_RGB('',0.0,1.0,1.0);
#353=EDGE_LOOP('',(#477));
#354=EDGE_LOOP('',(#478));
#355=AXIS2_PLACEMENT_3D('',#479,#480,#481);
#356=SURFACE_SIDE_STYLE('',(#482));
#357=DRAUGHTING_PRE_DEFINED_CURVE_FONT('continuous');
#358=COLOUR_RGB('',0.0,1.0,1.0);
#359=EDGE_LOOP('',(#483));
#360=AXIS2_PLACEMENT_3D('',#484,#485,#486);
#361=SURFACE_SIDE_STYLE('',(#487));
#362=DRAUGHTING_PRE_DEFINED_CURVE_FONT('continuous');
#363=COLOUR_RGB('',0.0,1.0,1.0);
#364=EDGE_LOOP('',(#488));
#365=EDGE_LOOP('',(#489));
#366=AXIS2_PLACEMENT_3D('',#490,#491,#492);
#367=DRAUGHTING_PRE_DEFINED_CURVE_FONT('continuous');
#368=COLOUR_RGB('',0.0,1.0,1.0);
#369=CARTESIAN_POINT('',(-1.28894075610259E-014,9.99999999999997,206.50000001));
#370=AXIS2_PLACEMENT_3D('',#493,#494,#495);
#371=SURFACE_SIDE_STYLE('',(#496));
#372=DRAUGHTING_PRE_DEFINED_CURVE_FONT('continuous');
#373=COLOUR_RGB('',0.0,1.0,1.0);
#374=EDGE_LOOP('',(#497));
#375=EDGE_LOOP('',(#498));
#376=AXIS2_PLACEMENT_3D('',#499,#500,#501);
#377=DRAUGHTING_PRE_DEFINED_CURVE_FONT('continuous');
#378=COLOUR_RGB('',0.0,1.0,1.0);
#379=CARTESIAN_POINT('',(-1.34711147906209E-015,10.0,22.0));
#380=AXIS2_PLACEMENT_3D('',#502,#503,#504);
#381=DRAUGHTING_PRE_DEFINED_CURVE_FONT('continuous');
#382=COLOUR_RGB('',0.0,1.0,1.0);
#383=CARTESIAN_POINT('',(-1.25603609648808E-014,13.5,205.12626128));
#384=AXIS2_PLACEMENT_3D('',#505,#506,#507);
#385=SURFACE_SIDE_STYLE('',(#508));
#386=DRAUGHTING_PRE_DEFINED_CURVE_FONT('continuous');
#387=COLOUR_RGB('',0.0,1.0,1.0);
#388=EDGE_LOOP('',(#509));
#389=EDGE_LOOP('',(#510));
#390=AXIS2_PLACEMENT_3D('',#511,#512,#513);
#392=SURFACE_STYLE_FILL_AREA(#514);
#393=ORIENTED_EDGE('',*,*,#118,.F.);
#394=ORIENTED_EDGE('',*,*,#90,.T.);
#395=CARTESIAN_POINT('',(-1.26024195833448E-014,-2.52048391666895E-014,205.813130645));
#396=DIRECTION('',(6.12323399573677E-017,1.22464679914735E-016,-1.0));
#397=DIRECTION('',(-1.23259516440783E-032,1.0,1.22464679914735E-016));
#398=SURFACE_STYLE_FILL_AREA(#515);
#399=ORIENTED_EDGE('',*,*,#97,.T.);
#400=CARTESIAN_POINT('',(0.0,5.0,0.0));
#401=DIRECTION('',(6.12323399573677E-017,1.22464679914735E-016,-1.0));
#402=DIRECTION('',(-1.0,0.0,-6.12323399573677E-017));
#403=CARTESIAN_POINT('',(-1.53693173292993E-014,-3.07386346585986E-014,251.0));
#404=DIRECTION('',(6.12323399573677E-017,1.22464679914735E-016,-1.0));
#405=DIRECTION('',(-1.23259516440783E-032,1.0,1.22464679914735E-016));
#406=CARTESIAN_POINT('',(-1.14750583067863E-015,-2.29501166135726E-015,18.74019238));
#407=DIRECTION('',(6.12323399573677E-017,1.22464679914735E-016,-1.0));
#408=DIRECTION('',(-1.23259516440783E-032,1.0,1.22464679914735E-016));
#409=SURFACE_STYLE_FILL_AREA(#516);
#410=ORIENTED_EDGE('',*,*,#60,.F.);
#411=ORIENTED_EDGE('',*,*,#65,.T.);
#412=CARTESIAN_POINT('',(-1.15546014493431E-015,-2.31092028986862E-015,18.87009619));
#413=DIRECTION('',(-6.12323399573677E-017,-1.22464679914735E-016,1.0));
#414=DIRECTION('',(-1.23259516440783E-032,1.0,1.22464679914735E-016));
#415=CARTESIAN_POINT('',(-1.16341445918999E-015,-2.32682891837997E-015,19.0));
#416=DIRECTION('',(6.12323399573677E-017,1.22464679914735E-016,-1.0));
#417=DIRECTION('',(-1.23259516440783E-032,1.0,1.22464679914735E-016));
#418=SURFACE_STYLE_FILL_AREA(#517);
#419=ORIENTED_EDGE('',*,*,#95,.F.);
#420=ORIENTED_EDGE('',*,*,#83,.T.);
#421=CARTESIAN_POINT('',(-1.3164953090834E-015,-2.63299061816681E-015,21.5));
#422=DIRECTION('',(-6.12323399573676E-017,-1.22464679914735E-016,1.0));
#423=DIRECTION('',(-1.23259516440783E-032,1.0,1.22464679914735E-016));
#424=SURFACE_STYLE_FILL_AREA(#518);
#425=ORIENTED_EDGE('',*,*,#90,.F.);
#426=ORIENTED_EDGE('',*,*,#111,.T.);
#427=CARTESIAN_POINT('',(-9.8418485047691,1.7714451753228,206.50000001));
#428=DIRECTION('',(0.0,0.0,1.0));
#429=DIRECTION('',(1.0,-0.0,0.0));
#430=SURFACE_STYLE_FILL_AREA(#519);
#431=ORIENTED_EDGE('',*,*,#116,.F.);
#432=ORIENTED_EDGE('',*,*,#88,.T.);
#433=CARTESIAN_POINT('',(-6.76807721238805E-015,-1.35361544247761E-014,110.531088916417));
#434=DIRECTION('',(-6.12323399573677E-017,-1.22464679914735E-016,1.0));
#435=DIRECTION('',(-1.23259516440783E-032,1.0,1.22464679914735E-016));
#436=CARTESIAN_POINT('',(-1.2246467991136E-014,-2.4492935982272E-014,199.999999994487));
#437=DIRECTION('',(6.12323399573677E-017,1.22464679914735E-016,-1.0));
#438=DIRECTION('',(-1.23259516440783E-032,1.0,1.22464679914735E-016));
#439=SURFACE_STYLE_FILL_AREA(#520);
#440=CARTESIAN_POINT('',(-1.28587913910472E-015,-2.57175827820944E-015,21.0));
#441=DIRECTION('',(6.12323399573677E-017,1.22464679914735E-016,-1.0));
#442=DIRECTION('',(-1.23259516440783E-032,1.0,1.22464679914735E-016));
#443=CARTESIAN_POINT('',(-1.34711147906209E-015,-2.69422295812418E-015,22.0));
#444=DIRECTION('',(6.12323399573676E-017,1.22464679914735E-016,-1.0));
#445=DIRECTION('',(-1.23259516440783E-032,1.0,1.22464679914735E-016));
#446=SURFACE_STYLE_FILL_AREA(#521);
#447=ORIENTED_EDGE('',*,*,#65,.F.);
#448=ORIENTED_EDGE('',*,*,#81,.T.);
#449=CARTESIAN_POINT('',(-1.22464679914735E-015,-2.44929359829471E-015,20.0));
#450=DIRECTION('',(-6.12323399573677E-017,-1.22464679914735E-016,1.0));
#451=DIRECTION('',(-1.23259516440783E-032,1.0,1.22464679914735E-016));
#452=CARTESIAN_POINT('',(-1.2189042945714E-014,-2.4378085891428E-014,199.062177832833));
#453=DIRECTION('',(6.12323399573677E-017,1.22464679914735E-016,-1.0));
#454=DIRECTION('',(-1.23259516440783E-032,1.0,1.22464679914735E-016));
#455=CARTESIAN_POINT('',(-1.26444782018087E-014,-2.52889564036175E-014,206.50000001));
#456=DIRECTION('',(6.12323399573677E-017,1.22464679914735E-016,-1.0));
#457=DIRECTION('',(-1.23259516440783E-032,1.0,1.22464679914735E-016));
#458=SURFACE_STYLE_FILL_AREA(#522);
#459=ORIENTED_EDGE('',*,*,#88,.F.);
#460=ORIENTED_EDGE('',*,*,#76,.T.);
#461=CARTESIAN_POINT('',(-1.2217755468425E-014,-2.443551093685E-014,199.53108891366));
#462=DIRECTION('',(-6.12323399573677E-017,-1.22464679914735E-016,1.0));
#463=DIRECTION('',(-1.23259516440783E-032,1.0,1.22464679914735E-016));
#464=CARTESIAN_POINT('',(-1.28587913910472E-015,-2.57175827820944E-015,21.0));
#465=DIRECTION('',(6.12323399573676E-017,1.22464679914735E-016,-1.0));
#466=DIRECTION('',(-1.23259516440783E-032,1.0,1.22464679914735E-016));
#467=CARTESIAN_POINT('',(0.0,0.0,0.0));
#468=DIRECTION('',(6.12323399573677E-017,1.22464679914735E-016,-1.0));
#469=DIRECTION('',(-1.23259516440783E-032,1.0,1.22464679914735E-016));
#470=SURFACE_STYLE_FILL_AREA(#523);
#471=ORIENTED_EDGE('',*,*,#76,.F.);
#472=ORIENTED_EDGE('',*,*,#118,.T.);
#473=CARTESIAN_POINT('',(-1.24034144780084E-014,-2.48068289560168E-014,202.563130637244));
#474=DIRECTION('',(-6.12323399573677E-017,-1.22464679914735E-016,1.0));
#475=DIRECTION('',(-1.23259516440783E-032,1.0,1.22464679914735E-016));
#476=SURFACE_STYLE_FILL_AREA(#524);
#477=ORIENTED_EDGE('',*,*,#97,.F.);
#478=ORIENTED_EDGE('',*,*,#60,.T.);
#479=CARTESIAN_POINT('',(-5.73752915339316E-016,-1.14750583067863E-015,9.37009619));
#480=DIRECTION('',(-6.12323399573677E-017,-1.22464679914735E-016,1.0));
#481=DIRECTION('',(-1.23259516440783E-032,1.0,1.22464679914735E-016));
#482=SURFACE_STYLE_FILL_AREA(#525);
#483=ORIENTED_EDGE('',*,*,#58,.F.);
#484=CARTESIAN_POINT('',(-1.53693173292993E-014,4.99999999999997,251.0));
#485=DIRECTION('',(-9.18338008663382E-049,-1.22464679914735E-016,1.0));
#486=DIRECTION('',(1.0,-7.49879891330927E-033,0.0));
#487=SURFACE_STYLE_FILL_AREA(#526);
#488=ORIENTED_EDGE('',*,*,#81,.F.);
#489=ORIENTED_EDGE('',*,*,#95,.T.);
#490=CARTESIAN_POINT('',(-1.28587913910472E-015,9.175,21.0));
#491=DIRECTION('',(-9.18338008663382E-049,-1.22464679914735E-016,1.0));
#492=DIRECTION('',(1.0,-7.49879891330927E-033,0.0));
#493=CARTESIAN_POINT('',(-1.28894075610259E-014,-2.57788151220518E-014,206.50000001));
#494=DIRECTION('',(6.12323399573677E-017,1.22464679914735E-016,-1.0));
#495=DIRECTION('',(-1.23259516440783E-032,1.0,1.22464679914735E-016));
#496=SURFACE_STYLE_FILL_AREA(#527);
#497=ORIENTED_EDGE('',*,*,#111,.F.);
#498=ORIENTED_EDGE('',*,*,#58,.T.);
#499=CARTESIAN_POINT('',(-1.41293624451626E-014,-2.82587248903252E-014,230.75));
#500=DIRECTION('',(-6.12323399573677E-017,-1.22464679914735E-016,1.0));
#501=DIRECTION('',(-1.23259516440783E-032,1.0,1.22464679914735E-016));
#502=CARTESIAN_POINT('',(-1.34711147906209E-015,-2.69422295812418E-015,22.0));
#503=DIRECTION('',(6.12323399573677E-017,1.22464679914735E-016,-1.0));
#504=DIRECTION('',(-1.23259516440783E-032,1.0,1.22464679914735E-016));
#505=CARTESIAN_POINT('',(-1.25603609648808E-014,-2.51207219297616E-014,205.12626128));
#506=DIRECTION('',(6.12323399573677E-017,1.22464679914735E-016,-1.0));
#507=DIRECTION('',(-1.23259516440783E-032,1.0,1.22464679914735E-016));
#508=SURFACE_STYLE_FILL_AREA(#528);
#509=ORIENTED_EDGE('',*,*,#116,.T.);
#510=ORIENTED_EDGE('',*,*,#83,.F.);
#511=CARTESIAN_POINT('',(-1.34711147906209E-015,9.1,22.0));
#512=DIRECTION('',(6.12323399573677E-017,1.22464679914735E-016,-1.0));
#513=DIRECTION('',(-1.0,0.0,-6.12323399573677E-017));
#514=FILL_AREA_STYLE('',(#529));
#515=FILL_AREA_STYLE('',(#530));
#516=FILL_AREA_STYLE('',(#531));
#517=FILL_AREA_STYLE('',(#532));
#518=FILL_AREA_STYLE('',(#533));
#519=FILL_AREA_STYLE('',(#534));
#520=FILL_AREA_STYLE('',(#535));
#521=FILL_AREA_STYLE('',(#536));
#522=FILL_AREA_STYLE('',(#537));
#523=FILL_AREA_STYLE('',(#538));
#524=FILL_AREA_STYLE('',(#539));
#525=FILL_AREA_STYLE('',(#540));
#526=FILL_AREA_STYLE('',(#541));
#527=FILL_AREA_STYLE('',(#542));
#528=FILL_AREA_STYLE('',(#543));
#529=FILL_AREA_STYLE_COLOUR('',#544);
#530=FILL_AREA_STYLE_COLOUR('',#545);
#531=FILL_AREA_STYLE_COLOUR('',#546);
#532=FILL_AREA_STYLE_COLOUR('',#547);
#533=FILL_AREA_STYLE_COLOUR('',#548);
#534=FILL_AREA_STYLE_COLOUR('',#549);
#535=FILL_AREA_STYLE_COLOUR('',#550);
#536=FILL_AREA_STYLE_COLOUR('',#551);
#537=FILL_AREA_STYLE_COLOUR('',#552);
#538=FILL_AREA_STYLE_COLOUR('',#553);
#539=FILL_AREA_STYLE_COLOUR('',#554);
#540=FILL_AREA_STYLE_COLOUR('',#555);
#541=FILL_AREA_STYLE_COLOUR('',#556);
#542=FILL_AREA_STYLE_COLOUR('',#557);
#543=FILL_AREA_STYLE_COLOUR('',#558);
#544=COLOUR_RGB('',0.0,1.0,1.0);
#545=COLOUR_RGB('',0.0,1.0,1.0);
#546=COLOUR_RGB('',0.0,1.0,1.0);
#547=COLOUR_RGB('',0.0,1.0,1.0);
#548=COLOUR_RGB('',0.0,1.0,1.0);
#549=COLOUR_RGB('',0.0,1.0,1.0);
#550=COLOUR_RGB('',0.0,1.0,1.0);
#551=COLOUR_RGB('',0.0,1.0,1.0);
#552=COLOUR_RGB('',0.0,1.0,1.0);
#553=COLOUR_RGB('',0.0,1.0,1.0);
#554=COLOUR_RGB('',0.0,1.0,1.0);
#555=COLOUR_RGB('',0.0,1.0,1.0);
#556=COLOUR_RGB('',0.0,1.0,1.0);
#557=COLOUR_RGB('',0.0,1.0,1.0);
#558=COLOUR_RGB('',0.0,1.0,1.0);
ENDSEC;
END-ISO-10303-21;
