ISO-10303-21;
HEADER;
FILE_DESCRIPTION((''),'1');
FILE_NAME('T:/02_3D_Field-HP\X2\FF71FF6FFF8CFF9F5916\X0\2013/02_Step_Field-HP\X2\FF71FF6FFF8CFF9F5916\X0\2013/MGT12-d-150_M6-12.stp','2017-02-08T06:09:36',(''),(''),'Spatial Interop R21 SP3','Kubotek KeyCreator 2011 V10.0.2 (22737)',' ');
FILE_SCHEMA(('automotive_design'));
ENDSEC;
DATA;
#1=MECHANICAL_DESIGN_GEOMETRIC_PRESENTATION_REPRESENTATION(' ',(#10,#11,#12,#13,#14,#15,#16,#17,#18,#19,#20,#21,#22,#23,#24,#25,#26,#27,#28,#29,#30,#31,#32,#33,#34,#35,#36,#37),#6);
#2=PRODUCT_DEFINITION_CONTEXT('',#38,'design');
#3=APPLICATION_PROTOCOL_DEFINITION('INTERNATIONAL STANDARD','automotive_design',1994,#38);
#4=PRODUCT_CATEGORY_RELATIONSHIP('NONE','NONE',#39,#40);
#5=SHAPE_DEFINITION_REPRESENTATION(#41,#42);
#6= (GEOMETRIC_REPRESENTATION_CONTEXT(3)GLOBAL_UNCERTAINTY_ASSIGNED_CONTEXT((#45))GLOBAL_UNIT_ASSIGNED_CONTEXT((#47,#48,#49))REPRESENTATION_CONTEXT('NONE','WORKSPACE'));
#10=STYLED_ITEM('',(#51,#52),#53);
#11=STYLED_ITEM('',(#54,#55),#56);
#12=STYLED_ITEM('',(#57,#58),#59);
#13=STYLED_ITEM('',(#60,#61),#62);
#14=STYLED_ITEM('',(#63,#64),#65);
#15=STYLED_ITEM('',(#66,#67),#68);
#16=STYLED_ITEM('',(#69),#70);
#17=STYLED_ITEM('',(#71,#72),#73);
#18=STYLED_ITEM('',(#74),#75);
#19=STYLED_ITEM('',(#76),#77);
#20=STYLED_ITEM('',(#78,#79),#80);
#21=STYLED_ITEM('',(#81,#82),#83);
#22=STYLED_ITEM('',(#84,#85),#86);
#23=STYLED_ITEM('',(#87,#88),#89);
#24=STYLED_ITEM('',(#90),#91);
#25=STYLED_ITEM('',(#92,#93),#94);
#26=STYLED_ITEM('',(#95),#96);
#27=STYLED_ITEM('',(#97),#98);
#28=STYLED_ITEM('',(#99),#100);
#29=STYLED_ITEM('',(#101),#102);
#30=STYLED_ITEM('',(#103),#104);
#31=STYLED_ITEM('',(#105),#106);
#32=STYLED_ITEM('',(#107),#108);
#33=STYLED_ITEM('',(#109,#110),#111);
#34=STYLED_ITEM('',(#112,#113),#114);
#35=STYLED_ITEM('',(#115),#116);
#36=STYLED_ITEM('',(#117),#118);
#37=STYLED_ITEM('',(#119,#120),#121);
#38=APPLICATION_CONTEXT(' ');
#39=PRODUCT_CATEGORY('part','NONE');
#40=PRODUCT_RELATED_PRODUCT_CATEGORY('detail',' ',(#122));
#41=PRODUCT_DEFINITION_SHAPE('NONE','NONE',#123);
#42=ADVANCED_BREP_SHAPE_REPRESENTATION('240[2]',(#62,#124),#6);
#45=UNCERTAINTY_MEASURE_WITH_UNIT(LENGTH_MEASURE(1.0E-006),#47,'','');
#47= (CONVERSION_BASED_UNIT('MILLIMETRE',#127)LENGTH_UNIT()NAMED_UNIT(#130));
#48= (NAMED_UNIT(#132)PLANE_ANGLE_UNIT()SI_UNIT($,.RADIAN.));
#49= (NAMED_UNIT(#132)SOLID_ANGLE_UNIT()SI_UNIT($,.STERADIAN.));
#51=PRESENTATION_STYLE_ASSIGNMENT((#138));
#52=PRESENTATION_STYLE_ASSIGNMENT((#139));
#53=ADVANCED_FACE('240[2]',(#140,#141),#142,.T.);
#54=PRESENTATION_STYLE_ASSIGNMENT((#143));
#55=PRESENTATION_STYLE_ASSIGNMENT((#144));
#56=ADVANCED_FACE('240[2]',(#145,#146),#147,.T.);
#57=PRESENTATION_STYLE_ASSIGNMENT((#148));
#58=PRESENTATION_STYLE_ASSIGNMENT((#149));
#59=ADVANCED_FACE('240[2]',(#150,#151),#152,.T.);
#60=PRESENTATION_STYLE_ASSIGNMENT((#153));
#61=PRESENTATION_STYLE_ASSIGNMENT((#154));
#62=MANIFOLD_SOLID_BREP('240[2]',#155);
#63=PRESENTATION_STYLE_ASSIGNMENT((#156));
#64=PRESENTATION_STYLE_ASSIGNMENT((#157));
#65=ADVANCED_FACE('240[2]',(#158,#159),#160,.T.);
#66=PRESENTATION_STYLE_ASSIGNMENT((#161));
#67=PRESENTATION_STYLE_ASSIGNMENT((#162));
#68=ADVANCED_FACE('240[2]',(#163),#164,.T.);
#69=PRESENTATION_STYLE_ASSIGNMENT((#165));
#70=EDGE_CURVE('240[2]',#166,#166,#167,.T.);
#71=PRESENTATION_STYLE_ASSIGNMENT((#168));
#72=PRESENTATION_STYLE_ASSIGNMENT((#169));
#73=ADVANCED_FACE('240[2]',(#170,#171),#172,.T.);
#74=PRESENTATION_STYLE_ASSIGNMENT((#173));
#75=EDGE_CURVE('240[2]',#174,#174,#175,.T.);
#76=PRESENTATION_STYLE_ASSIGNMENT((#176));
#77=EDGE_CURVE('240[2]',#177,#177,#178,.T.);
#78=PRESENTATION_STYLE_ASSIGNMENT((#179));
#79=PRESENTATION_STYLE_ASSIGNMENT((#180));
#80=ADVANCED_FACE('240[2]',(#181),#182,.T.);
#81=PRESENTATION_STYLE_ASSIGNMENT((#183));
#82=PRESENTATION_STYLE_ASSIGNMENT((#184));
#83=ADVANCED_FACE('240[2]',(#185,#186),#187,.T.);
#84=PRESENTATION_STYLE_ASSIGNMENT((#188));
#85=PRESENTATION_STYLE_ASSIGNMENT((#189));
#86=ADVANCED_FACE('240[2]',(#190,#191),#192,.T.);
#87=PRESENTATION_STYLE_ASSIGNMENT((#193));
#88=PRESENTATION_STYLE_ASSIGNMENT((#194));
#89=ADVANCED_FACE('240[2]',(#195,#196),#197,.T.);
#90=PRESENTATION_STYLE_ASSIGNMENT((#198));
#91=EDGE_CURVE('240[2]',#199,#199,#200,.T.);
#92=PRESENTATION_STYLE_ASSIGNMENT((#201));
#93=PRESENTATION_STYLE_ASSIGNMENT((#202));
#94=ADVANCED_FACE('240[2]',(#203,#204),#205,.T.);
#95=PRESENTATION_STYLE_ASSIGNMENT((#206));
#96=EDGE_CURVE('240[2]',#207,#207,#208,.T.);
#97=PRESENTATION_STYLE_ASSIGNMENT((#209));
#98=EDGE_CURVE('240[2]',#210,#210,#211,.T.);
#99=PRESENTATION_STYLE_ASSIGNMENT((#212));
#100=EDGE_CURVE('240[2]',#213,#213,#214,.T.);
#101=PRESENTATION_STYLE_ASSIGNMENT((#215));
#102=EDGE_CURVE('240[2]',#216,#216,#217,.T.);
#103=PRESENTATION_STYLE_ASSIGNMENT((#218));
#104=EDGE_CURVE('240[2]',#219,#219,#220,.T.);
#105=PRESENTATION_STYLE_ASSIGNMENT((#221));
#106=EDGE_CURVE('240[2]',#222,#222,#223,.T.);
#107=PRESENTATION_STYLE_ASSIGNMENT((#224));
#108=EDGE_CURVE('240[2]',#225,#225,#226,.T.);
#109=PRESENTATION_STYLE_ASSIGNMENT((#227));
#110=PRESENTATION_STYLE_ASSIGNMENT((#228));
#111=ADVANCED_FACE('240[2]',(#229,#230),#231,.T.);
#112=PRESENTATION_STYLE_ASSIGNMENT((#232));
#113=PRESENTATION_STYLE_ASSIGNMENT((#233));
#114=ADVANCED_FACE('240[2]',(#234,#235),#236,.T.);
#115=PRESENTATION_STYLE_ASSIGNMENT((#237));
#116=EDGE_CURVE('240[2]',#238,#238,#239,.T.);
#117=PRESENTATION_STYLE_ASSIGNMENT((#240));
#118=EDGE_CURVE('240[2]',#241,#241,#242,.T.);
#119=PRESENTATION_STYLE_ASSIGNMENT((#243));
#120=PRESENTATION_STYLE_ASSIGNMENT((#244));
#121=ADVANCED_FACE('240[2]',(#245,#246),#247,.T.);
#122=PRODUCT('240[2]','240[2]','PART-240[2]-DESC',(#248));
#123=PRODUCT_DEFINITION('NONE','NONE',#249,#2);
#124=AXIS2_PLACEMENT_3D('',#250,#251,#252);
#127=LENGTH_MEASURE_WITH_UNIT(LENGTH_MEASURE(1.0),#253);
#130=DIMENSIONAL_EXPONENTS(1.0,0.0,0.0,0.0,0.0,0.0,0.0);
#132=DIMENSIONAL_EXPONENTS(0.0,0.0,0.0,0.0,0.0,0.0,0.0);
#138=SURFACE_STYLE_USAGE(.BOTH.,#254);
#139=CURVE_STYLE('',#255,POSITIVE_LENGTH_MEASURE(1000.0),#256);
#140=FACE_BOUND('',#257,.T.);
#141=FACE_BOUND('',#258,.T.);
#142=CYLINDRICAL_SURFACE('',#259,10.0);
#143=SURFACE_STYLE_USAGE(.BOTH.,#260);
#144=CURVE_STYLE('',#261,POSITIVE_LENGTH_MEASURE(1000.0),#262);
#145=FACE_BOUND('',#263,.T.);
#146=FACE_BOUND('',#264,.T.);
#147=CONICAL_SURFACE('',#265,13.2500000000018,0.349065850398903);
#148=SURFACE_STYLE_USAGE(.BOTH.,#266);
#149=CURVE_STYLE('',#267,POSITIVE_LENGTH_MEASURE(1000.0),#268);
#150=FACE_BOUND('',#269,.T.);
#151=FACE_BOUND('',#270,.T.);
#152=CYLINDRICAL_SURFACE('',#271,13.5000000000011);
#153=SURFACE_STYLE_USAGE(.BOTH.,#272);
#154=CURVE_STYLE('',#273,POSITIVE_LENGTH_MEASURE(1000.0),#274);
#155=CLOSED_SHELL('',(#89,#56,#59,#86,#53,#111,#65,#114,#83,#73,#121,#68,#80,#94));
#156=SURFACE_STYLE_USAGE(.BOTH.,#275);
#157=CURVE_STYLE('',#276,POSITIVE_LENGTH_MEASURE(1000.0),#277);
#158=FACE_BOUND('',#278,.T.);
#159=FACE_BOUND('',#279,.T.);
#160=CYLINDRICAL_SURFACE('',#280,8.20000000000073);
#161=SURFACE_STYLE_USAGE(.BOTH.,#281);
#162=CURVE_STYLE('',#282,POSITIVE_LENGTH_MEASURE(1000.0),#283);
#163=FACE_OUTER_BOUND('',#284,.T.);
#164=PLANE('',#285);
#165=CURVE_STYLE('',#286,POSITIVE_LENGTH_MEASURE(1000.0),#287);
#166=VERTEX_POINT('',#288);
#167=CIRCLE('',#289,10.0);
#168=SURFACE_STYLE_USAGE(.BOTH.,#290);
#169=CURVE_STYLE('',#291,POSITIVE_LENGTH_MEASURE(1000.0),#292);
#170=FACE_BOUND('',#293,.T.);
#171=FACE_BOUND('',#294,.T.);
#172=CONICAL_SURFACE('',#295,10.0749999999998,0.124354994545604);
#173=CURVE_STYLE('',#296,POSITIVE_LENGTH_MEASURE(1000.0),#297);
#174=VERTEX_POINT('',#298);
#175=CIRCLE('',#299,10.0);
#176=CURVE_STYLE('',#300,POSITIVE_LENGTH_MEASURE(1000.0),#301);
#177=VERTEX_POINT('',#302);
#178=CIRCLE('',#303,13.5000000000031);
#179=SURFACE_STYLE_USAGE(.BOTH.,#304);
#180=CURVE_STYLE('',#305,POSITIVE_LENGTH_MEASURE(1000.0),#306);
#181=FACE_OUTER_BOUND('',#307,.T.);
#182=PLANE('',#308);
#183=SURFACE_STYLE_USAGE(.BOTH.,#309);
#184=CURVE_STYLE('',#310,POSITIVE_LENGTH_MEASURE(1000.0),#311);
#185=FACE_BOUND('',#312,.T.);
#186=FACE_BOUND('',#313,.T.);
#187=CYLINDRICAL_SURFACE('',#314,10.1499999999996);
#188=SURFACE_STYLE_USAGE(.BOTH.,#315);
#189=CURVE_STYLE('',#316,POSITIVE_LENGTH_MEASURE(1000.0),#317);
#190=FACE_BOUND('',#318,.T.);
#191=FACE_BOUND('',#319,.T.);
#192=CONICAL_SURFACE('',#320,11.7499999999995,1.3089969389957);
#193=SURFACE_STYLE_USAGE(.BOTH.,#321);
#194=CURVE_STYLE('',#322,POSITIVE_LENGTH_MEASURE(1000.0),#323);
#195=FACE_OUTER_BOUND('',#324,.T.);
#196=FACE_BOUND('',#325,.T.);
#197=PLANE('',#326);
#198=CURVE_STYLE('',#327,POSITIVE_LENGTH_MEASURE(1000.0),#328);
#199=VERTEX_POINT('',#329);
#200=CIRCLE('',#330,8.20000000000073);
#201=SURFACE_STYLE_USAGE(.BOTH.,#331);
#202=CURVE_STYLE('',#332,POSITIVE_LENGTH_MEASURE(1000.0),#333);
#203=FACE_BOUND('',#334,.T.);
#204=FACE_BOUND('',#335,.T.);
#205=CYLINDRICAL_SURFACE('',#336,9.99999999999724);
#206=CURVE_STYLE('',#337,POSITIVE_LENGTH_MEASURE(1000.0),#338);
#207=VERTEX_POINT('',#339);
#208=CIRCLE('',#340,10.1499999999996);
#209=CURVE_STYLE('',#341,POSITIVE_LENGTH_MEASURE(1000.0),#342);
#210=VERTEX_POINT('',#343);
#211=CIRCLE('',#344,9.99999999999327);
#212=CURVE_STYLE('',#345,POSITIVE_LENGTH_MEASURE(1000.0),#346);
#213=VERTEX_POINT('',#347);
#214=CIRCLE('',#348,8.20000000000073);
#215=CURVE_STYLE('',#349,POSITIVE_LENGTH_MEASURE(1000.0),#350);
#216=VERTEX_POINT('',#351);
#217=CIRCLE('',#352,10.0);
#218=CURVE_STYLE('',#353,POSITIVE_LENGTH_MEASURE(1000.0),#354);
#219=VERTEX_POINT('',#355);
#220=CIRCLE('',#356,10.1499999999996);
#221=CURVE_STYLE('',#357,POSITIVE_LENGTH_MEASURE(1000.0),#358);
#222=VERTEX_POINT('',#359);
#223=CIRCLE('',#360,13.4999999999991);
#224=CURVE_STYLE('',#361,POSITIVE_LENGTH_MEASURE(1000.0),#362);
#225=VERTEX_POINT('',#363);
#226=CIRCLE('',#364,13.0000000000004);
#227=SURFACE_STYLE_USAGE(.BOTH.,#365);
#228=CURVE_STYLE('',#366,POSITIVE_LENGTH_MEASURE(1000.0),#367);
#229=FACE_OUTER_BOUND('',#368,.T.);
#230=FACE_BOUND('',#369,.T.);
#231=PLANE('',#370);
#232=SURFACE_STYLE_USAGE(.BOTH.,#371);
#233=CURVE_STYLE('',#372,POSITIVE_LENGTH_MEASURE(1000.0),#373);
#234=FACE_OUTER_BOUND('',#374,.T.);
#235=FACE_BOUND('',#375,.T.);
#236=PLANE('',#376);
#237=CURVE_STYLE('',#377,POSITIVE_LENGTH_MEASURE(1000.0),#378);
#238=VERTEX_POINT('',#379);
#239=CIRCLE('',#380,10.0000000000012);
#240=CURVE_STYLE('',#381,POSITIVE_LENGTH_MEASURE(1000.0),#382);
#241=VERTEX_POINT('',#383);
#242=CIRCLE('',#384,10.0);
#243=SURFACE_STYLE_USAGE(.BOTH.,#385);
#244=CURVE_STYLE('',#386,POSITIVE_LENGTH_MEASURE(1000.0),#387);
#245=FACE_BOUND('',#388,.T.);
#246=FACE_BOUND('',#389,.T.);
#247=CYLINDRICAL_SURFACE('',#390,10.0);
#248=PRODUCT_CONTEXT('',#38,'mechanical');
#249=PRODUCT_DEFINITION_FORMATION_WITH_SPECIFIED_SOURCE(' ','NONE',#122,.NOT_KNOWN.);
#250=CARTESIAN_POINT('',(0.0,0.0,0.0));
#251=DIRECTION('',(0.0,0.0,1.0));
#252=DIRECTION('',(1.0,0.0,0.0));
#253= (NAMED_UNIT(#130)LENGTH_UNIT()SI_UNIT(.MILLI.,.METRE.));
#254=SURFACE_SIDE_STYLE('',(#392));
#255=DRAUGHTING_PRE_DEFINED_CURVE_FONT('continuous');
#256=COLOUR_RGB('',0.0,1.0,1.0);
#257=EDGE_LOOP('',(#393));
#258=EDGE_LOOP('',(#394));
#259=AXIS2_PLACEMENT_3D('',#395,#396,#397);
#260=SURFACE_SIDE_STYLE('',(#398));
#261=DRAUGHTING_PRE_DEFINED_CURVE_FONT('continuous');
#262=COLOUR_RGB('',0.0,1.0,1.0);
#263=EDGE_LOOP('',(#399));
#264=EDGE_LOOP('',(#400));
#265=AXIS2_PLACEMENT_3D('',#401,#402,#403);
#266=SURFACE_SIDE_STYLE('',(#404));
#267=DRAUGHTING_PRE_DEFINED_CURVE_FONT('continuous');
#268=COLOUR_RGB('',0.0,1.0,1.0);
#269=EDGE_LOOP('',(#405));
#270=EDGE_LOOP('',(#406));
#271=AXIS2_PLACEMENT_3D('',#407,#408,#409);
#272=SURFACE_SIDE_STYLE('',(#410));
#273=DRAUGHTING_PRE_DEFINED_CURVE_FONT('continuous');
#274=COLOUR_RGB('',0.0,1.0,1.0);
#275=SURFACE_SIDE_STYLE('',(#411));
#276=DRAUGHTING_PRE_DEFINED_CURVE_FONT('continuous');
#277=COLOUR_RGB('',0.0,1.0,1.0);
#278=EDGE_LOOP('',(#412));
#279=EDGE_LOOP('',(#413));
#280=AXIS2_PLACEMENT_3D('',#414,#415,#416);
#281=SURFACE_SIDE_STYLE('',(#417));
#282=DRAUGHTING_PRE_DEFINED_CURVE_FONT('continuous');
#283=COLOUR_RGB('',0.0,1.0,1.0);
#284=EDGE_LOOP('',(#418));
#285=AXIS2_PLACEMENT_3D('',#419,#420,#421);
#286=DRAUGHTING_PRE_DEFINED_CURVE_FONT('continuous');
#287=COLOUR_RGB('',0.0,1.0,1.0);
#288=CARTESIAN_POINT('',(-1.08993565124111E-015,9.99999999999999,17.7999999999995));
#289=AXIS2_PLACEMENT_3D('',#422,#423,#424);
#290=SURFACE_SIDE_STYLE('',(#425));
#291=DRAUGHTING_PRE_DEFINED_CURVE_FONT('continuous');
#292=COLOUR_RGB('',0.0,1.0,1.0);
#293=EDGE_LOOP('',(#426));
#294=EDGE_LOOP('',(#427));
#295=AXIS2_PLACEMENT_3D('',#428,#429,#430);
#296=DRAUGHTING_PRE_DEFINED_CURVE_FONT('continuous');
#297=COLOUR_RGB('',0.0,1.0,1.0);
#298=CARTESIAN_POINT('',(0.0,10.0,0.0));
#299=AXIS2_PLACEMENT_3D('',#431,#432,#433);
#300=DRAUGHTING_PRE_DEFINED_CURVE_FONT('continuous');
#301=COLOUR_RGB('',0.0,1.0,1.0);
#302=CARTESIAN_POINT('',(-9.49874396764095E-015,13.500000000003,155.126261290265));
#303=AXIS2_PLACEMENT_3D('',#434,#435,#436);
#304=SURFACE_SIDE_STYLE('',(#437));
#305=DRAUGHTING_PRE_DEFINED_CURVE_FONT('continuous');
#306=COLOUR_RGB('',0.0,1.0,1.0);
#307=EDGE_LOOP('',(#438));
#308=AXIS2_PLACEMENT_3D('',#439,#440,#441);
#309=SURFACE_SIDE_STYLE('',(#442));
#310=DRAUGHTING_PRE_DEFINED_CURVE_FONT('continuous');
#311=COLOUR_RGB('',0.0,1.0,1.0);
#312=EDGE_LOOP('',(#443));
#313=EDGE_LOOP('',(#444));
#314=AXIS2_PLACEMENT_3D('',#445,#446,#447);
#315=SURFACE_SIDE_STYLE('',(#448));
#316=DRAUGHTING_PRE_DEFINED_CURVE_FONT('continuous');
#317=COLOUR_RGB('',0.0,1.0,1.0);
#318=EDGE_LOOP('',(#449));
#319=EDGE_LOOP('',(#450));
#320=AXIS2_PLACEMENT_3D('',#451,#452,#453);
#321=SURFACE_SIDE_STYLE('',(#454));
#322=DRAUGHTING_PRE_DEFINED_CURVE_FONT('continuous');
#323=COLOUR_RGB('',0.0,1.0,1.0);
#324=EDGE_LOOP('',(#455));
#325=EDGE_LOOP('',(#456));
#326=AXIS2_PLACEMENT_3D('',#457,#458,#459);
#327=DRAUGHTING_PRE_DEFINED_CURVE_FONT('continuous');
#328=COLOUR_RGB('',0.0,1.0,1.0);
#329=CARTESIAN_POINT('',(-1.28587913910484E-015,8.20000000000072,21.000000000002));
#330=AXIS2_PLACEMENT_3D('',#460,#461,#462);
#331=SURFACE_SIDE_STYLE('',(#463));
#332=DRAUGHTING_PRE_DEFINED_CURVE_FONT('continuous');
#333=COLOUR_RGB('',0.0,1.0,1.0);
#334=EDGE_LOOP('',(#464));
#335=EDGE_LOOP('',(#465));
#336=AXIS2_PLACEMENT_3D('',#466,#467,#468);
#337=DRAUGHTING_PRE_DEFINED_CURVE_FONT('continuous');
#338=COLOUR_RGB('',0.0,1.0,1.0);
#339=CARTESIAN_POINT('',(-1.16341445919047E-015,10.1499999999996,19.0000000000079));
#340=AXIS2_PLACEMENT_3D('',#469,#470,#471);
#341=DRAUGHTING_PRE_DEFINED_CURVE_FONT('continuous');
#342=COLOUR_RGB('',0.0,1.0,1.0);
#343=CARTESIAN_POINT('',(-9.82779056315756E-015,9.99999999999325,156.499999999999));
#344=AXIS2_PLACEMENT_3D('',#472,#473,#474);
#345=DRAUGHTING_PRE_DEFINED_CURVE_FONT('continuous');
#346=COLOUR_RGB('',0.0,1.0,1.0);
#347=CARTESIAN_POINT('',(-1.34711147906329E-015,8.20000000000072,22.0000000000195));
#348=AXIS2_PLACEMENT_3D('',#475,#476,#477);
#349=DRAUGHTING_PRE_DEFINED_CURVE_FONT('continuous');
#350=COLOUR_RGB('',0.0,1.0,1.0);
#351=CARTESIAN_POINT('',(-9.12742594745682E-015,9.99999999999997,149.062177826483));
#352=AXIS2_PLACEMENT_3D('',#478,#479,#480);
#353=DRAUGHTING_PRE_DEFINED_CURVE_FONT('continuous');
#354=COLOUR_RGB('',0.0,1.0,1.0);
#355=CARTESIAN_POINT('',(-1.28587913910484E-015,10.1499999999996,21.000000000002));
#356=AXIS2_PLACEMENT_3D('',#481,#482,#483);
#357=DRAUGHTING_PRE_DEFINED_CURVE_FONT('continuous');
#358=COLOUR_RGB('',0.0,1.0,1.0);
#359=CARTESIAN_POINT('',(-9.18485099360467E-015,13.499999999999,149.999999999992));
#360=AXIS2_PLACEMENT_3D('',#484,#485,#486);
#361=DRAUGHTING_PRE_DEFINED_CURVE_FONT('continuous');
#362=COLOUR_RGB('',0.0,1.0,1.0);
#363=CARTESIAN_POINT('',(-9.58286120332799E-015,13.0000000000004,156.499999999999));
#364=AXIS2_PLACEMENT_3D('',#487,#488,#489);
#365=SURFACE_SIDE_STYLE('',(#490));
#366=DRAUGHTING_PRE_DEFINED_CURVE_FONT('continuous');
#367=COLOUR_RGB('',0.0,1.0,1.0);
#368=EDGE_LOOP('',(#491));
#369=EDGE_LOOP('',(#492));
#370=AXIS2_PLACEMENT_3D('',#493,#494,#495);
#371=SURFACE_SIDE_STYLE('',(#496));
#372=DRAUGHTING_PRE_DEFINED_CURVE_FONT('continuous');
#373=COLOUR_RGB('',0.0,1.0,1.0);
#374=EDGE_LOOP('',(#497));
#375=EDGE_LOOP('',(#498));
#376=AXIS2_PLACEMENT_3D('',#499,#500,#501);
#377=DRAUGHTING_PRE_DEFINED_CURVE_FONT('continuous');
#378=COLOUR_RGB('',0.0,1.0,1.0);
#379=CARTESIAN_POINT('',(-1.23077003314309E-014,10.0000000000012,201.000000000001));
#380=AXIS2_PLACEMENT_3D('',#502,#503,#504);
#381=DRAUGHTING_PRE_DEFINED_CURVE_FONT('continuous');
#382=COLOUR_RGB('',0.0,1.0,1.0);
#383=CARTESIAN_POINT('',(-1.34711147906172E-015,9.99999999999999,21.9999999999941));
#384=AXIS2_PLACEMENT_3D('',#505,#506,#507);
#385=SURFACE_SIDE_STYLE('',(#508));
#386=DRAUGHTING_PRE_DEFINED_CURVE_FONT('continuous');
#387=COLOUR_RGB('',0.0,1.0,1.0);
#388=EDGE_LOOP('',(#509));
#389=EDGE_LOOP('',(#510));
#390=AXIS2_PLACEMENT_3D('',#511,#512,#513);
#392=SURFACE_STYLE_FILL_AREA(#514);
#393=ORIENTED_EDGE('',*,*,#118,.F.);
#394=ORIENTED_EDGE('',*,*,#102,.T.);
#395=CARTESIAN_POINT('',(-1.43451133970124E-015,-1.28164537458623E-015,21.9999999999941));
#396=DIRECTION('',(-5.56100388815956E-017,-1.56198486369367E-016,1.0));
#397=DIRECTION('',(-1.13720649318287E-016,-1.0,-1.56198486369367E-016));
#398=SURFACE_STYLE_FILL_AREA(#515);
#399=ORIENTED_EDGE('',*,*,#108,.T.);
#400=ORIENTED_EDGE('',*,*,#77,.F.);
#401=CARTESIAN_POINT('',(-9.54080258548447E-015,-1.90816051709689E-014,155.813130645132));
#402=DIRECTION('',(6.12323399573677E-017,1.22464679914735E-016,-1.0));
#403=DIRECTION('',(-1.23259516440783E-032,1.0,1.22464679914735E-016));
#404=SURFACE_STYLE_FILL_AREA(#516);
#405=ORIENTED_EDGE('',*,*,#106,.F.);
#406=ORIENTED_EDGE('',*,*,#77,.T.);
#407=CARTESIAN_POINT('',(-9.34179748062281E-015,-1.86835949612456E-014,152.563130645129));
#408=DIRECTION('',(6.12323399573677E-017,1.22464679914735E-016,-1.0));
#409=DIRECTION('',(-1.23259516440783E-032,1.0,1.22464679914735E-016));
#410=SURFACE_STYLE_FILL_AREA(#517);
#411=SURFACE_STYLE_FILL_AREA(#518);
#412=ORIENTED_EDGE('',*,*,#91,.F.);
#413=ORIENTED_EDGE('',*,*,#100,.T.);
#414=CARTESIAN_POINT('',(-1.31649530908376E-015,-2.63299061816752E-015,21.5000000000058));
#415=DIRECTION('',(6.12323399573676E-017,1.22464679914735E-016,-1.0));
#416=DIRECTION('',(-1.23259516440783E-032,1.0,1.22464679914735E-016));
#417=SURFACE_STYLE_FILL_AREA(#519);
#418=ORIENTED_EDGE('',*,*,#75,.T.);
#419=CARTESIAN_POINT('',(0.0,5.0,0.0));
#420=DIRECTION('',(6.12323399573677E-017,1.22464679914735E-016,-1.0));
#421=DIRECTION('',(-1.0,0.0,-6.12323399573677E-017));
#422=CARTESIAN_POINT('',(-1.08993565124111E-015,-2.17987130248224E-015,17.7999999999995));
#423=DIRECTION('',(6.12323399573677E-017,1.22464679914735E-016,-1.0));
#424=DIRECTION('',(-1.23259516440783E-032,1.0,1.22464679914735E-016));
#425=SURFACE_STYLE_FILL_AREA(#520);
#426=ORIENTED_EDGE('',*,*,#70,.F.);
#427=ORIENTED_EDGE('',*,*,#96,.T.);
#428=CARTESIAN_POINT('',(-1.12667505521579E-015,-2.25335011043159E-015,18.4000000000037));
#429=DIRECTION('',(-6.12323399573677E-017,-1.22464679914735E-016,1.0));
#430=DIRECTION('',(-1.23259516440783E-032,1.0,1.22464679914735E-016));
#431=CARTESIAN_POINT('',(0.0,0.0,0.0));
#432=DIRECTION('',(6.12323399573677E-017,1.22464679914735E-016,-1.0));
#433=DIRECTION('',(-1.23259516440783E-032,1.0,1.22464679914735E-016));
#434=CARTESIAN_POINT('',(-9.49874396764095E-015,-1.89974879352819E-014,155.126261290265));
#435=DIRECTION('',(6.12323399573677E-017,1.22464679914735E-016,-1.0));
#436=DIRECTION('',(-1.23259516440783E-032,1.0,1.22464679914735E-016));
#437=SURFACE_STYLE_FILL_AREA(#521);
#438=ORIENTED_EDGE('',*,*,#116,.F.);
#439=CARTESIAN_POINT('',(-1.23077003314309E-014,5.00000000000058,201.000000000001));
#440=DIRECTION('',(-1.50949372273655E-048,-1.22464679914735E-016,1.0));
#441=DIRECTION('',(1.0,-1.23259516440783E-032,0.0));
#442=SURFACE_STYLE_FILL_AREA(#522);
#443=ORIENTED_EDGE('',*,*,#96,.F.);
#444=ORIENTED_EDGE('',*,*,#104,.T.);
#445=CARTESIAN_POINT('',(-1.22464679914765E-015,-2.44929359829532E-015,20.000000000005));
#446=DIRECTION('',(6.12323399573677E-017,1.22464679914735E-016,-1.0));
#447=DIRECTION('',(-1.23259516440783E-032,1.0,1.22464679914735E-016));
#448=SURFACE_STYLE_FILL_AREA(#523);
#449=ORIENTED_EDGE('',*,*,#102,.F.);
#450=ORIENTED_EDGE('',*,*,#106,.T.);
#451=CARTESIAN_POINT('',(-9.15613847053075E-015,-1.83122769410615E-014,149.531088913238));
#452=DIRECTION('',(-6.12323399573677E-017,-1.22464679914735E-016,1.0));
#453=DIRECTION('',(-1.23259516440783E-032,1.0,1.22464679914735E-016));
#454=SURFACE_STYLE_FILL_AREA(#524);
#455=ORIENTED_EDGE('',*,*,#108,.F.);
#456=ORIENTED_EDGE('',*,*,#98,.T.);
#457=CARTESIAN_POINT('',(-9.84184850476247,1.77144517532162,156.499999999999));
#458=DIRECTION('',(0.0,0.0,1.0));
#459=DIRECTION('',(-1.0,0.0,0.0));
#460=CARTESIAN_POINT('',(-1.28587913910484E-015,-2.57175827820969E-015,21.000000000002));
#461=DIRECTION('',(6.12323399573676E-017,1.22464679914735E-016,-1.0));
#462=DIRECTION('',(-1.23259516440783E-032,1.0,1.22464679914735E-016));
#463=SURFACE_STYLE_FILL_AREA(#525);
#464=ORIENTED_EDGE('',*,*,#98,.F.);
#465=ORIENTED_EDGE('',*,*,#116,.T.);
#466=CARTESIAN_POINT('',(-1.10677454472942E-014,-2.21354908945885E-014,180.750000000001));
#467=DIRECTION('',(6.12323399573677E-017,1.22464679914735E-016,-1.0));
#468=DIRECTION('',(-1.23259516440783E-032,1.0,1.22464679914735E-016));
#469=CARTESIAN_POINT('',(-1.16341445919047E-015,-2.32682891838094E-015,19.0000000000079));
#470=DIRECTION('',(6.12323399573677E-017,1.22464679914735E-016,-1.0));
#471=DIRECTION('',(-1.23259516440783E-032,1.0,1.22464679914735E-016));
#472=CARTESIAN_POINT('',(-9.82779056315756E-015,-1.96555811263151E-014,156.499999999999));
#473=DIRECTION('',(6.12323399573676E-017,1.22464679914735E-016,-1.0));
#474=DIRECTION('',(-1.23259516440783E-032,1.0,1.22464679914735E-016));
#475=CARTESIAN_POINT('',(-4.01164673816304E-015,-5.35875821722572E-015,22.0000000000095));
#476=DIRECTION('',(6.12323399573677E-017,1.22464679914735E-016,-1.0));
#477=DIRECTION('',(3.24943324280504E-016,1.0,1.22464679914735E-016));
#478=CARTESIAN_POINT('',(-9.12742594745682E-015,-1.82548518949136E-014,149.062177826483));
#479=DIRECTION('',(6.12323399573677E-017,1.22464679914735E-016,-1.0));
#480=DIRECTION('',(-1.23259516440783E-032,1.0,1.22464679914735E-016));
#481=CARTESIAN_POINT('',(-1.28587913910484E-015,-2.57175827820969E-015,21.000000000002));
#482=DIRECTION('',(6.12323399573677E-017,1.22464679914735E-016,-1.0));
#483=DIRECTION('',(-1.23259516440783E-032,1.0,1.22464679914735E-016));
#484=CARTESIAN_POINT('',(-9.18485099360467E-015,-1.83697019872093E-014,149.999999999992));
#485=DIRECTION('',(6.12323399573677E-017,1.22464679914735E-016,-1.0));
#486=DIRECTION('',(-1.23259516440783E-032,1.0,1.22464679914735E-016));
#487=CARTESIAN_POINT('',(-9.58286120332799E-015,-1.9165722406656E-014,156.499999999999));
#488=DIRECTION('',(6.12323399573677E-017,1.22464679914735E-016,-1.0));
#489=DIRECTION('',(-1.23259516440783E-032,1.0,1.22464679914735E-016));
#490=SURFACE_STYLE_FILL_AREA(#526);
#491=ORIENTED_EDGE('',*,*,#118,.T.);
#492=ORIENTED_EDGE('',*,*,#100,.F.);
#493=CARTESIAN_POINT('',(10.0000001,10.0000001,21.9999999999941));
#494=DIRECTION('',(6.12323399573677E-017,-8.58954971873455E-012,-1.0));
#495=DIRECTION('',(0.0,-1.0,8.58954971873455E-012));
#496=SURFACE_STYLE_FILL_AREA(#527);
#497=ORIENTED_EDGE('',*,*,#104,.F.);
#498=ORIENTED_EDGE('',*,*,#91,.T.);
#499=CARTESIAN_POINT('',(-1.28587913910484E-015,9.17500000000018,21.000000000002));
#500=DIRECTION('',(-1.50949372273655E-048,-1.22464679914735E-016,1.0));
#501=DIRECTION('',(1.0,-1.23259516440783E-032,0.0));
#502=CARTESIAN_POINT('',(-1.23077003314309E-014,-2.46154006628619E-014,201.000000000001));
#503=DIRECTION('',(6.12323399573677E-017,1.22464679914735E-016,-1.0));
#504=DIRECTION('',(-1.23259516440783E-032,1.0,1.22464679914735E-016));
#505=CARTESIAN_POINT('',(4.29245360338527E-016,-1.80604453842333E-015,21.9999999999941));
#506=DIRECTION('',(6.12323399573677E-017,1.22464679914735E-016,-1.0));
#507=DIRECTION('',(-1.77635683940025E-016,1.0,1.22464679914735E-016));
#508=SURFACE_STYLE_FILL_AREA(#528);
#509=ORIENTED_EDGE('',*,*,#75,.F.);
#510=ORIENTED_EDGE('',*,*,#70,.T.);
#511=CARTESIAN_POINT('',(-5.44967825620558E-016,-1.08993565124112E-015,8.89999999999978));
#512=DIRECTION('',(6.12323399573677E-017,1.22464679914735E-016,-1.0));
#513=DIRECTION('',(-1.23259516440783E-032,1.0,1.22464679914735E-016));
#514=FILL_AREA_STYLE('',(#529));
#515=FILL_AREA_STYLE('',(#530));
#516=FILL_AREA_STYLE('',(#531));
#517=FILL_AREA_STYLE('',(#532));
#518=FILL_AREA_STYLE('',(#533));
#519=FILL_AREA_STYLE('',(#534));
#520=FILL_AREA_STYLE('',(#535));
#521=FILL_AREA_STYLE('',(#536));
#522=FILL_AREA_STYLE('',(#537));
#523=FILL_AREA_STYLE('',(#538));
#524=FILL_AREA_STYLE('',(#539));
#525=FILL_AREA_STYLE('',(#540));
#526=FILL_AREA_STYLE('',(#541));
#527=FILL_AREA_STYLE('',(#542));
#528=FILL_AREA_STYLE('',(#543));
#529=FILL_AREA_STYLE_COLOUR('',#544);
#530=FILL_AREA_STYLE_COLOUR('',#545);
#531=FILL_AREA_STYLE_COLOUR('',#546);
#532=FILL_AREA_STYLE_COLOUR('',#547);
#533=FILL_AREA_STYLE_COLOUR('',#548);
#534=FILL_AREA_STYLE_COLOUR('',#549);
#535=FILL_AREA_STYLE_COLOUR('',#550);
#536=FILL_AREA_STYLE_COLOUR('',#551);
#537=FILL_AREA_STYLE_COLOUR('',#552);
#538=FILL_AREA_STYLE_COLOUR('',#553);
#539=FILL_AREA_STYLE_COLOUR('',#554);
#540=FILL_AREA_STYLE_COLOUR('',#555);
#541=FILL_AREA_STYLE_COLOUR('',#556);
#542=FILL_AREA_STYLE_COLOUR('',#557);
#543=FILL_AREA_STYLE_COLOUR('',#558);
#544=COLOUR_RGB('',0.0,1.0,1.0);
#545=COLOUR_RGB('',0.0,1.0,1.0);
#546=COLOUR_RGB('',0.0,1.0,1.0);
#547=COLOUR_RGB('',0.0,1.0,1.0);
#548=COLOUR_RGB('',0.0,1.0,1.0);
#549=COLOUR_RGB('',0.0,1.0,1.0);
#550=COLOUR_RGB('',0.0,1.0,1.0);
#551=COLOUR_RGB('',0.0,1.0,1.0);
#552=COLOUR_RGB('',0.0,1.0,1.0);
#553=COLOUR_RGB('',0.0,1.0,1.0);
#554=COLOUR_RGB('',0.0,1.0,1.0);
#555=COLOUR_RGB('',0.0,1.0,1.0);
#556=COLOUR_RGB('',0.0,1.0,1.0);
#557=COLOUR_RGB('',0.0,1.0,1.0);
#558=COLOUR_RGB('',0.0,1.0,1.0);
ENDSEC;
END-ISO-10303-21;
