ISO-10303-21;
HEADER;
FILE_DESCRIPTION((''),'1');
FILE_NAME('T:/02_3D_Field-HP\X2\FF71FF6FFF8CFF9F5916\X0\2013/02_Step_Field-HP\X2\FF71FF6FFF8CFF9F5916\X0\2013/MGT12-d-150_060049-090071.stp','2017-02-08T07:52:58',(''),(''),'Spatial Interop R21 SP3','Kubotek KeyCreator 2011 V10.0.2 (22737)',' ');
FILE_SCHEMA(('automotive_design'));
ENDSEC;
DATA;
#1=MECHANICAL_DESIGN_GEOMETRIC_PRESENTATION_REPRESENTATION(' ',(#10,#11,#12,#13,#14,#15,#16,#17,#18,#19,#20,#21,#22,#23,#24,#25,#26,#27,#28,#29,#30,#31,#32,#33,#34,#35,#36,#37),#6);
#2=PRODUCT_DEFINITION_CONTEXT('',#38,'design');
#3=APPLICATION_PROTOCOL_DEFINITION('INTERNATIONAL STANDARD','automotive_design',1994,#38);
#4=PRODUCT_CATEGORY_RELATIONSHIP('NONE','NONE',#39,#40);
#5=SHAPE_DEFINITION_REPRESENTATION(#41,#42);
#6= (GEOMETRIC_REPRESENTATION_CONTEXT(3)GLOBAL_UNCERTAINTY_ASSIGNED_CONTEXT((#45))GLOBAL_UNIT_ASSIGNED_CONTEXT((#47,#48,#49))REPRESENTATION_CONTEXT('NONE','WORKSPACE'));
#10=STYLED_ITEM('',(#51),#52);
#11=STYLED_ITEM('',(#53),#54);
#12=STYLED_ITEM('',(#55),#56);
#13=STYLED_ITEM('',(#57,#58),#59);
#14=STYLED_ITEM('',(#60,#61),#62);
#15=STYLED_ITEM('',(#63,#64),#65);
#16=STYLED_ITEM('',(#66,#67),#68);
#17=STYLED_ITEM('',(#69),#70);
#18=STYLED_ITEM('',(#71),#72);
#19=STYLED_ITEM('',(#73),#74);
#20=STYLED_ITEM('',(#75,#76),#77);
#21=STYLED_ITEM('',(#78,#79),#80);
#22=STYLED_ITEM('',(#81),#82);
#23=STYLED_ITEM('',(#83,#84),#85);
#24=STYLED_ITEM('',(#86),#87);
#25=STYLED_ITEM('',(#88),#89);
#26=STYLED_ITEM('',(#90,#91),#92);
#27=STYLED_ITEM('',(#93,#94),#95);
#28=STYLED_ITEM('',(#96,#97),#98);
#29=STYLED_ITEM('',(#99,#100),#101);
#30=STYLED_ITEM('',(#102),#103);
#31=STYLED_ITEM('',(#104),#105);
#32=STYLED_ITEM('',(#106),#107);
#33=STYLED_ITEM('',(#108,#109),#110);
#34=STYLED_ITEM('',(#111,#112),#113);
#35=STYLED_ITEM('',(#114),#115);
#36=STYLED_ITEM('',(#116,#117),#118);
#37=STYLED_ITEM('',(#119,#120),#121);
#38=APPLICATION_CONTEXT(' ');
#39=PRODUCT_CATEGORY('part','NONE');
#40=PRODUCT_RELATED_PRODUCT_CATEGORY('detail',' ',(#122));
#41=PRODUCT_DEFINITION_SHAPE('NONE','NONE',#123);
#42=ADVANCED_BREP_SHAPE_REPRESENTATION('240[2]',(#80,#124),#6);
#45=UNCERTAINTY_MEASURE_WITH_UNIT(LENGTH_MEASURE(1.0E-006),#47,'','');
#47= (CONVERSION_BASED_UNIT('MILLIMETRE',#127)LENGTH_UNIT()NAMED_UNIT(#130));
#48= (NAMED_UNIT(#132)PLANE_ANGLE_UNIT()SI_UNIT($,.RADIAN.));
#49= (NAMED_UNIT(#132)SOLID_ANGLE_UNIT()SI_UNIT($,.STERADIAN.));
#51=PRESENTATION_STYLE_ASSIGNMENT((#138));
#52=EDGE_CURVE('240[2]',#139,#139,#140,.T.);
#53=PRESENTATION_STYLE_ASSIGNMENT((#141));
#54=EDGE_CURVE('240[2]',#142,#142,#143,.T.);
#55=PRESENTATION_STYLE_ASSIGNMENT((#144));
#56=EDGE_CURVE('240[2]',#145,#145,#146,.T.);
#57=PRESENTATION_STYLE_ASSIGNMENT((#147));
#58=PRESENTATION_STYLE_ASSIGNMENT((#148));
#59=ADVANCED_FACE('240[2]',(#149,#150),#151,.T.);
#60=PRESENTATION_STYLE_ASSIGNMENT((#152));
#61=PRESENTATION_STYLE_ASSIGNMENT((#153));
#62=ADVANCED_FACE('240[2]',(#154,#155),#156,.T.);
#63=PRESENTATION_STYLE_ASSIGNMENT((#157));
#64=PRESENTATION_STYLE_ASSIGNMENT((#158));
#65=ADVANCED_FACE('240[2]',(#159,#160),#161,.T.);
#66=PRESENTATION_STYLE_ASSIGNMENT((#162));
#67=PRESENTATION_STYLE_ASSIGNMENT((#163));
#68=ADVANCED_FACE('240[2]',(#164,#165),#166,.T.);
#69=PRESENTATION_STYLE_ASSIGNMENT((#167));
#70=EDGE_CURVE('240[2]',#168,#168,#169,.T.);
#71=PRESENTATION_STYLE_ASSIGNMENT((#170));
#72=EDGE_CURVE('240[2]',#171,#171,#172,.T.);
#73=PRESENTATION_STYLE_ASSIGNMENT((#173));
#74=EDGE_CURVE('240[2]',#174,#174,#175,.T.);
#75=PRESENTATION_STYLE_ASSIGNMENT((#176));
#76=PRESENTATION_STYLE_ASSIGNMENT((#177));
#77=ADVANCED_FACE('240[2]',(#178),#179,.T.);
#78=PRESENTATION_STYLE_ASSIGNMENT((#180));
#79=PRESENTATION_STYLE_ASSIGNMENT((#181));
#80=MANIFOLD_SOLID_BREP('240[2]',#182);
#81=PRESENTATION_STYLE_ASSIGNMENT((#183));
#82=EDGE_CURVE('240[2]',#184,#184,#185,.T.);
#83=PRESENTATION_STYLE_ASSIGNMENT((#186));
#84=PRESENTATION_STYLE_ASSIGNMENT((#187));
#85=ADVANCED_FACE('240[2]',(#188,#189),#190,.T.);
#86=PRESENTATION_STYLE_ASSIGNMENT((#191));
#87=EDGE_CURVE('240[2]',#192,#192,#193,.T.);
#88=PRESENTATION_STYLE_ASSIGNMENT((#194));
#89=EDGE_CURVE('240[2]',#195,#195,#196,.T.);
#90=PRESENTATION_STYLE_ASSIGNMENT((#197));
#91=PRESENTATION_STYLE_ASSIGNMENT((#198));
#92=ADVANCED_FACE('240[2]',(#199,#200),#201,.T.);
#93=PRESENTATION_STYLE_ASSIGNMENT((#202));
#94=PRESENTATION_STYLE_ASSIGNMENT((#203));
#95=ADVANCED_FACE('240[2]',(#204,#205),#206,.T.);
#96=PRESENTATION_STYLE_ASSIGNMENT((#207));
#97=PRESENTATION_STYLE_ASSIGNMENT((#208));
#98=ADVANCED_FACE('240[2]',(#209,#210),#211,.T.);
#99=PRESENTATION_STYLE_ASSIGNMENT((#212));
#100=PRESENTATION_STYLE_ASSIGNMENT((#213));
#101=ADVANCED_FACE('240[2]',(#214,#215),#216,.T.);
#102=PRESENTATION_STYLE_ASSIGNMENT((#217));
#103=EDGE_CURVE('240[2]',#218,#218,#219,.T.);
#104=PRESENTATION_STYLE_ASSIGNMENT((#220));
#105=EDGE_CURVE('240[2]',#221,#221,#222,.T.);
#106=PRESENTATION_STYLE_ASSIGNMENT((#223));
#107=EDGE_CURVE('240[2]',#224,#224,#225,.T.);
#108=PRESENTATION_STYLE_ASSIGNMENT((#226));
#109=PRESENTATION_STYLE_ASSIGNMENT((#227));
#110=ADVANCED_FACE('240[2]',(#228,#229),#230,.T.);
#111=PRESENTATION_STYLE_ASSIGNMENT((#231));
#112=PRESENTATION_STYLE_ASSIGNMENT((#232));
#113=ADVANCED_FACE('240[2]',(#233,#234),#235,.T.);
#114=PRESENTATION_STYLE_ASSIGNMENT((#236));
#115=EDGE_CURVE('240[2]',#237,#237,#238,.T.);
#116=PRESENTATION_STYLE_ASSIGNMENT((#239));
#117=PRESENTATION_STYLE_ASSIGNMENT((#240));
#118=ADVANCED_FACE('240[2]',(#241),#242,.T.);
#119=PRESENTATION_STYLE_ASSIGNMENT((#243));
#120=PRESENTATION_STYLE_ASSIGNMENT((#244));
#121=ADVANCED_FACE('240[2]',(#245,#246),#247,.T.);
#122=PRODUCT('240[2]','240[2]','PART-240[2]-DESC',(#248));
#123=PRODUCT_DEFINITION('NONE','NONE',#249,#2);
#124=AXIS2_PLACEMENT_3D('',#250,#251,#252);
#127=LENGTH_MEASURE_WITH_UNIT(LENGTH_MEASURE(1.0),#253);
#130=DIMENSIONAL_EXPONENTS(1.0,0.0,0.0,0.0,0.0,0.0,0.0);
#132=DIMENSIONAL_EXPONENTS(0.0,0.0,0.0,0.0,0.0,0.0,0.0);
#138=CURVE_STYLE('',#254,POSITIVE_LENGTH_MEASURE(1000.0),#255);
#139=VERTEX_POINT('',#256);
#140=CIRCLE('',#257,10.0);
#141=CURVE_STYLE('',#258,POSITIVE_LENGTH_MEASURE(1000.0),#259);
#142=VERTEX_POINT('',#260);
#143=CIRCLE('',#261,10.0);
#144=CURVE_STYLE('',#262,POSITIVE_LENGTH_MEASURE(1000.0),#263);
#145=VERTEX_POINT('',#264);
#146=CIRCLE('',#265,8.20000000000073);
#147=SURFACE_STYLE_USAGE(.BOTH.,#266);
#148=CURVE_STYLE('',#267,POSITIVE_LENGTH_MEASURE(1000.0),#268);
#149=FACE_BOUND('',#269,.T.);
#150=FACE_BOUND('',#270,.T.);
#151=CYLINDRICAL_SURFACE('',#271,13.5000000000011);
#152=SURFACE_STYLE_USAGE(.BOTH.,#272);
#153=CURVE_STYLE('',#273,POSITIVE_LENGTH_MEASURE(1000.0),#274);
#154=FACE_BOUND('',#275,.T.);
#155=FACE_BOUND('',#276,.T.);
#156=CYLINDRICAL_SURFACE('',#277,8.20000000000073);
#157=SURFACE_STYLE_USAGE(.BOTH.,#278);
#158=CURVE_STYLE('',#279,POSITIVE_LENGTH_MEASURE(1000.0),#280);
#159=FACE_BOUND('',#281,.T.);
#160=FACE_BOUND('',#282,.T.);
#161=CYLINDRICAL_SURFACE('',#283,9.99999999999724);
#162=SURFACE_STYLE_USAGE(.BOTH.,#284);
#163=CURVE_STYLE('',#285,POSITIVE_LENGTH_MEASURE(1000.0),#286);
#164=FACE_BOUND('',#287,.T.);
#165=FACE_BOUND('',#288,.T.);
#166=CONICAL_SURFACE('',#289,10.0749999999998,0.124354994545604);
#167=CURVE_STYLE('',#290,POSITIVE_LENGTH_MEASURE(1000.0),#291);
#168=VERTEX_POINT('',#292);
#169=CIRCLE('',#293,13.0000000000004);
#170=CURVE_STYLE('',#294,POSITIVE_LENGTH_MEASURE(1000.0),#295);
#171=VERTEX_POINT('',#296);
#172=CIRCLE('',#297,13.5000000000031);
#173=CURVE_STYLE('',#298,POSITIVE_LENGTH_MEASURE(1000.0),#299);
#174=VERTEX_POINT('',#300);
#175=CIRCLE('',#301,10.0000000000012);
#176=SURFACE_STYLE_USAGE(.BOTH.,#302);
#177=CURVE_STYLE('',#303,POSITIVE_LENGTH_MEASURE(1000.0),#304);
#178=FACE_OUTER_BOUND('',#305,.T.);
#179=PLANE('',#306);
#180=SURFACE_STYLE_USAGE(.BOTH.,#307);
#181=CURVE_STYLE('',#308,POSITIVE_LENGTH_MEASURE(1000.0),#309);
#182=CLOSED_SHELL('',(#85,#92,#59,#95,#98,#101,#62,#121,#110,#68,#113,#118,#77,#65));
#183=CURVE_STYLE('',#310,POSITIVE_LENGTH_MEASURE(1000.0),#311);
#184=VERTEX_POINT('',#312);
#185=CIRCLE('',#313,10.0);
#186=SURFACE_STYLE_USAGE(.BOTH.,#314);
#187=CURVE_STYLE('',#315,POSITIVE_LENGTH_MEASURE(1000.0),#316);
#188=FACE_OUTER_BOUND('',#317,.T.);
#189=FACE_BOUND('',#318,.T.);
#190=PLANE('',#319);
#191=CURVE_STYLE('',#320,POSITIVE_LENGTH_MEASURE(1000.0),#321);
#192=VERTEX_POINT('',#322);
#193=CIRCLE('',#323,9.99999999999327);
#194=CURVE_STYLE('',#324,POSITIVE_LENGTH_MEASURE(1000.0),#325);
#195=VERTEX_POINT('',#326);
#196=CIRCLE('',#327,10.1499999999996);
#197=SURFACE_STYLE_USAGE(.BOTH.,#328);
#198=CURVE_STYLE('',#329,POSITIVE_LENGTH_MEASURE(1000.0),#330);
#199=FACE_BOUND('',#331,.T.);
#200=FACE_BOUND('',#332,.T.);
#201=CONICAL_SURFACE('',#333,13.2500000000018,0.349065850398903);
#202=SURFACE_STYLE_USAGE(.BOTH.,#334);
#203=CURVE_STYLE('',#335,POSITIVE_LENGTH_MEASURE(1000.0),#336);
#204=FACE_BOUND('',#337,.T.);
#205=FACE_BOUND('',#338,.T.);
#206=CONICAL_SURFACE('',#339,11.7499999999995,1.3089969389957);
#207=SURFACE_STYLE_USAGE(.BOTH.,#340);
#208=CURVE_STYLE('',#341,POSITIVE_LENGTH_MEASURE(1000.0),#342);
#209=FACE_BOUND('',#343,.T.);
#210=FACE_BOUND('',#344,.T.);
#211=CYLINDRICAL_SURFACE('',#345,10.0);
#212=SURFACE_STYLE_USAGE(.BOTH.,#346);
#213=CURVE_STYLE('',#347,POSITIVE_LENGTH_MEASURE(1000.0),#348);
#214=FACE_OUTER_BOUND('',#349,.T.);
#215=FACE_BOUND('',#350,.T.);
#216=PLANE('',#351);
#217=CURVE_STYLE('',#352,POSITIVE_LENGTH_MEASURE(1000.0),#353);
#218=VERTEX_POINT('',#354);
#219=CIRCLE('',#355,10.0);
#220=CURVE_STYLE('',#356,POSITIVE_LENGTH_MEASURE(1000.0),#357);
#221=VERTEX_POINT('',#358);
#222=CIRCLE('',#359,10.1499999999996);
#223=CURVE_STYLE('',#360,POSITIVE_LENGTH_MEASURE(1000.0),#361);
#224=VERTEX_POINT('',#362);
#225=CIRCLE('',#363,8.20000000000073);
#226=SURFACE_STYLE_USAGE(.BOTH.,#364);
#227=CURVE_STYLE('',#365,POSITIVE_LENGTH_MEASURE(1000.0),#366);
#228=FACE_BOUND('',#367,.T.);
#229=FACE_BOUND('',#368,.T.);
#230=CYLINDRICAL_SURFACE('',#369,10.1499999999996);
#231=SURFACE_STYLE_USAGE(.BOTH.,#370);
#232=CURVE_STYLE('',#371,POSITIVE_LENGTH_MEASURE(1000.0),#372);
#233=FACE_BOUND('',#373,.T.);
#234=FACE_BOUND('',#374,.T.);
#235=CYLINDRICAL_SURFACE('',#375,10.0);
#236=CURVE_STYLE('',#376,POSITIVE_LENGTH_MEASURE(1000.0),#377);
#237=VERTEX_POINT('',#378);
#238=CIRCLE('',#379,13.4999999999991);
#239=SURFACE_STYLE_USAGE(.BOTH.,#380);
#240=CURVE_STYLE('',#381,POSITIVE_LENGTH_MEASURE(1000.0),#382);
#241=FACE_OUTER_BOUND('',#383,.T.);
#242=PLANE('',#384);
#243=SURFACE_STYLE_USAGE(.BOTH.,#385);
#244=CURVE_STYLE('',#386,POSITIVE_LENGTH_MEASURE(1000.0),#387);
#245=FACE_OUTER_BOUND('',#388,.T.);
#246=FACE_BOUND('',#389,.T.);
#247=PLANE('',#390);
#248=PRODUCT_CONTEXT('',#38,'mechanical');
#249=PRODUCT_DEFINITION_FORMATION_WITH_SPECIFIED_SOURCE(' ','NONE',#122,.NOT_KNOWN.);
#250=CARTESIAN_POINT('',(0.0,0.0,0.0));
#251=DIRECTION('',(0.0,0.0,1.0));
#252=DIRECTION('',(1.0,0.0,0.0));
#253= (NAMED_UNIT(#130)LENGTH_UNIT()SI_UNIT(.MILLI.,.METRE.));
#254=DRAUGHTING_PRE_DEFINED_CURVE_FONT('continuous');
#255=COLOUR_RGB('',0.0,1.0,1.0);
#256=CARTESIAN_POINT('',(-1.34711147906172E-015,9.99999999999999,21.9999999999941));
#257=AXIS2_PLACEMENT_3D('',#392,#393,#394);
#258=DRAUGHTING_PRE_DEFINED_CURVE_FONT('continuous');
#259=COLOUR_RGB('',0.0,1.0,1.0);
#260=CARTESIAN_POINT('',(0.0,10.0,0.0));
#261=AXIS2_PLACEMENT_3D('',#395,#396,#397);
#262=DRAUGHTING_PRE_DEFINED_CURVE_FONT('continuous');
#263=COLOUR_RGB('',0.0,1.0,1.0);
#264=CARTESIAN_POINT('',(-1.34711147906329E-015,8.20000000000072,22.0000000000195));
#265=AXIS2_PLACEMENT_3D('',#398,#399,#400);
#266=SURFACE_SIDE_STYLE('',(#401));
#267=DRAUGHTING_PRE_DEFINED_CURVE_FONT('continuous');
#268=COLOUR_RGB('',0.0,1.0,1.0);
#269=EDGE_LOOP('',(#402));
#270=EDGE_LOOP('',(#403));
#271=AXIS2_PLACEMENT_3D('',#404,#405,#406);
#272=SURFACE_SIDE_STYLE('',(#407));
#273=DRAUGHTING_PRE_DEFINED_CURVE_FONT('continuous');
#274=COLOUR_RGB('',0.0,1.0,1.0);
#275=EDGE_LOOP('',(#408));
#276=EDGE_LOOP('',(#409));
#277=AXIS2_PLACEMENT_3D('',#410,#411,#412);
#278=SURFACE_SIDE_STYLE('',(#413));
#279=DRAUGHTING_PRE_DEFINED_CURVE_FONT('continuous');
#280=COLOUR_RGB('',0.0,1.0,1.0);
#281=EDGE_LOOP('',(#414));
#282=EDGE_LOOP('',(#415));
#283=AXIS2_PLACEMENT_3D('',#416,#417,#418);
#284=SURFACE_SIDE_STYLE('',(#419));
#285=DRAUGHTING_PRE_DEFINED_CURVE_FONT('continuous');
#286=COLOUR_RGB('',0.0,1.0,1.0);
#287=EDGE_LOOP('',(#420));
#288=EDGE_LOOP('',(#421));
#289=AXIS2_PLACEMENT_3D('',#422,#423,#424);
#290=DRAUGHTING_PRE_DEFINED_CURVE_FONT('continuous');
#291=COLOUR_RGB('',0.0,1.0,1.0);
#292=CARTESIAN_POINT('',(-9.58286120332799E-015,13.0000000000004,156.499999999999));
#293=AXIS2_PLACEMENT_3D('',#425,#426,#427);
#294=DRAUGHTING_PRE_DEFINED_CURVE_FONT('continuous');
#295=COLOUR_RGB('',0.0,1.0,1.0);
#296=CARTESIAN_POINT('',(-9.49874396764095E-015,13.500000000003,155.126261290265));
#297=AXIS2_PLACEMENT_3D('',#428,#429,#430);
#298=DRAUGHTING_PRE_DEFINED_CURVE_FONT('continuous');
#299=COLOUR_RGB('',0.0,1.0,1.0);
#300=CARTESIAN_POINT('',(-1.23077003314309E-014,10.0000000000012,201.000000000001));
#301=AXIS2_PLACEMENT_3D('',#431,#432,#433);
#302=SURFACE_SIDE_STYLE('',(#434));
#303=DRAUGHTING_PRE_DEFINED_CURVE_FONT('continuous');
#304=COLOUR_RGB('',0.0,1.0,1.0);
#305=EDGE_LOOP('',(#435));
#306=AXIS2_PLACEMENT_3D('',#436,#437,#438);
#307=SURFACE_SIDE_STYLE('',(#439));
#308=DRAUGHTING_PRE_DEFINED_CURVE_FONT('continuous');
#309=COLOUR_RGB('',0.0,1.0,1.0);
#310=DRAUGHTING_PRE_DEFINED_CURVE_FONT('continuous');
#311=COLOUR_RGB('',0.0,1.0,1.0);
#312=CARTESIAN_POINT('',(-1.08993565124111E-015,9.99999999999999,17.7999999999995));
#313=AXIS2_PLACEMENT_3D('',#440,#441,#442);
#314=SURFACE_SIDE_STYLE('',(#443));
#315=DRAUGHTING_PRE_DEFINED_CURVE_FONT('continuous');
#316=COLOUR_RGB('',0.0,1.0,1.0);
#317=EDGE_LOOP('',(#444));
#318=EDGE_LOOP('',(#445));
#319=AXIS2_PLACEMENT_3D('',#446,#447,#448);
#320=DRAUGHTING_PRE_DEFINED_CURVE_FONT('continuous');
#321=COLOUR_RGB('',0.0,1.0,1.0);
#322=CARTESIAN_POINT('',(-9.82779056315756E-015,9.99999999999325,156.499999999999));
#323=AXIS2_PLACEMENT_3D('',#449,#450,#451);
#324=DRAUGHTING_PRE_DEFINED_CURVE_FONT('continuous');
#325=COLOUR_RGB('',0.0,1.0,1.0);
#326=CARTESIAN_POINT('',(-1.16341445919047E-015,10.1499999999996,19.0000000000079));
#327=AXIS2_PLACEMENT_3D('',#452,#453,#454);
#328=SURFACE_SIDE_STYLE('',(#455));
#329=DRAUGHTING_PRE_DEFINED_CURVE_FONT('continuous');
#330=COLOUR_RGB('',0.0,1.0,1.0);
#331=EDGE_LOOP('',(#456));
#332=EDGE_LOOP('',(#457));
#333=AXIS2_PLACEMENT_3D('',#458,#459,#460);
#334=SURFACE_SIDE_STYLE('',(#461));
#335=DRAUGHTING_PRE_DEFINED_CURVE_FONT('continuous');
#336=COLOUR_RGB('',0.0,1.0,1.0);
#337=EDGE_LOOP('',(#462));
#338=EDGE_LOOP('',(#463));
#339=AXIS2_PLACEMENT_3D('',#464,#465,#466);
#340=SURFACE_SIDE_STYLE('',(#467));
#341=DRAUGHTING_PRE_DEFINED_CURVE_FONT('continuous');
#342=COLOUR_RGB('',0.0,1.0,1.0);
#343=EDGE_LOOP('',(#468));
#344=EDGE_LOOP('',(#469));
#345=AXIS2_PLACEMENT_3D('',#470,#471,#472);
#346=SURFACE_SIDE_STYLE('',(#473));
#347=DRAUGHTING_PRE_DEFINED_CURVE_FONT('continuous');
#348=COLOUR_RGB('',0.0,1.0,1.0);
#349=EDGE_LOOP('',(#474));
#350=EDGE_LOOP('',(#475));
#351=AXIS2_PLACEMENT_3D('',#476,#477,#478);
#352=DRAUGHTING_PRE_DEFINED_CURVE_FONT('continuous');
#353=COLOUR_RGB('',0.0,1.0,1.0);
#354=CARTESIAN_POINT('',(-9.12742594745682E-015,9.99999999999997,149.062177826483));
#355=AXIS2_PLACEMENT_3D('',#479,#480,#481);
#356=DRAUGHTING_PRE_DEFINED_CURVE_FONT('continuous');
#357=COLOUR_RGB('',0.0,1.0,1.0);
#358=CARTESIAN_POINT('',(-1.28587913910484E-015,10.1499999999996,21.000000000002));
#359=AXIS2_PLACEMENT_3D('',#482,#483,#484);
#360=DRAUGHTING_PRE_DEFINED_CURVE_FONT('continuous');
#361=COLOUR_RGB('',0.0,1.0,1.0);
#362=CARTESIAN_POINT('',(-1.28587913910484E-015,8.20000000000072,21.000000000002));
#363=AXIS2_PLACEMENT_3D('',#485,#486,#487);
#364=SURFACE_SIDE_STYLE('',(#488));
#365=DRAUGHTING_PRE_DEFINED_CURVE_FONT('continuous');
#366=COLOUR_RGB('',0.0,1.0,1.0);
#367=EDGE_LOOP('',(#489));
#368=EDGE_LOOP('',(#490));
#369=AXIS2_PLACEMENT_3D('',#491,#492,#493);
#370=SURFACE_SIDE_STYLE('',(#494));
#371=DRAUGHTING_PRE_DEFINED_CURVE_FONT('continuous');
#372=COLOUR_RGB('',0.0,1.0,1.0);
#373=EDGE_LOOP('',(#495));
#374=EDGE_LOOP('',(#496));
#375=AXIS2_PLACEMENT_3D('',#497,#498,#499);
#376=DRAUGHTING_PRE_DEFINED_CURVE_FONT('continuous');
#377=COLOUR_RGB('',0.0,1.0,1.0);
#378=CARTESIAN_POINT('',(-9.18485099360467E-015,13.499999999999,149.999999999992));
#379=AXIS2_PLACEMENT_3D('',#500,#501,#502);
#380=SURFACE_SIDE_STYLE('',(#503));
#381=DRAUGHTING_PRE_DEFINED_CURVE_FONT('continuous');
#382=COLOUR_RGB('',0.0,1.0,1.0);
#383=EDGE_LOOP('',(#504));
#384=AXIS2_PLACEMENT_3D('',#505,#506,#507);
#385=SURFACE_SIDE_STYLE('',(#508));
#386=DRAUGHTING_PRE_DEFINED_CURVE_FONT('continuous');
#387=COLOUR_RGB('',0.0,1.0,1.0);
#388=EDGE_LOOP('',(#509));
#389=EDGE_LOOP('',(#510));
#390=AXIS2_PLACEMENT_3D('',#511,#512,#513);
#392=CARTESIAN_POINT('',(4.29245360338527E-016,-1.80604453842333E-015,21.9999999999941));
#393=DIRECTION('',(6.12323399573677E-017,1.22464679914735E-016,-1.0));
#394=DIRECTION('',(-1.77635683940025E-016,1.0,1.22464679914735E-016));
#395=CARTESIAN_POINT('',(0.0,0.0,0.0));
#396=DIRECTION('',(6.12323399573677E-017,1.22464679914735E-016,-1.0));
#397=DIRECTION('',(-1.23259516440783E-032,1.0,1.22464679914735E-016));
#398=CARTESIAN_POINT('',(-4.01164673816304E-015,-5.35875821722572E-015,22.0000000000095));
#399=DIRECTION('',(6.12323399573677E-017,1.22464679914735E-016,-1.0));
#400=DIRECTION('',(3.24943324280504E-016,1.0,1.22464679914735E-016));
#401=SURFACE_STYLE_FILL_AREA(#514);
#402=ORIENTED_EDGE('',*,*,#115,.F.);
#403=ORIENTED_EDGE('',*,*,#72,.T.);
#404=CARTESIAN_POINT('',(-9.34179748062281E-015,-1.86835949612456E-014,152.563130645129));
#405=DIRECTION('',(-6.12323399573677E-017,-1.22464679914735E-016,1.0));
#406=DIRECTION('',(-1.23259516440783E-032,1.0,1.22464679914735E-016));
#407=SURFACE_STYLE_FILL_AREA(#515);
#408=ORIENTED_EDGE('',*,*,#107,.F.);
#409=ORIENTED_EDGE('',*,*,#56,.T.);
#410=CARTESIAN_POINT('',(-1.31649530908376E-015,-2.63299061816752E-015,21.5000000000058));
#411=DIRECTION('',(-6.12323399573676E-017,-1.22464679914735E-016,1.0));
#412=DIRECTION('',(-1.23259516440783E-032,1.0,1.22464679914735E-016));
#413=SURFACE_STYLE_FILL_AREA(#516);
#414=ORIENTED_EDGE('',*,*,#87,.F.);
#415=ORIENTED_EDGE('',*,*,#74,.T.);
#416=CARTESIAN_POINT('',(-1.10677454472942E-014,-2.21354908945885E-014,180.750000000001));
#417=DIRECTION('',(-6.12323399573677E-017,-1.22464679914735E-016,1.0));
#418=DIRECTION('',(-1.23259516440783E-032,1.0,1.22464679914735E-016));
#419=SURFACE_STYLE_FILL_AREA(#517);
#420=ORIENTED_EDGE('',*,*,#82,.F.);
#421=ORIENTED_EDGE('',*,*,#89,.T.);
#422=CARTESIAN_POINT('',(-1.12667505521579E-015,-2.25335011043159E-015,18.4000000000037));
#423=DIRECTION('',(-6.12323399573677E-017,-1.22464679914735E-016,1.0));
#424=DIRECTION('',(-1.23259516440783E-032,1.0,1.22464679914735E-016));
#425=CARTESIAN_POINT('',(-9.58286120332799E-015,-1.9165722406656E-014,156.499999999999));
#426=DIRECTION('',(6.12323399573677E-017,1.22464679914735E-016,-1.0));
#427=DIRECTION('',(-1.23259516440783E-032,1.0,1.22464679914735E-016));
#428=CARTESIAN_POINT('',(-9.49874396764095E-015,-1.89974879352819E-014,155.126261290265));
#429=DIRECTION('',(6.12323399573677E-017,1.22464679914735E-016,-1.0));
#430=DIRECTION('',(-1.23259516440783E-032,1.0,1.22464679914735E-016));
#431=CARTESIAN_POINT('',(-1.23077003314309E-014,-2.46154006628619E-014,201.000000000001));
#432=DIRECTION('',(6.12323399573677E-017,1.22464679914735E-016,-1.0));
#433=DIRECTION('',(-1.23259516440783E-032,1.0,1.22464679914735E-016));
#434=SURFACE_STYLE_FILL_AREA(#518);
#435=ORIENTED_EDGE('',*,*,#74,.F.);
#436=CARTESIAN_POINT('',(-1.23077003314309E-014,5.00000000000058,201.000000000001));
#437=DIRECTION('',(1.84859665588233E-064,-1.22464679914735E-016,1.0));
#438=DIRECTION('',(1.0,1.50949372273655E-048,0.0));
#439=SURFACE_STYLE_FILL_AREA(#519);
#440=CARTESIAN_POINT('',(-1.08993565124111E-015,-2.17987130248224E-015,17.7999999999995));
#441=DIRECTION('',(6.12323399573677E-017,1.22464679914735E-016,-1.0));
#442=DIRECTION('',(-1.23259516440783E-032,1.0,1.22464679914735E-016));
#443=SURFACE_STYLE_FILL_AREA(#520);
#444=ORIENTED_EDGE('',*,*,#70,.F.);
#445=ORIENTED_EDGE('',*,*,#87,.T.);
#446=CARTESIAN_POINT('',(-9.84184850476247,1.77144517532162,156.499999999999));
#447=DIRECTION('',(0.0,0.0,1.0));
#448=DIRECTION('',(1.0,-0.0,0.0));
#449=CARTESIAN_POINT('',(-9.82779056315756E-015,-1.96555811263151E-014,156.499999999999));
#450=DIRECTION('',(6.12323399573676E-017,1.22464679914735E-016,-1.0));
#451=DIRECTION('',(-1.23259516440783E-032,1.0,1.22464679914735E-016));
#452=CARTESIAN_POINT('',(-1.16341445919047E-015,-2.32682891838094E-015,19.0000000000079));
#453=DIRECTION('',(6.12323399573677E-017,1.22464679914735E-016,-1.0));
#454=DIRECTION('',(-1.23259516440783E-032,1.0,1.22464679914735E-016));
#455=SURFACE_STYLE_FILL_AREA(#521);
#456=ORIENTED_EDGE('',*,*,#70,.T.);
#457=ORIENTED_EDGE('',*,*,#72,.F.);
#458=CARTESIAN_POINT('',(-9.54080258548447E-015,-1.90816051709689E-014,155.813130645132));
#459=DIRECTION('',(6.12323399573677E-017,1.22464679914735E-016,-1.0));
#460=DIRECTION('',(-1.23259516440783E-032,1.0,1.22464679914735E-016));
#461=SURFACE_STYLE_FILL_AREA(#522);
#462=ORIENTED_EDGE('',*,*,#103,.F.);
#463=ORIENTED_EDGE('',*,*,#115,.T.);
#464=CARTESIAN_POINT('',(-9.15613847053075E-015,-1.83122769410615E-014,149.531088913238));
#465=DIRECTION('',(-6.12323399573677E-017,-1.22464679914735E-016,1.0));
#466=DIRECTION('',(-1.23259516440783E-032,1.0,1.22464679914735E-016));
#467=SURFACE_STYLE_FILL_AREA(#523);
#468=ORIENTED_EDGE('',*,*,#52,.F.);
#469=ORIENTED_EDGE('',*,*,#103,.T.);
#470=CARTESIAN_POINT('',(-1.43451133970124E-015,-1.28164537458623E-015,21.9999999999941));
#471=DIRECTION('',(5.56100388815956E-017,1.56198486369367E-016,-1.0));
#472=DIRECTION('',(-1.13720649318287E-016,-1.0,-1.56198486369367E-016));
#473=SURFACE_STYLE_FILL_AREA(#524);
#474=ORIENTED_EDGE('',*,*,#52,.T.);
#475=ORIENTED_EDGE('',*,*,#56,.F.);
#476=CARTESIAN_POINT('',(10.0000001,10.0000001,21.9999999999941));
#477=DIRECTION('',(6.12323399573677E-017,-8.58954971873455E-012,-1.0));
#478=DIRECTION('',(0.0,-1.0,8.58954971873455E-012));
#479=CARTESIAN_POINT('',(-9.12742594745682E-015,-1.82548518949136E-014,149.062177826483));
#480=DIRECTION('',(6.12323399573677E-017,1.22464679914735E-016,-1.0));
#481=DIRECTION('',(-1.23259516440783E-032,1.0,1.22464679914735E-016));
#482=CARTESIAN_POINT('',(-1.28587913910484E-015,-2.57175827820969E-015,21.000000000002));
#483=DIRECTION('',(6.12323399573677E-017,1.22464679914735E-016,-1.0));
#484=DIRECTION('',(-1.23259516440783E-032,1.0,1.22464679914735E-016));
#485=CARTESIAN_POINT('',(-1.28587913910484E-015,-2.57175827820969E-015,21.000000000002));
#486=DIRECTION('',(6.12323399573676E-017,1.22464679914735E-016,-1.0));
#487=DIRECTION('',(-1.23259516440783E-032,1.0,1.22464679914735E-016));
#488=SURFACE_STYLE_FILL_AREA(#525);
#489=ORIENTED_EDGE('',*,*,#89,.F.);
#490=ORIENTED_EDGE('',*,*,#105,.T.);
#491=CARTESIAN_POINT('',(-1.22464679914765E-015,-2.44929359829532E-015,20.000000000005));
#492=DIRECTION('',(-6.12323399573677E-017,-1.22464679914735E-016,1.0));
#493=DIRECTION('',(-1.23259516440783E-032,1.0,1.22464679914735E-016));
#494=SURFACE_STYLE_FILL_AREA(#526);
#495=ORIENTED_EDGE('',*,*,#54,.F.);
#496=ORIENTED_EDGE('',*,*,#82,.T.);
#497=CARTESIAN_POINT('',(-5.44967825620558E-016,-1.08993565124112E-015,8.89999999999978));
#498=DIRECTION('',(-6.12323399573677E-017,-1.22464679914735E-016,1.0));
#499=DIRECTION('',(-1.23259516440783E-032,1.0,1.22464679914735E-016));
#500=CARTESIAN_POINT('',(-9.18485099360467E-015,-1.83697019872093E-014,149.999999999992));
#501=DIRECTION('',(6.12323399573677E-017,1.22464679914735E-016,-1.0));
#502=DIRECTION('',(-1.23259516440783E-032,1.0,1.22464679914735E-016));
#503=SURFACE_STYLE_FILL_AREA(#527);
#504=ORIENTED_EDGE('',*,*,#54,.T.);
#505=CARTESIAN_POINT('',(0.0,5.0,0.0));
#506=DIRECTION('',(6.12323399573677E-017,1.22464679914735E-016,-1.0));
#507=DIRECTION('',(-1.0,0.0,-6.12323399573677E-017));
#508=SURFACE_STYLE_FILL_AREA(#528);
#509=ORIENTED_EDGE('',*,*,#105,.F.);
#510=ORIENTED_EDGE('',*,*,#107,.T.);
#511=CARTESIAN_POINT('',(-1.28587913910484E-015,9.17500000000018,21.000000000002));
#512=DIRECTION('',(1.84859665588233E-064,-1.22464679914735E-016,1.0));
#513=DIRECTION('',(1.0,1.50949372273655E-048,0.0));
#514=FILL_AREA_STYLE('',(#529));
#515=FILL_AREA_STYLE('',(#530));
#516=FILL_AREA_STYLE('',(#531));
#517=FILL_AREA_STYLE('',(#532));
#518=FILL_AREA_STYLE('',(#533));
#519=FILL_AREA_STYLE('',(#534));
#520=FILL_AREA_STYLE('',(#535));
#521=FILL_AREA_STYLE('',(#536));
#522=FILL_AREA_STYLE('',(#537));
#523=FILL_AREA_STYLE('',(#538));
#524=FILL_AREA_STYLE('',(#539));
#525=FILL_AREA_STYLE('',(#540));
#526=FILL_AREA_STYLE('',(#541));
#527=FILL_AREA_STYLE('',(#542));
#528=FILL_AREA_STYLE('',(#543));
#529=FILL_AREA_STYLE_COLOUR('',#544);
#530=FILL_AREA_STYLE_COLOUR('',#545);
#531=FILL_AREA_STYLE_COLOUR('',#546);
#532=FILL_AREA_STYLE_COLOUR('',#547);
#533=FILL_AREA_STYLE_COLOUR('',#548);
#534=FILL_AREA_STYLE_COLOUR('',#549);
#535=FILL_AREA_STYLE_COLOUR('',#550);
#536=FILL_AREA_STYLE_COLOUR('',#551);
#537=FILL_AREA_STYLE_COLOUR('',#552);
#538=FILL_AREA_STYLE_COLOUR('',#553);
#539=FILL_AREA_STYLE_COLOUR('',#554);
#540=FILL_AREA_STYLE_COLOUR('',#555);
#541=FILL_AREA_STYLE_COLOUR('',#556);
#542=FILL_AREA_STYLE_COLOUR('',#557);
#543=FILL_AREA_STYLE_COLOUR('',#558);
#544=COLOUR_RGB('',0.0,1.0,1.0);
#545=COLOUR_RGB('',0.0,1.0,1.0);
#546=COLOUR_RGB('',0.0,1.0,1.0);
#547=COLOUR_RGB('',0.0,1.0,1.0);
#548=COLOUR_RGB('',0.0,1.0,1.0);
#549=COLOUR_RGB('',0.0,1.0,1.0);
#550=COLOUR_RGB('',0.0,1.0,1.0);
#551=COLOUR_RGB('',0.0,1.0,1.0);
#552=COLOUR_RGB('',0.0,1.0,1.0);
#553=COLOUR_RGB('',0.0,1.0,1.0);
#554=COLOUR_RGB('',0.0,1.0,1.0);
#555=COLOUR_RGB('',0.0,1.0,1.0);
#556=COLOUR_RGB('',0.0,1.0,1.0);
#557=COLOUR_RGB('',0.0,1.0,1.0);
#558=COLOUR_RGB('',0.0,1.0,1.0);
ENDSEC;
END-ISO-10303-21;
