ISO-10303-21;
HEADER;
FILE_DESCRIPTION((''),'1');
FILE_NAME('T:/02_3D_Field-HP\X2\FF71FF6FFF8CFF9F5916\X0\2013/02_Step_Field-HP\X2\FF71FF6FFF8CFF9F5916\X0\2013/MGT12-d-100_M6-12.stp','2017-02-08T06:08:17',(''),(''),'Spatial Interop R21 SP3','Kubotek KeyCreator 2011 V10.0.2 (22737)',' ');
FILE_SCHEMA(('automotive_design'));
ENDSEC;
DATA;
#1=MECHANICAL_DESIGN_GEOMETRIC_PRESENTATION_REPRESENTATION(' ',(#10,#11,#12,#13,#14,#15,#16,#17,#18,#19,#20,#21,#22,#23,#24,#25,#26,#27,#28,#29,#30,#31,#32,#33,#34,#35,#36,#37),#6);
#2=PRODUCT_DEFINITION_CONTEXT('',#38,'design');
#3=APPLICATION_PROTOCOL_DEFINITION('INTERNATIONAL STANDARD','automotive_design',1994,#38);
#4=PRODUCT_CATEGORY_RELATIONSHIP('NONE','NONE',#39,#40);
#5=SHAPE_DEFINITION_REPRESENTATION(#41,#42);
#6= (GEOMETRIC_REPRESENTATION_CONTEXT(3)GLOBAL_UNCERTAINTY_ASSIGNED_CONTEXT((#45))GLOBAL_UNIT_ASSIGNED_CONTEXT((#47,#48,#49))REPRESENTATION_CONTEXT('NONE','WORKSPACE'));
#10=STYLED_ITEM('',(#51,#52),#53);
#11=STYLED_ITEM('',(#54,#55),#56);
#12=STYLED_ITEM('',(#57),#58);
#13=STYLED_ITEM('',(#59,#60),#61);
#14=STYLED_ITEM('',(#62,#63),#64);
#15=STYLED_ITEM('',(#65),#66);
#16=STYLED_ITEM('',(#67),#68);
#17=STYLED_ITEM('',(#69,#70),#71);
#18=STYLED_ITEM('',(#72,#73),#74);
#19=STYLED_ITEM('',(#75),#76);
#20=STYLED_ITEM('',(#77),#78);
#21=STYLED_ITEM('',(#79),#80);
#22=STYLED_ITEM('',(#81),#82);
#23=STYLED_ITEM('',(#83,#84),#85);
#24=STYLED_ITEM('',(#86),#87);
#25=STYLED_ITEM('',(#88),#89);
#26=STYLED_ITEM('',(#90,#91),#92);
#27=STYLED_ITEM('',(#93),#94);
#28=STYLED_ITEM('',(#95,#96),#97);
#29=STYLED_ITEM('',(#98,#99),#100);
#30=STYLED_ITEM('',(#101,#102),#103);
#31=STYLED_ITEM('',(#104,#105),#106);
#32=STYLED_ITEM('',(#107),#108);
#33=STYLED_ITEM('',(#109),#110);
#34=STYLED_ITEM('',(#111,#112),#113);
#35=STYLED_ITEM('',(#114,#115),#116);
#36=STYLED_ITEM('',(#117,#118),#119);
#37=STYLED_ITEM('',(#120),#121);
#38=APPLICATION_CONTEXT(' ');
#39=PRODUCT_CATEGORY('part','NONE');
#40=PRODUCT_RELATED_PRODUCT_CATEGORY('detail',' ',(#122));
#41=PRODUCT_DEFINITION_SHAPE('NONE','NONE',#123);
#42=ADVANCED_BREP_SHAPE_REPRESENTATION('240[2]',(#92,#124),#6);
#45=UNCERTAINTY_MEASURE_WITH_UNIT(LENGTH_MEASURE(1.0E-006),#47,'','');
#47= (CONVERSION_BASED_UNIT('MILLIMETRE',#127)LENGTH_UNIT()NAMED_UNIT(#130));
#48= (NAMED_UNIT(#132)PLANE_ANGLE_UNIT()SI_UNIT($,.RADIAN.));
#49= (NAMED_UNIT(#132)SOLID_ANGLE_UNIT()SI_UNIT($,.STERADIAN.));
#51=PRESENTATION_STYLE_ASSIGNMENT((#138));
#52=PRESENTATION_STYLE_ASSIGNMENT((#139));
#53=ADVANCED_FACE('240[2]',(#140),#141,.T.);
#54=PRESENTATION_STYLE_ASSIGNMENT((#142));
#55=PRESENTATION_STYLE_ASSIGNMENT((#143));
#56=ADVANCED_FACE('240[2]',(#144,#145),#146,.T.);
#57=PRESENTATION_STYLE_ASSIGNMENT((#147));
#58=EDGE_CURVE('240[2]',#148,#148,#149,.T.);
#59=PRESENTATION_STYLE_ASSIGNMENT((#150));
#60=PRESENTATION_STYLE_ASSIGNMENT((#151));
#61=ADVANCED_FACE('240[2]',(#152,#153),#154,.T.);
#62=PRESENTATION_STYLE_ASSIGNMENT((#155));
#63=PRESENTATION_STYLE_ASSIGNMENT((#156));
#64=ADVANCED_FACE('240[2]',(#157,#158),#159,.T.);
#65=PRESENTATION_STYLE_ASSIGNMENT((#160));
#66=EDGE_CURVE('240[2]',#161,#161,#162,.T.);
#67=PRESENTATION_STYLE_ASSIGNMENT((#163));
#68=EDGE_CURVE('240[2]',#164,#164,#165,.T.);
#69=PRESENTATION_STYLE_ASSIGNMENT((#166));
#70=PRESENTATION_STYLE_ASSIGNMENT((#167));
#71=ADVANCED_FACE('240[2]',(#168,#169),#170,.T.);
#72=PRESENTATION_STYLE_ASSIGNMENT((#171));
#73=PRESENTATION_STYLE_ASSIGNMENT((#172));
#74=ADVANCED_FACE('240[2]',(#173,#174),#175,.T.);
#75=PRESENTATION_STYLE_ASSIGNMENT((#176));
#76=EDGE_CURVE('240[2]',#177,#177,#178,.T.);
#77=PRESENTATION_STYLE_ASSIGNMENT((#179));
#78=EDGE_CURVE('240[2]',#180,#180,#181,.T.);
#79=PRESENTATION_STYLE_ASSIGNMENT((#182));
#80=EDGE_CURVE('240[2]',#183,#183,#184,.T.);
#81=PRESENTATION_STYLE_ASSIGNMENT((#185));
#82=EDGE_CURVE('240[2]',#186,#186,#187,.T.);
#83=PRESENTATION_STYLE_ASSIGNMENT((#188));
#84=PRESENTATION_STYLE_ASSIGNMENT((#189));
#85=ADVANCED_FACE('240[2]',(#190,#191),#192,.T.);
#86=PRESENTATION_STYLE_ASSIGNMENT((#193));
#87=EDGE_CURVE('240[2]',#194,#194,#195,.T.);
#88=PRESENTATION_STYLE_ASSIGNMENT((#196));
#89=EDGE_CURVE('240[2]',#197,#197,#198,.T.);
#90=PRESENTATION_STYLE_ASSIGNMENT((#199));
#91=PRESENTATION_STYLE_ASSIGNMENT((#200));
#92=MANIFOLD_SOLID_BREP('240[2]',#201);
#93=PRESENTATION_STYLE_ASSIGNMENT((#202));
#94=EDGE_CURVE('240[2]',#203,#203,#204,.T.);
#95=PRESENTATION_STYLE_ASSIGNMENT((#205));
#96=PRESENTATION_STYLE_ASSIGNMENT((#206));
#97=ADVANCED_FACE('240[2]',(#207),#208,.T.);
#98=PRESENTATION_STYLE_ASSIGNMENT((#209));
#99=PRESENTATION_STYLE_ASSIGNMENT((#210));
#100=ADVANCED_FACE('240[2]',(#211,#212),#213,.T.);
#101=PRESENTATION_STYLE_ASSIGNMENT((#214));
#102=PRESENTATION_STYLE_ASSIGNMENT((#215));
#103=ADVANCED_FACE('240[2]',(#216,#217),#218,.T.);
#104=PRESENTATION_STYLE_ASSIGNMENT((#219));
#105=PRESENTATION_STYLE_ASSIGNMENT((#220));
#106=ADVANCED_FACE('240[2]',(#221,#222),#223,.T.);
#107=PRESENTATION_STYLE_ASSIGNMENT((#224));
#108=EDGE_CURVE('240[2]',#225,#225,#226,.T.);
#109=PRESENTATION_STYLE_ASSIGNMENT((#227));
#110=EDGE_CURVE('240[2]',#228,#228,#229,.T.);
#111=PRESENTATION_STYLE_ASSIGNMENT((#230));
#112=PRESENTATION_STYLE_ASSIGNMENT((#231));
#113=ADVANCED_FACE('240[2]',(#232,#233),#234,.T.);
#114=PRESENTATION_STYLE_ASSIGNMENT((#235));
#115=PRESENTATION_STYLE_ASSIGNMENT((#236));
#116=ADVANCED_FACE('240[2]',(#237,#238),#239,.T.);
#117=PRESENTATION_STYLE_ASSIGNMENT((#240));
#118=PRESENTATION_STYLE_ASSIGNMENT((#241));
#119=ADVANCED_FACE('240[2]',(#242,#243),#244,.T.);
#120=PRESENTATION_STYLE_ASSIGNMENT((#245));
#121=EDGE_CURVE('240[2]',#246,#246,#247,.T.);
#122=PRODUCT('240[2]','240[2]','PART-240[2]-DESC',(#248));
#123=PRODUCT_DEFINITION('NONE','NONE',#249,#2);
#124=AXIS2_PLACEMENT_3D('',#250,#251,#252);
#127=LENGTH_MEASURE_WITH_UNIT(LENGTH_MEASURE(1.0),#253);
#130=DIMENSIONAL_EXPONENTS(1.0,0.0,0.0,0.0,0.0,0.0,0.0);
#132=DIMENSIONAL_EXPONENTS(0.0,0.0,0.0,0.0,0.0,0.0,0.0);
#138=SURFACE_STYLE_USAGE(.BOTH.,#254);
#139=CURVE_STYLE('',#255,POSITIVE_LENGTH_MEASURE(1000.0),#256);
#140=FACE_OUTER_BOUND('',#257,.T.);
#141=PLANE('',#258);
#142=SURFACE_STYLE_USAGE(.BOTH.,#259);
#143=CURVE_STYLE('',#260,POSITIVE_LENGTH_MEASURE(1000.0),#261);
#144=FACE_OUTER_BOUND('',#262,.T.);
#145=FACE_BOUND('',#263,.T.);
#146=PLANE('',#264);
#147=CURVE_STYLE('',#265,POSITIVE_LENGTH_MEASURE(1000.0),#266);
#148=VERTEX_POINT('',#267);
#149=CIRCLE('',#268,9.99999999999327);
#150=SURFACE_STYLE_USAGE(.BOTH.,#269);
#151=CURVE_STYLE('',#270,POSITIVE_LENGTH_MEASURE(1000.0),#271);
#152=FACE_BOUND('',#272,.T.);
#153=FACE_BOUND('',#273,.T.);
#154=CYLINDRICAL_SURFACE('',#274,10.0);
#155=SURFACE_STYLE_USAGE(.BOTH.,#275);
#156=CURVE_STYLE('',#276,POSITIVE_LENGTH_MEASURE(1000.0),#277);
#157=FACE_BOUND('',#278,.T.);
#158=FACE_BOUND('',#279,.T.);
#159=CONICAL_SURFACE('',#280,13.2500000000018,0.349065850398903);
#160=CURVE_STYLE('',#281,POSITIVE_LENGTH_MEASURE(1000.0),#282);
#161=VERTEX_POINT('',#283);
#162=CIRCLE('',#284,13.5000000000031);
#163=CURVE_STYLE('',#285,POSITIVE_LENGTH_MEASURE(1000.0),#286);
#164=VERTEX_POINT('',#287);
#165=CIRCLE('',#288,13.0000000000004);
#166=SURFACE_STYLE_USAGE(.BOTH.,#289);
#167=CURVE_STYLE('',#290,POSITIVE_LENGTH_MEASURE(1000.0),#291);
#168=FACE_BOUND('',#292,.T.);
#169=FACE_BOUND('',#293,.T.);
#170=CYLINDRICAL_SURFACE('',#294,8.20000000000073);
#171=SURFACE_STYLE_USAGE(.BOTH.,#295);
#172=CURVE_STYLE('',#296,POSITIVE_LENGTH_MEASURE(1000.0),#297);
#173=FACE_BOUND('',#298,.T.);
#174=FACE_BOUND('',#299,.T.);
#175=CONICAL_SURFACE('',#300,11.7499999999995,1.3089969389957);
#176=CURVE_STYLE('',#301,POSITIVE_LENGTH_MEASURE(1000.0),#302);
#177=VERTEX_POINT('',#303);
#178=CIRCLE('',#304,13.4999999999991);
#179=CURVE_STYLE('',#305,POSITIVE_LENGTH_MEASURE(1000.0),#306);
#180=VERTEX_POINT('',#307);
#181=CIRCLE('',#308,8.20000000000073);
#182=CURVE_STYLE('',#309,POSITIVE_LENGTH_MEASURE(1000.0),#310);
#183=VERTEX_POINT('',#311);
#184=CIRCLE('',#312,10.1499999999996);
#185=CURVE_STYLE('',#313,POSITIVE_LENGTH_MEASURE(1000.0),#314);
#186=VERTEX_POINT('',#315);
#187=CIRCLE('',#316,10.0);
#188=SURFACE_STYLE_USAGE(.BOTH.,#317);
#189=CURVE_STYLE('',#318,POSITIVE_LENGTH_MEASURE(1000.0),#319);
#190=FACE_BOUND('',#320,.T.);
#191=FACE_BOUND('',#321,.T.);
#192=CONICAL_SURFACE('',#322,10.0749999999998,0.124354994545604);
#193=CURVE_STYLE('',#323,POSITIVE_LENGTH_MEASURE(1000.0),#324);
#194=VERTEX_POINT('',#325);
#195=CIRCLE('',#326,10.1499999999996);
#196=CURVE_STYLE('',#327,POSITIVE_LENGTH_MEASURE(1000.0),#328);
#197=VERTEX_POINT('',#329);
#198=CIRCLE('',#330,10.0000000000012);
#199=SURFACE_STYLE_USAGE(.BOTH.,#331);
#200=CURVE_STYLE('',#332,POSITIVE_LENGTH_MEASURE(1000.0),#333);
#201=CLOSED_SHELL('',(#119,#64,#103,#74,#116,#113,#71,#56,#100,#85,#61,#97,#53,#106));
#202=CURVE_STYLE('',#334,POSITIVE_LENGTH_MEASURE(1000.0),#335);
#203=VERTEX_POINT('',#336);
#204=CIRCLE('',#337,10.0);
#205=SURFACE_STYLE_USAGE(.BOTH.,#338);
#206=CURVE_STYLE('',#339,POSITIVE_LENGTH_MEASURE(1000.0),#340);
#207=FACE_OUTER_BOUND('',#341,.T.);
#208=PLANE('',#342);
#209=SURFACE_STYLE_USAGE(.BOTH.,#343);
#210=CURVE_STYLE('',#344,POSITIVE_LENGTH_MEASURE(1000.0),#345);
#211=FACE_BOUND('',#346,.T.);
#212=FACE_BOUND('',#347,.T.);
#213=CYLINDRICAL_SURFACE('',#348,10.1499999999996);
#214=SURFACE_STYLE_USAGE(.BOTH.,#349);
#215=CURVE_STYLE('',#350,POSITIVE_LENGTH_MEASURE(1000.0),#351);
#216=FACE_BOUND('',#352,.T.);
#217=FACE_BOUND('',#353,.T.);
#218=CYLINDRICAL_SURFACE('',#354,13.5000000000011);
#219=SURFACE_STYLE_USAGE(.BOTH.,#355);
#220=CURVE_STYLE('',#356,POSITIVE_LENGTH_MEASURE(1000.0),#357);
#221=FACE_BOUND('',#358,.T.);
#222=FACE_BOUND('',#359,.T.);
#223=CYLINDRICAL_SURFACE('',#360,9.99999999999724);
#224=CURVE_STYLE('',#361,POSITIVE_LENGTH_MEASURE(1000.0),#362);
#225=VERTEX_POINT('',#363);
#226=CIRCLE('',#364,10.0);
#227=CURVE_STYLE('',#365,POSITIVE_LENGTH_MEASURE(1000.0),#366);
#228=VERTEX_POINT('',#367);
#229=CIRCLE('',#368,10.0);
#230=SURFACE_STYLE_USAGE(.BOTH.,#369);
#231=CURVE_STYLE('',#370,POSITIVE_LENGTH_MEASURE(1000.0),#371);
#232=FACE_OUTER_BOUND('',#372,.T.);
#233=FACE_BOUND('',#373,.T.);
#234=PLANE('',#374);
#235=SURFACE_STYLE_USAGE(.BOTH.,#375);
#236=CURVE_STYLE('',#376,POSITIVE_LENGTH_MEASURE(1000.0),#377);
#237=FACE_BOUND('',#378,.T.);
#238=FACE_BOUND('',#379,.T.);
#239=CYLINDRICAL_SURFACE('',#380,10.0);
#240=SURFACE_STYLE_USAGE(.BOTH.,#381);
#241=CURVE_STYLE('',#382,POSITIVE_LENGTH_MEASURE(1000.0),#383);
#242=FACE_OUTER_BOUND('',#384,.T.);
#243=FACE_BOUND('',#385,.T.);
#244=PLANE('',#386);
#245=CURVE_STYLE('',#387,POSITIVE_LENGTH_MEASURE(1000.0),#388);
#246=VERTEX_POINT('',#389);
#247=CIRCLE('',#390,8.20000000000073);
#248=PRODUCT_CONTEXT('',#38,'mechanical');
#249=PRODUCT_DEFINITION_FORMATION_WITH_SPECIFIED_SOURCE(' ','NONE',#122,.NOT_KNOWN.);
#250=CARTESIAN_POINT('',(0.0,0.0,0.0));
#251=DIRECTION('',(0.0,0.0,1.0));
#252=DIRECTION('',(1.0,0.0,0.0));
#253= (NAMED_UNIT(#130)LENGTH_UNIT()SI_UNIT(.MILLI.,.METRE.));
#254=SURFACE_SIDE_STYLE('',(#392));
#255=DRAUGHTING_PRE_DEFINED_CURVE_FONT('continuous');
#256=COLOUR_RGB('',0.0,1.0,1.0);
#257=EDGE_LOOP('',(#393));
#258=AXIS2_PLACEMENT_3D('',#394,#395,#396);
#259=SURFACE_SIDE_STYLE('',(#397));
#260=DRAUGHTING_PRE_DEFINED_CURVE_FONT('continuous');
#261=COLOUR_RGB('',0.0,1.0,1.0);
#262=EDGE_LOOP('',(#398));
#263=EDGE_LOOP('',(#399));
#264=AXIS2_PLACEMENT_3D('',#400,#401,#402);
#265=DRAUGHTING_PRE_DEFINED_CURVE_FONT('continuous');
#266=COLOUR_RGB('',0.0,1.0,1.0);
#267=CARTESIAN_POINT('',(-6.76617356528905E-015,9.99999999999326,106.499999999997));
#268=AXIS2_PLACEMENT_3D('',#403,#404,#405);
#269=SURFACE_SIDE_STYLE('',(#406));
#270=DRAUGHTING_PRE_DEFINED_CURVE_FONT('continuous');
#271=COLOUR_RGB('',0.0,1.0,1.0);
#272=EDGE_LOOP('',(#407));
#273=EDGE_LOOP('',(#408));
#274=AXIS2_PLACEMENT_3D('',#409,#410,#411);
#275=SURFACE_SIDE_STYLE('',(#412));
#276=DRAUGHTING_PRE_DEFINED_CURVE_FONT('continuous');
#277=COLOUR_RGB('',0.0,1.0,1.0);
#278=EDGE_LOOP('',(#413));
#279=EDGE_LOOP('',(#414));
#280=AXIS2_PLACEMENT_3D('',#415,#416,#417);
#281=DRAUGHTING_PRE_DEFINED_CURVE_FONT('continuous');
#282=COLOUR_RGB('',0.0,1.0,1.0);
#283=CARTESIAN_POINT('',(-6.43712696977244E-015,13.500000000003,105.126261290263));
#284=AXIS2_PLACEMENT_3D('',#418,#419,#420);
#285=DRAUGHTING_PRE_DEFINED_CURVE_FONT('continuous');
#286=COLOUR_RGB('',0.0,1.0,1.0);
#287=CARTESIAN_POINT('',(-6.52124420545948E-015,13.0000000000004,106.499999999997));
#288=AXIS2_PLACEMENT_3D('',#421,#422,#423);
#289=SURFACE_SIDE_STYLE('',(#424));
#290=DRAUGHTING_PRE_DEFINED_CURVE_FONT('continuous');
#291=COLOUR_RGB('',0.0,1.0,1.0);
#292=EDGE_LOOP('',(#425));
#293=EDGE_LOOP('',(#426));
#294=AXIS2_PLACEMENT_3D('',#427,#428,#429);
#295=SURFACE_SIDE_STYLE('',(#430));
#296=DRAUGHTING_PRE_DEFINED_CURVE_FONT('continuous');
#297=COLOUR_RGB('',0.0,1.0,1.0);
#298=EDGE_LOOP('',(#431));
#299=EDGE_LOOP('',(#432));
#300=AXIS2_PLACEMENT_3D('',#433,#434,#435);
#301=DRAUGHTING_PRE_DEFINED_CURVE_FONT('continuous');
#302=COLOUR_RGB('',0.0,1.0,1.0);
#303=CARTESIAN_POINT('',(-6.12323399573616E-015,13.499999999999,99.9999999999902));
#304=AXIS2_PLACEMENT_3D('',#436,#437,#438);
#305=DRAUGHTING_PRE_DEFINED_CURVE_FONT('continuous');
#306=COLOUR_RGB('',0.0,1.0,1.0);
#307=CARTESIAN_POINT('',(-1.28587913910472E-015,8.20000000000072,21.0));
#308=AXIS2_PLACEMENT_3D('',#439,#440,#441);
#309=DRAUGHTING_PRE_DEFINED_CURVE_FONT('continuous');
#310=COLOUR_RGB('',0.0,1.0,1.0);
#311=CARTESIAN_POINT('',(-1.28587913910472E-015,10.1499999999996,21.0));
#312=AXIS2_PLACEMENT_3D('',#442,#443,#444);
#313=DRAUGHTING_PRE_DEFINED_CURVE_FONT('continuous');
#314=COLOUR_RGB('',0.0,1.0,1.0);
#315=CARTESIAN_POINT('',(-6.06580894958831E-015,9.99999999999998,99.0621778264813));
#316=AXIS2_PLACEMENT_3D('',#445,#446,#447);
#317=SURFACE_SIDE_STYLE('',(#448));
#318=DRAUGHTING_PRE_DEFINED_CURVE_FONT('continuous');
#319=COLOUR_RGB('',0.0,1.0,1.0);
#320=EDGE_LOOP('',(#449));
#321=EDGE_LOOP('',(#450));
#322=AXIS2_PLACEMENT_3D('',#451,#452,#453);
#323=DRAUGHTING_PRE_DEFINED_CURVE_FONT('continuous');
#324=COLOUR_RGB('',0.0,1.0,1.0);
#325=CARTESIAN_POINT('',(-1.16341445919035E-015,10.1499999999996,19.0000000000059));
#326=AXIS2_PLACEMENT_3D('',#454,#455,#456);
#327=DRAUGHTING_PRE_DEFINED_CURVE_FONT('continuous');
#328=COLOUR_RGB('',0.0,1.0,1.0);
#329=CARTESIAN_POINT('',(-9.24608333356244E-015,10.0000000000012,150.999999999999));
#330=AXIS2_PLACEMENT_3D('',#457,#458,#459);
#331=SURFACE_SIDE_STYLE('',(#460));
#332=DRAUGHTING_PRE_DEFINED_CURVE_FONT('continuous');
#333=COLOUR_RGB('',0.0,1.0,1.0);
#334=DRAUGHTING_PRE_DEFINED_CURVE_FONT('continuous');
#335=COLOUR_RGB('',0.0,1.0,1.0);
#336=CARTESIAN_POINT('',(1.23440012438413E-028,10.0,-2.01671672275954E-012));
#337=AXIS2_PLACEMENT_3D('',#461,#462,#463);
#338=SURFACE_SIDE_STYLE('',(#464));
#339=DRAUGHTING_PRE_DEFINED_CURVE_FONT('continuous');
#340=COLOUR_RGB('',0.0,1.0,1.0);
#341=EDGE_LOOP('',(#465));
#342=AXIS2_PLACEMENT_3D('',#466,#467,#468);
#343=SURFACE_SIDE_STYLE('',(#469));
#344=DRAUGHTING_PRE_DEFINED_CURVE_FONT('continuous');
#345=COLOUR_RGB('',0.0,1.0,1.0);
#346=EDGE_LOOP('',(#470));
#347=EDGE_LOOP('',(#471));
#348=AXIS2_PLACEMENT_3D('',#472,#473,#474);
#349=SURFACE_SIDE_STYLE('',(#475));
#350=DRAUGHTING_PRE_DEFINED_CURVE_FONT('continuous');
#351=COLOUR_RGB('',0.0,1.0,1.0);
#352=EDGE_LOOP('',(#476));
#353=EDGE_LOOP('',(#477));
#354=AXIS2_PLACEMENT_3D('',#478,#479,#480);
#355=SURFACE_SIDE_STYLE('',(#481));
#356=DRAUGHTING_PRE_DEFINED_CURVE_FONT('continuous');
#357=COLOUR_RGB('',0.0,1.0,1.0);
#358=EDGE_LOOP('',(#482));
#359=EDGE_LOOP('',(#483));
#360=AXIS2_PLACEMENT_3D('',#484,#485,#486);
#361=DRAUGHTING_PRE_DEFINED_CURVE_FONT('continuous');
#362=COLOUR_RGB('',0.0,1.0,1.0);
#363=CARTESIAN_POINT('',(-1.3471114790616E-015,9.99999999999999,21.9999999999921));
#364=AXIS2_PLACEMENT_3D('',#487,#488,#489);
#365=DRAUGHTING_PRE_DEFINED_CURVE_FONT('continuous');
#366=COLOUR_RGB('',0.0,1.0,1.0);
#367=CARTESIAN_POINT('',(-1.08993565124099E-015,9.99999999999999,17.7999999999975));
#368=AXIS2_PLACEMENT_3D('',#490,#491,#492);
#369=SURFACE_SIDE_STYLE('',(#493));
#370=DRAUGHTING_PRE_DEFINED_CURVE_FONT('continuous');
#371=COLOUR_RGB('',0.0,1.0,1.0);
#372=EDGE_LOOP('',(#494));
#373=EDGE_LOOP('',(#495));
#374=AXIS2_PLACEMENT_3D('',#496,#497,#498);
#375=SURFACE_SIDE_STYLE('',(#499));
#376=DRAUGHTING_PRE_DEFINED_CURVE_FONT('continuous');
#377=COLOUR_RGB('',0.0,1.0,1.0);
#378=EDGE_LOOP('',(#500));
#379=EDGE_LOOP('',(#501));
#380=AXIS2_PLACEMENT_3D('',#502,#503,#504);
#381=SURFACE_SIDE_STYLE('',(#505));
#382=DRAUGHTING_PRE_DEFINED_CURVE_FONT('continuous');
#383=COLOUR_RGB('',0.0,1.0,1.0);
#384=EDGE_LOOP('',(#506));
#385=EDGE_LOOP('',(#507));
#386=AXIS2_PLACEMENT_3D('',#508,#509,#510);
#387=DRAUGHTING_PRE_DEFINED_CURVE_FONT('continuous');
#388=COLOUR_RGB('',0.0,1.0,1.0);
#389=CARTESIAN_POINT('',(-1.34711147906255E-015,8.20000000000072,22.0000000000075));
#390=AXIS2_PLACEMENT_3D('',#511,#512,#513);
#392=SURFACE_STYLE_FILL_AREA(#514);
#393=ORIENTED_EDGE('',*,*,#89,.F.);
#394=CARTESIAN_POINT('',(-9.24608333356244E-015,5.00000000000059,150.999999999999));
#395=DIRECTION('',(7.49879891330927E-033,-1.22464679914735E-016,1.0));
#396=DIRECTION('',(1.0,6.12323399573677E-017,0.0));
#397=SURFACE_STYLE_FILL_AREA(#515);
#398=ORIENTED_EDGE('',*,*,#80,.F.);
#399=ORIENTED_EDGE('',*,*,#78,.T.);
#400=CARTESIAN_POINT('',(-1.28587913910472E-015,9.17500000000018,21.0));
#401=DIRECTION('',(7.49879891330927E-033,-1.22464679914735E-016,1.0));
#402=DIRECTION('',(1.0,6.12323399573677E-017,0.0));
#403=CARTESIAN_POINT('',(-6.76617356528905E-015,-1.35323471305781E-014,106.499999999997));
#404=DIRECTION('',(6.12323399573676E-017,1.22464679914735E-016,-1.0));
#405=DIRECTION('',(-1.23259516440783E-032,1.0,1.22464679914735E-016));
#406=SURFACE_STYLE_FILL_AREA(#516);
#407=ORIENTED_EDGE('',*,*,#94,.F.);
#408=ORIENTED_EDGE('',*,*,#110,.T.);
#409=CARTESIAN_POINT('',(-5.44967825620435E-016,-1.08993565124087E-015,8.89999999999776));
#410=DIRECTION('',(6.12323399573677E-017,1.22464679914735E-016,-1.0));
#411=DIRECTION('',(-1.23259516440783E-032,1.0,1.22464679914735E-016));
#412=SURFACE_STYLE_FILL_AREA(#517);
#413=ORIENTED_EDGE('',*,*,#66,.F.);
#414=ORIENTED_EDGE('',*,*,#68,.T.);
#415=CARTESIAN_POINT('',(-6.47918558761596E-015,-1.29583711752319E-014,105.81313064513));
#416=DIRECTION('',(6.12323399573677E-017,1.22464679914735E-016,-1.0));
#417=DIRECTION('',(-1.23259516440783E-032,1.0,1.22464679914735E-016));
#418=CARTESIAN_POINT('',(-6.43712696977244E-015,-1.28742539395449E-014,105.126261290263));
#419=DIRECTION('',(6.12323399573677E-017,1.22464679914735E-016,-1.0));
#420=DIRECTION('',(-1.23259516440783E-032,1.0,1.22464679914735E-016));
#421=CARTESIAN_POINT('',(-6.52124420545948E-015,-1.3042488410919E-014,106.499999999997));
#422=DIRECTION('',(6.12323399573677E-017,1.22464679914735E-016,-1.0));
#423=DIRECTION('',(-1.23259516440783E-032,1.0,1.22464679914735E-016));
#424=SURFACE_STYLE_FILL_AREA(#518);
#425=ORIENTED_EDGE('',*,*,#78,.F.);
#426=ORIENTED_EDGE('',*,*,#121,.T.);
#427=CARTESIAN_POINT('',(-1.31649530908364E-015,-2.63299061816727E-015,21.5000000000038));
#428=DIRECTION('',(6.12323399573676E-017,1.22464679914735E-016,-1.0));
#429=DIRECTION('',(-1.23259516440783E-032,1.0,1.22464679914735E-016));
#430=SURFACE_STYLE_FILL_AREA(#519);
#431=ORIENTED_EDGE('',*,*,#82,.F.);
#432=ORIENTED_EDGE('',*,*,#76,.T.);
#433=CARTESIAN_POINT('',(-6.09452147266224E-015,-1.21890429453245E-014,99.5310889132357));
#434=DIRECTION('',(-6.12323399573677E-017,-1.22464679914735E-016,1.0));
#435=DIRECTION('',(-1.23259516440783E-032,1.0,1.22464679914735E-016));
#436=CARTESIAN_POINT('',(-6.12323399573616E-015,-1.22464679914723E-014,99.9999999999902));
#437=DIRECTION('',(6.12323399573677E-017,1.22464679914735E-016,-1.0));
#438=DIRECTION('',(-1.23259516440783E-032,1.0,1.22464679914735E-016));
#439=CARTESIAN_POINT('',(-1.28587913910472E-015,-2.57175827820944E-015,21.0));
#440=DIRECTION('',(6.12323399573676E-017,1.22464679914735E-016,-1.0));
#441=DIRECTION('',(-1.23259516440783E-032,1.0,1.22464679914735E-016));
#442=CARTESIAN_POINT('',(-1.28587913910472E-015,-2.57175827820944E-015,21.0));
#443=DIRECTION('',(6.12323399573677E-017,1.22464679914735E-016,-1.0));
#444=DIRECTION('',(-1.23259516440783E-032,1.0,1.22464679914735E-016));
#445=CARTESIAN_POINT('',(-6.06580894958831E-015,-1.21316178991766E-014,99.0621778264813));
#446=DIRECTION('',(6.12323399573677E-017,1.22464679914735E-016,-1.0));
#447=DIRECTION('',(-1.23259516440783E-032,1.0,1.22464679914735E-016));
#448=SURFACE_STYLE_FILL_AREA(#520);
#449=ORIENTED_EDGE('',*,*,#110,.F.);
#450=ORIENTED_EDGE('',*,*,#87,.T.);
#451=CARTESIAN_POINT('',(-1.12667505521567E-015,-2.25335011043134E-015,18.4000000000017));
#452=DIRECTION('',(-6.12323399573677E-017,-1.22464679914735E-016,1.0));
#453=DIRECTION('',(-1.23259516440783E-032,1.0,1.22464679914735E-016));
#454=CARTESIAN_POINT('',(-1.16341445919035E-015,-2.32682891838069E-015,19.0000000000059));
#455=DIRECTION('',(6.12323399573677E-017,1.22464679914735E-016,-1.0));
#456=DIRECTION('',(-1.23259516440783E-032,1.0,1.22464679914735E-016));
#457=CARTESIAN_POINT('',(-9.24608333356244E-015,-1.84921666671249E-014,150.999999999999));
#458=DIRECTION('',(6.12323399573677E-017,1.22464679914735E-016,-1.0));
#459=DIRECTION('',(-1.23259516440783E-032,1.0,1.22464679914735E-016));
#460=SURFACE_STYLE_FILL_AREA(#521);
#461=CARTESIAN_POINT('',(1.23563271954853E-028,2.47126543909707E-028,-2.01794136955868E-012));
#462=DIRECTION('',(6.12323399573677E-017,1.22464679914735E-016,-1.0));
#463=DIRECTION('',(-1.23259516440783E-032,1.0,1.22464679914735E-016));
#464=SURFACE_STYLE_FILL_AREA(#522);
#465=ORIENTED_EDGE('',*,*,#94,.T.);
#466=CARTESIAN_POINT('',(1.23501642196633E-028,5.0,-2.01732904615911E-012));
#467=DIRECTION('',(6.12323399573677E-017,1.22464679914735E-016,-1.0));
#468=DIRECTION('',(-1.0,0.0,-6.12323399573677E-017));
#469=SURFACE_STYLE_FILL_AREA(#523);
#470=ORIENTED_EDGE('',*,*,#87,.F.);
#471=ORIENTED_EDGE('',*,*,#80,.T.);
#472=CARTESIAN_POINT('',(-1.22464679914753E-015,-2.44929359829507E-015,20.000000000003));
#473=DIRECTION('',(6.12323399573677E-017,1.22464679914735E-016,-1.0));
#474=DIRECTION('',(-1.23259516440783E-032,1.0,1.22464679914735E-016));
#475=SURFACE_STYLE_FILL_AREA(#524);
#476=ORIENTED_EDGE('',*,*,#76,.F.);
#477=ORIENTED_EDGE('',*,*,#66,.T.);
#478=CARTESIAN_POINT('',(-6.2801804827543E-015,-1.25603609655086E-014,102.563130645127));
#479=DIRECTION('',(6.12323399573677E-017,1.22464679914735E-016,-1.0));
#480=DIRECTION('',(-1.23259516440783E-032,1.0,1.22464679914735E-016));
#481=SURFACE_STYLE_FILL_AREA(#525);
#482=ORIENTED_EDGE('',*,*,#58,.F.);
#483=ORIENTED_EDGE('',*,*,#89,.T.);
#484=CARTESIAN_POINT('',(-8.00612844942574E-015,-1.60122568988515E-014,130.749999999999));
#485=DIRECTION('',(6.12323399573677E-017,1.22464679914735E-016,-1.0));
#486=DIRECTION('',(-1.23259516440783E-032,1.0,1.22464679914735E-016));
#487=CARTESIAN_POINT('',(-1.3471114790616E-015,-2.69422295812321E-015,21.9999999999921));
#488=DIRECTION('',(6.12323399573677E-017,1.22464679914735E-016,-1.0));
#489=DIRECTION('',(-1.23259516440783E-032,1.0,1.22464679914735E-016));
#490=CARTESIAN_POINT('',(-1.08993565124099E-015,-2.17987130248199E-015,17.7999999999975));
#491=DIRECTION('',(6.12323399573677E-017,1.22464679914735E-016,-1.0));
#492=DIRECTION('',(-1.23259516440783E-032,1.0,1.22464679914735E-016));
#493=SURFACE_STYLE_FILL_AREA(#526);
#494=ORIENTED_EDGE('',*,*,#108,.T.);
#495=ORIENTED_EDGE('',*,*,#121,.F.);
#496=CARTESIAN_POINT('',(-1.34711147906208E-015,9.10000000000036,21.9999999999998));
#497=DIRECTION('',(6.12323399573677E-017,-8.58954971873455E-012,-1.0));
#498=DIRECTION('',(0.0,-1.0,8.58954971873455E-012));
#499=SURFACE_STYLE_FILL_AREA(#527);
#500=ORIENTED_EDGE('',*,*,#108,.F.);
#501=ORIENTED_EDGE('',*,*,#82,.T.);
#502=CARTESIAN_POINT('',(-3.70646021432496E-015,-7.41292042864991E-015,60.5310889132367));
#503=DIRECTION('',(6.12323399573677E-017,1.22464679914735E-016,-1.0));
#504=DIRECTION('',(-1.23259516440783E-032,1.0,1.22464679914735E-016));
#505=SURFACE_STYLE_FILL_AREA(#528);
#506=ORIENTED_EDGE('',*,*,#68,.F.);
#507=ORIENTED_EDGE('',*,*,#58,.T.);
#508=CARTESIAN_POINT('',(-9.84184850476247,1.77144517532162,106.499999999997));
#509=DIRECTION('',(0.0,0.0,1.0));
#510=DIRECTION('',(-1.0,0.0,0.0));
#511=CARTESIAN_POINT('',(-1.34711147906255E-015,-2.6942229581251E-015,22.0000000000075));
#512=DIRECTION('',(6.12323399573676E-017,1.22464679914735E-016,-1.0));
#513=DIRECTION('',(-1.23259516440783E-032,1.0,1.22464679914735E-016));
#514=FILL_AREA_STYLE('',(#529));
#515=FILL_AREA_STYLE('',(#530));
#516=FILL_AREA_STYLE('',(#531));
#517=FILL_AREA_STYLE('',(#532));
#518=FILL_AREA_STYLE('',(#533));
#519=FILL_AREA_STYLE('',(#534));
#520=FILL_AREA_STYLE('',(#535));
#521=FILL_AREA_STYLE('',(#536));
#522=FILL_AREA_STYLE('',(#537));
#523=FILL_AREA_STYLE('',(#538));
#524=FILL_AREA_STYLE('',(#539));
#525=FILL_AREA_STYLE('',(#540));
#526=FILL_AREA_STYLE('',(#541));
#527=FILL_AREA_STYLE('',(#542));
#528=FILL_AREA_STYLE('',(#543));
#529=FILL_AREA_STYLE_COLOUR('',#544);
#530=FILL_AREA_STYLE_COLOUR('',#545);
#531=FILL_AREA_STYLE_COLOUR('',#546);
#532=FILL_AREA_STYLE_COLOUR('',#547);
#533=FILL_AREA_STYLE_COLOUR('',#548);
#534=FILL_AREA_STYLE_COLOUR('',#549);
#535=FILL_AREA_STYLE_COLOUR('',#550);
#536=FILL_AREA_STYLE_COLOUR('',#551);
#537=FILL_AREA_STYLE_COLOUR('',#552);
#538=FILL_AREA_STYLE_COLOUR('',#553);
#539=FILL_AREA_STYLE_COLOUR('',#554);
#540=FILL_AREA_STYLE_COLOUR('',#555);
#541=FILL_AREA_STYLE_COLOUR('',#556);
#542=FILL_AREA_STYLE_COLOUR('',#557);
#543=FILL_AREA_STYLE_COLOUR('',#558);
#544=COLOUR_RGB('',0.0,1.0,1.0);
#545=COLOUR_RGB('',0.0,1.0,1.0);
#546=COLOUR_RGB('',0.0,1.0,1.0);
#547=COLOUR_RGB('',0.0,1.0,1.0);
#548=COLOUR_RGB('',0.0,1.0,1.0);
#549=COLOUR_RGB('',0.0,1.0,1.0);
#550=COLOUR_RGB('',0.0,1.0,1.0);
#551=COLOUR_RGB('',0.0,1.0,1.0);
#552=COLOUR_RGB('',0.0,1.0,1.0);
#553=COLOUR_RGB('',0.0,1.0,1.0);
#554=COLOUR_RGB('',0.0,1.0,1.0);
#555=COLOUR_RGB('',0.0,1.0,1.0);
#556=COLOUR_RGB('',0.0,1.0,1.0);
#557=COLOUR_RGB('',0.0,1.0,1.0);
#558=COLOUR_RGB('',0.0,1.0,1.0);
ENDSEC;
END-ISO-10303-21;
