ISO-10303-21;
HEADER;
FILE_DESCRIPTION((''),'1');
FILE_NAME('T:/02_3D_Field-HP\X2\FF71FF6FFF8CFF9F5916\X0\2013/02_Step_Field-HP\X2\FF71FF6FFF8CFF9F5916\X0\2013/MGT12-d-100_060049-090071.stp','2017-02-08T07:51:02',(''),(''),'Spatial Interop R21 SP3','Kubotek KeyCreator 2011 V10.0.2 (22737)',' ');
FILE_SCHEMA(('automotive_design'));
ENDSEC;
DATA;
#1=MECHANICAL_DESIGN_GEOMETRIC_PRESENTATION_REPRESENTATION(' ',(#10,#11,#12,#13,#14,#15,#16,#17,#18,#19,#20,#21,#22,#23,#24,#25,#26,#27,#28,#29,#30,#31,#32,#33,#34,#35,#36,#37),#6);
#2=PRODUCT_DEFINITION_CONTEXT('',#38,'design');
#3=APPLICATION_PROTOCOL_DEFINITION('INTERNATIONAL STANDARD','automotive_design',1994,#38);
#4=PRODUCT_CATEGORY_RELATIONSHIP('NONE','NONE',#39,#40);
#5=SHAPE_DEFINITION_REPRESENTATION(#41,#42);
#6= (GEOMETRIC_REPRESENTATION_CONTEXT(3)GLOBAL_UNCERTAINTY_ASSIGNED_CONTEXT((#45))GLOBAL_UNIT_ASSIGNED_CONTEXT((#47,#48,#49))REPRESENTATION_CONTEXT('NONE','WORKSPACE'));
#10=STYLED_ITEM('',(#51),#52);
#11=STYLED_ITEM('',(#53,#54),#55);
#12=STYLED_ITEM('',(#56),#57);
#13=STYLED_ITEM('',(#58),#59);
#14=STYLED_ITEM('',(#60,#61),#62);
#15=STYLED_ITEM('',(#63),#64);
#16=STYLED_ITEM('',(#65,#66),#67);
#17=STYLED_ITEM('',(#68),#69);
#18=STYLED_ITEM('',(#70),#71);
#19=STYLED_ITEM('',(#72,#73),#74);
#20=STYLED_ITEM('',(#75,#76),#77);
#21=STYLED_ITEM('',(#78,#79),#80);
#22=STYLED_ITEM('',(#81,#82),#83);
#23=STYLED_ITEM('',(#84,#85),#86);
#24=STYLED_ITEM('',(#87),#88);
#25=STYLED_ITEM('',(#89,#90),#91);
#26=STYLED_ITEM('',(#92),#93);
#27=STYLED_ITEM('',(#94),#95);
#28=STYLED_ITEM('',(#96,#97),#98);
#29=STYLED_ITEM('',(#99,#100),#101);
#30=STYLED_ITEM('',(#102),#103);
#31=STYLED_ITEM('',(#104,#105),#106);
#32=STYLED_ITEM('',(#107),#108);
#33=STYLED_ITEM('',(#109,#110),#111);
#34=STYLED_ITEM('',(#112,#113),#114);
#35=STYLED_ITEM('',(#115,#116),#117);
#36=STYLED_ITEM('',(#118),#119);
#37=STYLED_ITEM('',(#120),#121);
#38=APPLICATION_CONTEXT(' ');
#39=PRODUCT_CATEGORY('part','NONE');
#40=PRODUCT_RELATED_PRODUCT_CATEGORY('detail',' ',(#122));
#41=PRODUCT_DEFINITION_SHAPE('NONE','NONE',#123);
#42=ADVANCED_BREP_SHAPE_REPRESENTATION('240[2]',(#67,#124),#6);
#45=UNCERTAINTY_MEASURE_WITH_UNIT(LENGTH_MEASURE(1.0E-006),#47,'','');
#47= (CONVERSION_BASED_UNIT('MILLIMETRE',#127)LENGTH_UNIT()NAMED_UNIT(#130));
#48= (NAMED_UNIT(#132)PLANE_ANGLE_UNIT()SI_UNIT($,.RADIAN.));
#49= (NAMED_UNIT(#132)SOLID_ANGLE_UNIT()SI_UNIT($,.STERADIAN.));
#51=PRESENTATION_STYLE_ASSIGNMENT((#138));
#52=EDGE_CURVE('240[2]',#139,#139,#140,.T.);
#53=PRESENTATION_STYLE_ASSIGNMENT((#141));
#54=PRESENTATION_STYLE_ASSIGNMENT((#142));
#55=ADVANCED_FACE('240[2]',(#143,#144),#145,.T.);
#56=PRESENTATION_STYLE_ASSIGNMENT((#146));
#57=EDGE_CURVE('240[2]',#147,#147,#148,.T.);
#58=PRESENTATION_STYLE_ASSIGNMENT((#149));
#59=EDGE_CURVE('240[2]',#150,#150,#151,.T.);
#60=PRESENTATION_STYLE_ASSIGNMENT((#152));
#61=PRESENTATION_STYLE_ASSIGNMENT((#153));
#62=ADVANCED_FACE('240[2]',(#154,#155),#156,.T.);
#63=PRESENTATION_STYLE_ASSIGNMENT((#157));
#64=EDGE_CURVE('240[2]',#158,#158,#159,.T.);
#65=PRESENTATION_STYLE_ASSIGNMENT((#160));
#66=PRESENTATION_STYLE_ASSIGNMENT((#161));
#67=MANIFOLD_SOLID_BREP('240[2]',#162);
#68=PRESENTATION_STYLE_ASSIGNMENT((#163));
#69=EDGE_CURVE('240[2]',#164,#164,#165,.T.);
#70=PRESENTATION_STYLE_ASSIGNMENT((#166));
#71=EDGE_CURVE('240[2]',#167,#167,#168,.T.);
#72=PRESENTATION_STYLE_ASSIGNMENT((#169));
#73=PRESENTATION_STYLE_ASSIGNMENT((#170));
#74=ADVANCED_FACE('240[2]',(#171,#172),#173,.T.);
#75=PRESENTATION_STYLE_ASSIGNMENT((#174));
#76=PRESENTATION_STYLE_ASSIGNMENT((#175));
#77=ADVANCED_FACE('240[2]',(#176),#177,.T.);
#78=PRESENTATION_STYLE_ASSIGNMENT((#178));
#79=PRESENTATION_STYLE_ASSIGNMENT((#179));
#80=ADVANCED_FACE('240[2]',(#180,#181),#182,.T.);
#81=PRESENTATION_STYLE_ASSIGNMENT((#183));
#82=PRESENTATION_STYLE_ASSIGNMENT((#184));
#83=ADVANCED_FACE('240[2]',(#185,#186),#187,.T.);
#84=PRESENTATION_STYLE_ASSIGNMENT((#188));
#85=PRESENTATION_STYLE_ASSIGNMENT((#189));
#86=ADVANCED_FACE('240[2]',(#190,#191),#192,.T.);
#87=PRESENTATION_STYLE_ASSIGNMENT((#193));
#88=EDGE_CURVE('240[2]',#194,#194,#195,.T.);
#89=PRESENTATION_STYLE_ASSIGNMENT((#196));
#90=PRESENTATION_STYLE_ASSIGNMENT((#197));
#91=ADVANCED_FACE('240[2]',(#198,#199),#200,.T.);
#92=PRESENTATION_STYLE_ASSIGNMENT((#201));
#93=EDGE_CURVE('240[2]',#202,#202,#203,.T.);
#94=PRESENTATION_STYLE_ASSIGNMENT((#204));
#95=EDGE_CURVE('240[2]',#205,#205,#206,.T.);
#96=PRESENTATION_STYLE_ASSIGNMENT((#207));
#97=PRESENTATION_STYLE_ASSIGNMENT((#208));
#98=ADVANCED_FACE('240[2]',(#209),#210,.T.);
#99=PRESENTATION_STYLE_ASSIGNMENT((#211));
#100=PRESENTATION_STYLE_ASSIGNMENT((#212));
#101=ADVANCED_FACE('240[2]',(#213,#214),#215,.T.);
#102=PRESENTATION_STYLE_ASSIGNMENT((#216));
#103=EDGE_CURVE('240[2]',#217,#217,#218,.T.);
#104=PRESENTATION_STYLE_ASSIGNMENT((#219));
#105=PRESENTATION_STYLE_ASSIGNMENT((#220));
#106=ADVANCED_FACE('240[2]',(#221,#222),#223,.T.);
#107=PRESENTATION_STYLE_ASSIGNMENT((#224));
#108=EDGE_CURVE('240[2]',#225,#225,#226,.T.);
#109=PRESENTATION_STYLE_ASSIGNMENT((#227));
#110=PRESENTATION_STYLE_ASSIGNMENT((#228));
#111=ADVANCED_FACE('240[2]',(#229,#230),#231,.T.);
#112=PRESENTATION_STYLE_ASSIGNMENT((#232));
#113=PRESENTATION_STYLE_ASSIGNMENT((#233));
#114=ADVANCED_FACE('240[2]',(#234,#235),#236,.T.);
#115=PRESENTATION_STYLE_ASSIGNMENT((#237));
#116=PRESENTATION_STYLE_ASSIGNMENT((#238));
#117=ADVANCED_FACE('240[2]',(#239,#240),#241,.T.);
#118=PRESENTATION_STYLE_ASSIGNMENT((#242));
#119=EDGE_CURVE('240[2]',#243,#243,#244,.T.);
#120=PRESENTATION_STYLE_ASSIGNMENT((#245));
#121=EDGE_CURVE('240[2]',#246,#246,#247,.T.);
#122=PRODUCT('240[2]','240[2]','PART-240[2]-DESC',(#248));
#123=PRODUCT_DEFINITION('NONE','NONE',#249,#2);
#124=AXIS2_PLACEMENT_3D('',#250,#251,#252);
#127=LENGTH_MEASURE_WITH_UNIT(LENGTH_MEASURE(1.0),#253);
#130=DIMENSIONAL_EXPONENTS(1.0,0.0,0.0,0.0,0.0,0.0,0.0);
#132=DIMENSIONAL_EXPONENTS(0.0,0.0,0.0,0.0,0.0,0.0,0.0);
#138=CURVE_STYLE('',#254,POSITIVE_LENGTH_MEASURE(1000.0),#255);
#139=VERTEX_POINT('',#256);
#140=CIRCLE('',#257,8.20000000000073);
#141=SURFACE_STYLE_USAGE(.BOTH.,#258);
#142=CURVE_STYLE('',#259,POSITIVE_LENGTH_MEASURE(1000.0),#260);
#143=FACE_BOUND('',#261,.T.);
#144=FACE_BOUND('',#262,.T.);
#145=CYLINDRICAL_SURFACE('',#263,10.1499999999996);
#146=CURVE_STYLE('',#264,POSITIVE_LENGTH_MEASURE(1000.0),#265);
#147=VERTEX_POINT('',#266);
#148=CIRCLE('',#267,9.99999999999327);
#149=CURVE_STYLE('',#268,POSITIVE_LENGTH_MEASURE(1000.0),#269);
#150=VERTEX_POINT('',#270);
#151=CIRCLE('',#271,10.1499999999996);
#152=SURFACE_STYLE_USAGE(.BOTH.,#272);
#153=CURVE_STYLE('',#273,POSITIVE_LENGTH_MEASURE(1000.0),#274);
#154=FACE_BOUND('',#275,.T.);
#155=FACE_BOUND('',#276,.T.);
#156=CONICAL_SURFACE('',#277,10.0749999999998,0.124354994545604);
#157=CURVE_STYLE('',#278,POSITIVE_LENGTH_MEASURE(1000.0),#279);
#158=VERTEX_POINT('',#280);
#159=CIRCLE('',#281,13.0000000000004);
#160=SURFACE_STYLE_USAGE(.BOTH.,#282);
#161=CURVE_STYLE('',#283,POSITIVE_LENGTH_MEASURE(1000.0),#284);
#162=CLOSED_SHELL('',(#101,#83,#91,#74,#80,#111,#114,#117,#55,#62,#86,#77,#98,#106));
#163=CURVE_STYLE('',#285,POSITIVE_LENGTH_MEASURE(1000.0),#286);
#164=VERTEX_POINT('',#287);
#165=CIRCLE('',#288,10.0);
#166=CURVE_STYLE('',#289,POSITIVE_LENGTH_MEASURE(1000.0),#290);
#167=VERTEX_POINT('',#291);
#168=CIRCLE('',#292,13.4999999999991);
#169=SURFACE_STYLE_USAGE(.BOTH.,#293);
#170=CURVE_STYLE('',#294,POSITIVE_LENGTH_MEASURE(1000.0),#295);
#171=FACE_BOUND('',#296,.T.);
#172=FACE_BOUND('',#297,.T.);
#173=CONICAL_SURFACE('',#298,11.7499999999995,1.3089969389957);
#174=SURFACE_STYLE_USAGE(.BOTH.,#299);
#175=CURVE_STYLE('',#300,POSITIVE_LENGTH_MEASURE(1000.0),#301);
#176=FACE_OUTER_BOUND('',#302,.T.);
#177=PLANE('',#303);
#178=SURFACE_STYLE_USAGE(.BOTH.,#304);
#179=CURVE_STYLE('',#305,POSITIVE_LENGTH_MEASURE(1000.0),#306);
#180=FACE_BOUND('',#307,.T.);
#181=FACE_BOUND('',#308,.T.);
#182=CYLINDRICAL_SURFACE('',#309,10.0);
#183=SURFACE_STYLE_USAGE(.BOTH.,#310);
#184=CURVE_STYLE('',#311,POSITIVE_LENGTH_MEASURE(1000.0),#312);
#185=FACE_BOUND('',#313,.T.);
#186=FACE_BOUND('',#314,.T.);
#187=CONICAL_SURFACE('',#315,13.2500000000018,0.349065850398903);
#188=SURFACE_STYLE_USAGE(.BOTH.,#316);
#189=CURVE_STYLE('',#317,POSITIVE_LENGTH_MEASURE(1000.0),#318);
#190=FACE_BOUND('',#319,.T.);
#191=FACE_BOUND('',#320,.T.);
#192=CYLINDRICAL_SURFACE('',#321,10.0);
#193=CURVE_STYLE('',#322,POSITIVE_LENGTH_MEASURE(1000.0),#323);
#194=VERTEX_POINT('',#324);
#195=CIRCLE('',#325,8.20000000000073);
#196=SURFACE_STYLE_USAGE(.BOTH.,#326);
#197=CURVE_STYLE('',#327,POSITIVE_LENGTH_MEASURE(1000.0),#328);
#198=FACE_BOUND('',#329,.T.);
#199=FACE_BOUND('',#330,.T.);
#200=CYLINDRICAL_SURFACE('',#331,13.5000000000011);
#201=CURVE_STYLE('',#332,POSITIVE_LENGTH_MEASURE(1000.0),#333);
#202=VERTEX_POINT('',#334);
#203=CIRCLE('',#335,10.0);
#204=CURVE_STYLE('',#336,POSITIVE_LENGTH_MEASURE(1000.0),#337);
#205=VERTEX_POINT('',#338);
#206=CIRCLE('',#339,10.0000000000012);
#207=SURFACE_STYLE_USAGE(.BOTH.,#340);
#208=CURVE_STYLE('',#341,POSITIVE_LENGTH_MEASURE(1000.0),#342);
#209=FACE_OUTER_BOUND('',#343,.T.);
#210=PLANE('',#344);
#211=SURFACE_STYLE_USAGE(.BOTH.,#345);
#212=CURVE_STYLE('',#346,POSITIVE_LENGTH_MEASURE(1000.0),#347);
#213=FACE_OUTER_BOUND('',#348,.T.);
#214=FACE_BOUND('',#349,.T.);
#215=PLANE('',#350);
#216=CURVE_STYLE('',#351,POSITIVE_LENGTH_MEASURE(1000.0),#352);
#217=VERTEX_POINT('',#353);
#218=CIRCLE('',#354,10.1499999999996);
#219=SURFACE_STYLE_USAGE(.BOTH.,#355);
#220=CURVE_STYLE('',#356,POSITIVE_LENGTH_MEASURE(1000.0),#357);
#221=FACE_BOUND('',#358,.T.);
#222=FACE_BOUND('',#359,.T.);
#223=CYLINDRICAL_SURFACE('',#360,9.99999999999724);
#224=CURVE_STYLE('',#361,POSITIVE_LENGTH_MEASURE(1000.0),#362);
#225=VERTEX_POINT('',#363);
#226=CIRCLE('',#364,13.5000000000031);
#227=SURFACE_STYLE_USAGE(.BOTH.,#365);
#228=CURVE_STYLE('',#366,POSITIVE_LENGTH_MEASURE(1000.0),#367);
#229=FACE_OUTER_BOUND('',#368,.T.);
#230=FACE_BOUND('',#369,.T.);
#231=PLANE('',#370);
#232=SURFACE_STYLE_USAGE(.BOTH.,#371);
#233=CURVE_STYLE('',#372,POSITIVE_LENGTH_MEASURE(1000.0),#373);
#234=FACE_BOUND('',#374,.T.);
#235=FACE_BOUND('',#375,.T.);
#236=CYLINDRICAL_SURFACE('',#376,8.20000000000073);
#237=SURFACE_STYLE_USAGE(.BOTH.,#377);
#238=CURVE_STYLE('',#378,POSITIVE_LENGTH_MEASURE(1000.0),#379);
#239=FACE_OUTER_BOUND('',#380,.T.);
#240=FACE_BOUND('',#381,.T.);
#241=PLANE('',#382);
#242=CURVE_STYLE('',#383,POSITIVE_LENGTH_MEASURE(1000.0),#384);
#243=VERTEX_POINT('',#385);
#244=CIRCLE('',#386,10.0);
#245=CURVE_STYLE('',#387,POSITIVE_LENGTH_MEASURE(1000.0),#388);
#246=VERTEX_POINT('',#389);
#247=CIRCLE('',#390,10.0);
#248=PRODUCT_CONTEXT('',#38,'mechanical');
#249=PRODUCT_DEFINITION_FORMATION_WITH_SPECIFIED_SOURCE(' ','NONE',#122,.NOT_KNOWN.);
#250=CARTESIAN_POINT('',(0.0,0.0,0.0));
#251=DIRECTION('',(0.0,0.0,1.0));
#252=DIRECTION('',(1.0,0.0,0.0));
#253= (NAMED_UNIT(#130)LENGTH_UNIT()SI_UNIT(.MILLI.,.METRE.));
#254=DRAUGHTING_PRE_DEFINED_CURVE_FONT('continuous');
#255=COLOUR_RGB('',0.0,1.0,1.0);
#256=CARTESIAN_POINT('',(-1.28587913910472E-015,8.20000000000072,21.0));
#257=AXIS2_PLACEMENT_3D('',#392,#393,#394);
#258=SURFACE_SIDE_STYLE('',(#395));
#259=DRAUGHTING_PRE_DEFINED_CURVE_FONT('continuous');
#260=COLOUR_RGB('',0.0,1.0,1.0);
#261=EDGE_LOOP('',(#396));
#262=EDGE_LOOP('',(#397));
#263=AXIS2_PLACEMENT_3D('',#398,#399,#400);
#264=DRAUGHTING_PRE_DEFINED_CURVE_FONT('continuous');
#265=COLOUR_RGB('',0.0,1.0,1.0);
#266=CARTESIAN_POINT('',(-6.76617356528905E-015,9.99999999999326,106.499999999997));
#267=AXIS2_PLACEMENT_3D('',#401,#402,#403);
#268=DRAUGHTING_PRE_DEFINED_CURVE_FONT('continuous');
#269=COLOUR_RGB('',0.0,1.0,1.0);
#270=CARTESIAN_POINT('',(-1.16341445919035E-015,10.1499999999996,19.0000000000059));
#271=AXIS2_PLACEMENT_3D('',#404,#405,#406);
#272=SURFACE_SIDE_STYLE('',(#407));
#273=DRAUGHTING_PRE_DEFINED_CURVE_FONT('continuous');
#274=COLOUR_RGB('',0.0,1.0,1.0);
#275=EDGE_LOOP('',(#408));
#276=EDGE_LOOP('',(#409));
#277=AXIS2_PLACEMENT_3D('',#410,#411,#412);
#278=DRAUGHTING_PRE_DEFINED_CURVE_FONT('continuous');
#279=COLOUR_RGB('',0.0,1.0,1.0);
#280=CARTESIAN_POINT('',(-6.52124420545948E-015,13.0000000000004,106.499999999997));
#281=AXIS2_PLACEMENT_3D('',#413,#414,#415);
#282=SURFACE_SIDE_STYLE('',(#416));
#283=DRAUGHTING_PRE_DEFINED_CURVE_FONT('continuous');
#284=COLOUR_RGB('',0.0,1.0,1.0);
#285=DRAUGHTING_PRE_DEFINED_CURVE_FONT('continuous');
#286=COLOUR_RGB('',0.0,1.0,1.0);
#287=CARTESIAN_POINT('',(-1.08993565124099E-015,9.99999999999999,17.7999999999975));
#288=AXIS2_PLACEMENT_3D('',#417,#418,#419);
#289=DRAUGHTING_PRE_DEFINED_CURVE_FONT('continuous');
#290=COLOUR_RGB('',0.0,1.0,1.0);
#291=CARTESIAN_POINT('',(-6.12323399573616E-015,13.499999999999,99.9999999999902));
#292=AXIS2_PLACEMENT_3D('',#420,#421,#422);
#293=SURFACE_SIDE_STYLE('',(#423));
#294=DRAUGHTING_PRE_DEFINED_CURVE_FONT('continuous');
#295=COLOUR_RGB('',0.0,1.0,1.0);
#296=EDGE_LOOP('',(#424));
#297=EDGE_LOOP('',(#425));
#298=AXIS2_PLACEMENT_3D('',#426,#427,#428);
#299=SURFACE_SIDE_STYLE('',(#429));
#300=DRAUGHTING_PRE_DEFINED_CURVE_FONT('continuous');
#301=COLOUR_RGB('',0.0,1.0,1.0);
#302=EDGE_LOOP('',(#430));
#303=AXIS2_PLACEMENT_3D('',#431,#432,#433);
#304=SURFACE_SIDE_STYLE('',(#434));
#305=DRAUGHTING_PRE_DEFINED_CURVE_FONT('continuous');
#306=COLOUR_RGB('',0.0,1.0,1.0);
#307=EDGE_LOOP('',(#435));
#308=EDGE_LOOP('',(#436));
#309=AXIS2_PLACEMENT_3D('',#437,#438,#439);
#310=SURFACE_SIDE_STYLE('',(#440));
#311=DRAUGHTING_PRE_DEFINED_CURVE_FONT('continuous');
#312=COLOUR_RGB('',0.0,1.0,1.0);
#313=EDGE_LOOP('',(#441));
#314=EDGE_LOOP('',(#442));
#315=AXIS2_PLACEMENT_3D('',#443,#444,#445);
#316=SURFACE_SIDE_STYLE('',(#446));
#317=DRAUGHTING_PRE_DEFINED_CURVE_FONT('continuous');
#318=COLOUR_RGB('',0.0,1.0,1.0);
#319=EDGE_LOOP('',(#447));
#320=EDGE_LOOP('',(#448));
#321=AXIS2_PLACEMENT_3D('',#449,#450,#451);
#322=DRAUGHTING_PRE_DEFINED_CURVE_FONT('continuous');
#323=COLOUR_RGB('',0.0,1.0,1.0);
#324=CARTESIAN_POINT('',(-1.34711147906255E-015,8.20000000000072,22.0000000000075));
#325=AXIS2_PLACEMENT_3D('',#452,#453,#454);
#326=SURFACE_SIDE_STYLE('',(#455));
#327=DRAUGHTING_PRE_DEFINED_CURVE_FONT('continuous');
#328=COLOUR_RGB('',0.0,1.0,1.0);
#329=EDGE_LOOP('',(#456));
#330=EDGE_LOOP('',(#457));
#331=AXIS2_PLACEMENT_3D('',#458,#459,#460);
#332=DRAUGHTING_PRE_DEFINED_CURVE_FONT('continuous');
#333=COLOUR_RGB('',0.0,1.0,1.0);
#334=CARTESIAN_POINT('',(1.23440012438413E-028,10.0,-2.01671672275954E-012));
#335=AXIS2_PLACEMENT_3D('',#461,#462,#463);
#336=DRAUGHTING_PRE_DEFINED_CURVE_FONT('continuous');
#337=COLOUR_RGB('',0.0,1.0,1.0);
#338=CARTESIAN_POINT('',(-9.24608333356244E-015,10.0000000000012,150.999999999999));
#339=AXIS2_PLACEMENT_3D('',#464,#465,#466);
#340=SURFACE_SIDE_STYLE('',(#467));
#341=DRAUGHTING_PRE_DEFINED_CURVE_FONT('continuous');
#342=COLOUR_RGB('',0.0,1.0,1.0);
#343=EDGE_LOOP('',(#468));
#344=AXIS2_PLACEMENT_3D('',#469,#470,#471);
#345=SURFACE_SIDE_STYLE('',(#472));
#346=DRAUGHTING_PRE_DEFINED_CURVE_FONT('continuous');
#347=COLOUR_RGB('',0.0,1.0,1.0);
#348=EDGE_LOOP('',(#473));
#349=EDGE_LOOP('',(#474));
#350=AXIS2_PLACEMENT_3D('',#475,#476,#477);
#351=DRAUGHTING_PRE_DEFINED_CURVE_FONT('continuous');
#352=COLOUR_RGB('',0.0,1.0,1.0);
#353=CARTESIAN_POINT('',(-1.28587913910472E-015,10.1499999999996,21.0));
#354=AXIS2_PLACEMENT_3D('',#478,#479,#480);
#355=SURFACE_SIDE_STYLE('',(#481));
#356=DRAUGHTING_PRE_DEFINED_CURVE_FONT('continuous');
#357=COLOUR_RGB('',0.0,1.0,1.0);
#358=EDGE_LOOP('',(#482));
#359=EDGE_LOOP('',(#483));
#360=AXIS2_PLACEMENT_3D('',#484,#485,#486);
#361=DRAUGHTING_PRE_DEFINED_CURVE_FONT('continuous');
#362=COLOUR_RGB('',0.0,1.0,1.0);
#363=CARTESIAN_POINT('',(-6.43712696977244E-015,13.500000000003,105.126261290263));
#364=AXIS2_PLACEMENT_3D('',#487,#488,#489);
#365=SURFACE_SIDE_STYLE('',(#490));
#366=DRAUGHTING_PRE_DEFINED_CURVE_FONT('continuous');
#367=COLOUR_RGB('',0.0,1.0,1.0);
#368=EDGE_LOOP('',(#491));
#369=EDGE_LOOP('',(#492));
#370=AXIS2_PLACEMENT_3D('',#493,#494,#495);
#371=SURFACE_SIDE_STYLE('',(#496));
#372=DRAUGHTING_PRE_DEFINED_CURVE_FONT('continuous');
#373=COLOUR_RGB('',0.0,1.0,1.0);
#374=EDGE_LOOP('',(#497));
#375=EDGE_LOOP('',(#498));
#376=AXIS2_PLACEMENT_3D('',#499,#500,#501);
#377=SURFACE_SIDE_STYLE('',(#502));
#378=DRAUGHTING_PRE_DEFINED_CURVE_FONT('continuous');
#379=COLOUR_RGB('',0.0,1.0,1.0);
#380=EDGE_LOOP('',(#503));
#381=EDGE_LOOP('',(#504));
#382=AXIS2_PLACEMENT_3D('',#505,#506,#507);
#383=DRAUGHTING_PRE_DEFINED_CURVE_FONT('continuous');
#384=COLOUR_RGB('',0.0,1.0,1.0);
#385=CARTESIAN_POINT('',(-1.3471114790616E-015,9.99999999999999,21.9999999999921));
#386=AXIS2_PLACEMENT_3D('',#508,#509,#510);
#387=DRAUGHTING_PRE_DEFINED_CURVE_FONT('continuous');
#388=COLOUR_RGB('',0.0,1.0,1.0);
#389=CARTESIAN_POINT('',(-6.06580894958831E-015,9.99999999999998,99.0621778264813));
#390=AXIS2_PLACEMENT_3D('',#511,#512,#513);
#392=CARTESIAN_POINT('',(-1.28587913910472E-015,-2.57175827820944E-015,21.0));
#393=DIRECTION('',(6.12323399573676E-017,1.22464679914735E-016,-1.0));
#394=DIRECTION('',(-1.23259516440783E-032,1.0,1.22464679914735E-016));
#395=SURFACE_STYLE_FILL_AREA(#514);
#396=ORIENTED_EDGE('',*,*,#59,.F.);
#397=ORIENTED_EDGE('',*,*,#103,.T.);
#398=CARTESIAN_POINT('',(-1.22464679914753E-015,-2.44929359829507E-015,20.000000000003));
#399=DIRECTION('',(-6.12323399573677E-017,-1.22464679914735E-016,1.0));
#400=DIRECTION('',(-1.23259516440783E-032,1.0,1.22464679914735E-016));
#401=CARTESIAN_POINT('',(-6.76617356528905E-015,-1.35323471305781E-014,106.499999999997));
#402=DIRECTION('',(6.12323399573676E-017,1.22464679914735E-016,-1.0));
#403=DIRECTION('',(-1.23259516440783E-032,1.0,1.22464679914735E-016));
#404=CARTESIAN_POINT('',(-1.16341445919035E-015,-2.32682891838069E-015,19.0000000000059));
#405=DIRECTION('',(6.12323399573677E-017,1.22464679914735E-016,-1.0));
#406=DIRECTION('',(-1.23259516440783E-032,1.0,1.22464679914735E-016));
#407=SURFACE_STYLE_FILL_AREA(#515);
#408=ORIENTED_EDGE('',*,*,#69,.F.);
#409=ORIENTED_EDGE('',*,*,#59,.T.);
#410=CARTESIAN_POINT('',(-1.12667505521567E-015,-2.25335011043134E-015,18.4000000000017));
#411=DIRECTION('',(-6.12323399573677E-017,-1.22464679914735E-016,1.0));
#412=DIRECTION('',(-1.23259516440783E-032,1.0,1.22464679914735E-016));
#413=CARTESIAN_POINT('',(-6.52124420545948E-015,-1.3042488410919E-014,106.499999999997));
#414=DIRECTION('',(6.12323399573677E-017,1.22464679914735E-016,-1.0));
#415=DIRECTION('',(-1.23259516440783E-032,1.0,1.22464679914735E-016));
#416=SURFACE_STYLE_FILL_AREA(#516);
#417=CARTESIAN_POINT('',(-1.08993565124099E-015,-2.17987130248199E-015,17.7999999999975));
#418=DIRECTION('',(6.12323399573677E-017,1.22464679914735E-016,-1.0));
#419=DIRECTION('',(-1.23259516440783E-032,1.0,1.22464679914735E-016));
#420=CARTESIAN_POINT('',(-6.12323399573616E-015,-1.22464679914723E-014,99.9999999999902));
#421=DIRECTION('',(6.12323399573677E-017,1.22464679914735E-016,-1.0));
#422=DIRECTION('',(-1.23259516440783E-032,1.0,1.22464679914735E-016));
#423=SURFACE_STYLE_FILL_AREA(#517);
#424=ORIENTED_EDGE('',*,*,#121,.F.);
#425=ORIENTED_EDGE('',*,*,#71,.T.);
#426=CARTESIAN_POINT('',(-6.09452147266224E-015,-1.21890429453245E-014,99.5310889132357));
#427=DIRECTION('',(-6.12323399573677E-017,-1.22464679914735E-016,1.0));
#428=DIRECTION('',(-1.23259516440783E-032,1.0,1.22464679914735E-016));
#429=SURFACE_STYLE_FILL_AREA(#518);
#430=ORIENTED_EDGE('',*,*,#93,.T.);
#431=CARTESIAN_POINT('',(1.23501642196633E-028,5.0,-2.01732904615911E-012));
#432=DIRECTION('',(6.12323399573677E-017,1.22464679914735E-016,-1.0));
#433=DIRECTION('',(-1.0,0.0,-6.12323399573677E-017));
#434=SURFACE_STYLE_FILL_AREA(#519);
#435=ORIENTED_EDGE('',*,*,#119,.F.);
#436=ORIENTED_EDGE('',*,*,#121,.T.);
#437=CARTESIAN_POINT('',(-3.70646021432496E-015,-7.41292042864991E-015,60.5310889132367));
#438=DIRECTION('',(-6.12323399573677E-017,-1.22464679914735E-016,1.0));
#439=DIRECTION('',(-1.23259516440783E-032,1.0,1.22464679914735E-016));
#440=SURFACE_STYLE_FILL_AREA(#520);
#441=ORIENTED_EDGE('',*,*,#108,.F.);
#442=ORIENTED_EDGE('',*,*,#64,.T.);
#443=CARTESIAN_POINT('',(-6.47918558761596E-015,-1.29583711752319E-014,105.81313064513));
#444=DIRECTION('',(6.12323399573677E-017,1.22464679914735E-016,-1.0));
#445=DIRECTION('',(-1.23259516440783E-032,1.0,1.22464679914735E-016));
#446=SURFACE_STYLE_FILL_AREA(#521);
#447=ORIENTED_EDGE('',*,*,#93,.F.);
#448=ORIENTED_EDGE('',*,*,#69,.T.);
#449=CARTESIAN_POINT('',(-5.44967825620435E-016,-1.08993565124087E-015,8.89999999999776));
#450=DIRECTION('',(-6.12323399573677E-017,-1.22464679914735E-016,1.0));
#451=DIRECTION('',(-1.23259516440783E-032,1.0,1.22464679914735E-016));
#452=CARTESIAN_POINT('',(-1.34711147906255E-015,-2.6942229581251E-015,22.0000000000075));
#453=DIRECTION('',(6.12323399573676E-017,1.22464679914735E-016,-1.0));
#454=DIRECTION('',(-1.23259516440783E-032,1.0,1.22464679914735E-016));
#455=SURFACE_STYLE_FILL_AREA(#522);
#456=ORIENTED_EDGE('',*,*,#71,.F.);
#457=ORIENTED_EDGE('',*,*,#108,.T.);
#458=CARTESIAN_POINT('',(-6.2801804827543E-015,-1.25603609655086E-014,102.563130645127));
#459=DIRECTION('',(-6.12323399573677E-017,-1.22464679914735E-016,1.0));
#460=DIRECTION('',(-1.23259516440783E-032,1.0,1.22464679914735E-016));
#461=CARTESIAN_POINT('',(1.23563271954853E-028,2.47126543909707E-028,-2.01794136955868E-012));
#462=DIRECTION('',(6.12323399573677E-017,1.22464679914735E-016,-1.0));
#463=DIRECTION('',(-1.23259516440783E-032,1.0,1.22464679914735E-016));
#464=CARTESIAN_POINT('',(-9.24608333356244E-015,-1.84921666671249E-014,150.999999999999));
#465=DIRECTION('',(6.12323399573677E-017,1.22464679914735E-016,-1.0));
#466=DIRECTION('',(-1.23259516440783E-032,1.0,1.22464679914735E-016));
#467=SURFACE_STYLE_FILL_AREA(#523);
#468=ORIENTED_EDGE('',*,*,#95,.F.);
#469=CARTESIAN_POINT('',(-9.24608333356244E-015,5.00000000000059,150.999999999999));
#470=DIRECTION('',(-9.18338008663382E-049,-1.22464679914735E-016,1.0));
#471=DIRECTION('',(1.0,-7.49879891330927E-033,0.0));
#472=SURFACE_STYLE_FILL_AREA(#524);
#473=ORIENTED_EDGE('',*,*,#64,.F.);
#474=ORIENTED_EDGE('',*,*,#57,.T.);
#475=CARTESIAN_POINT('',(-9.84184850476247,1.77144517532162,106.499999999997));
#476=DIRECTION('',(0.0,0.0,1.0));
#477=DIRECTION('',(1.0,-0.0,0.0));
#478=CARTESIAN_POINT('',(-1.28587913910472E-015,-2.57175827820944E-015,21.0));
#479=DIRECTION('',(6.12323399573677E-017,1.22464679914735E-016,-1.0));
#480=DIRECTION('',(-1.23259516440783E-032,1.0,1.22464679914735E-016));
#481=SURFACE_STYLE_FILL_AREA(#525);
#482=ORIENTED_EDGE('',*,*,#57,.F.);
#483=ORIENTED_EDGE('',*,*,#95,.T.);
#484=CARTESIAN_POINT('',(-8.00612844942574E-015,-1.60122568988515E-014,130.749999999999));
#485=DIRECTION('',(-6.12323399573677E-017,-1.22464679914735E-016,1.0));
#486=DIRECTION('',(-1.23259516440783E-032,1.0,1.22464679914735E-016));
#487=CARTESIAN_POINT('',(-6.43712696977244E-015,-1.28742539395449E-014,105.126261290263));
#488=DIRECTION('',(6.12323399573677E-017,1.22464679914735E-016,-1.0));
#489=DIRECTION('',(-1.23259516440783E-032,1.0,1.22464679914735E-016));
#490=SURFACE_STYLE_FILL_AREA(#526);
#491=ORIENTED_EDGE('',*,*,#119,.T.);
#492=ORIENTED_EDGE('',*,*,#88,.F.);
#493=CARTESIAN_POINT('',(-1.34711147906208E-015,9.10000000000036,21.9999999999998));
#494=DIRECTION('',(6.12323399573677E-017,-8.58954971873455E-012,-1.0));
#495=DIRECTION('',(0.0,-1.0,8.58954971873455E-012));
#496=SURFACE_STYLE_FILL_AREA(#527);
#497=ORIENTED_EDGE('',*,*,#52,.F.);
#498=ORIENTED_EDGE('',*,*,#88,.T.);
#499=CARTESIAN_POINT('',(-1.31649530908364E-015,-2.63299061816727E-015,21.5000000000038));
#500=DIRECTION('',(-6.12323399573676E-017,-1.22464679914735E-016,1.0));
#501=DIRECTION('',(-1.23259516440783E-032,1.0,1.22464679914735E-016));
#502=SURFACE_STYLE_FILL_AREA(#528);
#503=ORIENTED_EDGE('',*,*,#103,.F.);
#504=ORIENTED_EDGE('',*,*,#52,.T.);
#505=CARTESIAN_POINT('',(-1.28587913910472E-015,9.17500000000018,21.0));
#506=DIRECTION('',(-9.18338008663382E-049,-1.22464679914735E-016,1.0));
#507=DIRECTION('',(1.0,-7.49879891330927E-033,0.0));
#508=CARTESIAN_POINT('',(-1.3471114790616E-015,-2.69422295812321E-015,21.9999999999921));
#509=DIRECTION('',(6.12323399573677E-017,1.22464679914735E-016,-1.0));
#510=DIRECTION('',(-1.23259516440783E-032,1.0,1.22464679914735E-016));
#511=CARTESIAN_POINT('',(-6.06580894958831E-015,-1.21316178991766E-014,99.0621778264813));
#512=DIRECTION('',(6.12323399573677E-017,1.22464679914735E-016,-1.0));
#513=DIRECTION('',(-1.23259516440783E-032,1.0,1.22464679914735E-016));
#514=FILL_AREA_STYLE('',(#529));
#515=FILL_AREA_STYLE('',(#530));
#516=FILL_AREA_STYLE('',(#531));
#517=FILL_AREA_STYLE('',(#532));
#518=FILL_AREA_STYLE('',(#533));
#519=FILL_AREA_STYLE('',(#534));
#520=FILL_AREA_STYLE('',(#535));
#521=FILL_AREA_STYLE('',(#536));
#522=FILL_AREA_STYLE('',(#537));
#523=FILL_AREA_STYLE('',(#538));
#524=FILL_AREA_STYLE('',(#539));
#525=FILL_AREA_STYLE('',(#540));
#526=FILL_AREA_STYLE('',(#541));
#527=FILL_AREA_STYLE('',(#542));
#528=FILL_AREA_STYLE('',(#543));
#529=FILL_AREA_STYLE_COLOUR('',#544);
#530=FILL_AREA_STYLE_COLOUR('',#545);
#531=FILL_AREA_STYLE_COLOUR('',#546);
#532=FILL_AREA_STYLE_COLOUR('',#547);
#533=FILL_AREA_STYLE_COLOUR('',#548);
#534=FILL_AREA_STYLE_COLOUR('',#549);
#535=FILL_AREA_STYLE_COLOUR('',#550);
#536=FILL_AREA_STYLE_COLOUR('',#551);
#537=FILL_AREA_STYLE_COLOUR('',#552);
#538=FILL_AREA_STYLE_COLOUR('',#553);
#539=FILL_AREA_STYLE_COLOUR('',#554);
#540=FILL_AREA_STYLE_COLOUR('',#555);
#541=FILL_AREA_STYLE_COLOUR('',#556);
#542=FILL_AREA_STYLE_COLOUR('',#557);
#543=FILL_AREA_STYLE_COLOUR('',#558);
#544=COLOUR_RGB('',0.0,1.0,1.0);
#545=COLOUR_RGB('',0.0,1.0,1.0);
#546=COLOUR_RGB('',0.0,1.0,1.0);
#547=COLOUR_RGB('',0.0,1.0,1.0);
#548=COLOUR_RGB('',0.0,1.0,1.0);
#549=COLOUR_RGB('',0.0,1.0,1.0);
#550=COLOUR_RGB('',0.0,1.0,1.0);
#551=COLOUR_RGB('',0.0,1.0,1.0);
#552=COLOUR_RGB('',0.0,1.0,1.0);
#553=COLOUR_RGB('',0.0,1.0,1.0);
#554=COLOUR_RGB('',0.0,1.0,1.0);
#555=COLOUR_RGB('',0.0,1.0,1.0);
#556=COLOUR_RGB('',0.0,1.0,1.0);
#557=COLOUR_RGB('',0.0,1.0,1.0);
#558=COLOUR_RGB('',0.0,1.0,1.0);
ENDSEC;
END-ISO-10303-21;
