  0
SECTION
  2
HEADER
  9
$ACADVER
  1
AC1009
  9
$INSBASE
 10
0.0
 20
0.0
 30
0.0
  9
$EXTMIN
 10
-52.0
 20
-13.5
 30
0.0
  9
$EXTMAX
 10
49.75
 20
47.952380952380963
 30
0.0
  9
$LIMMIN
 10
0.0
 20
0.0
  9
$LIMMAX
 10
297.0
 20
210.0
  9
$ORTHOMODE
 70
     0
  9
$REGENMODE
 70
     1
  9
$FILLMODE
 70
     1
  9
$QTEXTMODE
 70
     0
  9
$MIRRTEXT
 70
     1
  9
$DRAGMODE
 70
     2
  9
$LTSCALE
 40
10.0
  9
$OSMODE
 70
    39
  9
$ATTMODE
 70
     1
  9
$TEXTSIZE
 40
3.0
  9
$TRACEWID
 40
1.0
  9
$TEXTSTYLE
  7
YOKO
  9
$CLAYER
  8
240
  9
$CELTYPE
  6
BYLAYER
  9
$CECOLOR
 62
   256
  9
$DIMSCALE
 40
1.0
  9
$DIMASZ
 40
2.2299999999999991
  9
$DIMEXO
 40
0.5
  9
$DIMDLI
 40
7.0
  9
$DIMRND
 40
0.0
  9
$DIMDLE
 40
0.0
  9
$DIMEXE
 40
1.0
  9
$DIMTP
 40
0.0
  9
$DIMTM
 40
0.01
  9
$DIMTXT
 40
2.7999999999999989
  9
$DIMCEN
 40
0.0
  9
$DIMTSZ
 40
0.0
  9
$DIMTOL
 70
     0
  9
$DIMLIM
 70
     0
  9
$DIMTIH
 70
     0
  9
$DIMTOH
 70
     0
  9
$DIMSE1
 70
     0
  9
$DIMSE2
 70
     0
  9
$DIMTAD
 70
     3
  9
$DIMZIN
 70
     9
  9
$DIMBLK
  1
OPEN
  9
$DIMASO
 70
     1
  9
$DIMSHO
 70
     1
  9
$DIMPOST
  1

  9
$DIMAPOST
  1

  9
$DIMALT
 70
     0
  9
$DIMALTD
 70
     2
  9
$DIMALTF
 40
25.399999999999999
  9
$DIMLFAC
 40
1.0
  9
$DIMTOFL
 70
     1
  9
$DIMTVP
 40
0.0
  9
$DIMTIX
 70
     1
  9
$DIMSOXD
 70
     0
  9
$DIMSAH
 70
     0
  9
$DIMBLK1
  1

  9
$DIMBLK2
  1

  9
$DIMSTYLE
  2
BIGT
  9
$DIMCLRD
 70
   256
  9
$DIMCLRE
 70
   256
  9
$DIMCLRT
 70
    40
  9
$DIMTFAC
 40
1.0
  9
$DIMGAP
 40
1.0
  9
$LUNITS
 70
     2
  9
$LUPREC
 70
     6
  9
$SKETCHINC
 40
1.0
  9
$FILLETRAD
 40
0.0
  9
$AUNITS
 70
     0
  9
$AUPREC
 70
     6
  9
$MENU
  1
.
  9
$ELEVATION
 40
0.0
  9
$PELEVATION
 40
0.0
  9
$THICKNESS
 40
0.0
  9
$LIMCHECK
 70
     0
  9
$BLIPMODE
 70
     0
  9
$CHAMFERA
 40
0.2
  9
$CHAMFERB
 40
0.2
  9
$SKPOLY
 70
     0
  9
$TDCREATE
 40
2458040.4880315629
  9
$TDUPDATE
 40
2458040.5519768409
  9
$TDINDWG
 40
0.0062891319
  9
$TDUSRTIMER
 40
0.0062891088
  9
$USRTIMER
 70
     1
  9
$ANGBASE
 50
0.0
  9
$ANGDIR
 70
     0
  9
$PDMODE
 70
     1
  9
$PDSIZE
 40
0.0
  9
$PLINEWID
 40
0.0
  9
$COORDS
 70
     1
  9
$SPLFRAME
 70
     0
  9
$SPLINETYPE
 70
     6
  9
$SPLINESEGS
 70
     4
  9
$ATTDIA
 70
     1
  9
$ATTREQ
 70
     1
  9
$HANDLING
 70
     1
  9
$HANDSEED
  5
4492
  9
$SURFTAB1
 70
     6
  9
$SURFTAB2
 70
     6
  9
$SURFTYPE
 70
     6
  9
$SURFU
 70
     6
  9
$SURFV
 70
     6
  9
$UCSNAME
  2

  9
$UCSORG
 10
0.0
 20
0.0
 30
0.0
  9
$UCSXDIR
 10
1.0
 20
0.0
 30
0.0
  9
$UCSYDIR
 10
0.0
 20
1.0
 30
0.0
  9
$PUCSNAME
  2

  9
$PUCSORG
 10
0.0
 20
0.0
 30
0.0
  9
$PUCSXDIR
 10
1.0
 20
0.0
 30
0.0
  9
$PUCSYDIR
 10
0.0
 20
1.0
 30
0.0
  9
$USERI1
 70
     1
  9
$USERI2
 70
     0
  9
$USERI3
 70
     0
  9
$USERI4
 70
     0
  9
$USERI5
 70
     0
  9
$USERR1
 40
0.0
  9
$USERR2
 40
0.0
  9
$USERR3
 40
0.0
  9
$USERR4
 40
0.0
  9
$USERR5
 40
0.0
  9
$WORLDVIEW
 70
     1
  9
$SHADEDGE
 70
     3
  9
$SHADEDIF
 70
    70
  9
$TILEMODE
 70
     1
  9
$MAXACTVP
 70
    16
  9
$PLIMCHECK
 70
     0
  9
$PEXTMIN
 10
1.0000000000000000E+020
 20
1.0000000000000000E+020
 30
1.0000000000000000E+020
  9
$PEXTMAX
 10
-1.0000000000000000E+020
 20
-1.0000000000000000E+020
 30
-1.0000000000000000E+020
  9
$PLIMMIN
 10
0.0
 20
0.0
  9
$PLIMMAX
 10
420.0
 20
297.0
  9
$UNITMODE
 70
     0
  9
$VISRETAIN
 70
     1
  9
$PLINEGEN
 70
     0
  9
$PSLTSCALE
 70
     1
  0
ENDSEC
  0
SECTION
  2
TABLES
  0
TABLE
  2
VPORT
 70
     1
  0
VPORT
  2
*ACTIVE
 70
     0
 10
0.0
 20
0.0
 11
1.0
 21
1.0
 12
-7.5365289999313063
 22
23.38657815756395
 13
0.0
 23
0.0
 14
7.0
 24
7.0
 15
7.0
 25
7.0
 16
0.0
 26
0.0
 36
1.0
 17
0.0
 27
0.0
 37
0.0
 40
168.54372828472711
 41
1.575790621592148
 42
50.0
 43
0.0
 44
0.0
 50
0.0
 51
0.0
 71
     0
 72
  2000
 73
     1
 74
     0
 75
     0
 76
     1
 77
     0
 78
     0
  0
ENDTAB
  0
TABLE
  2
LTYPE
 70
    18
  0
LTYPE
  2
CONTINUOUS
 70
     0
  3
Solid line
 72
    65
 73
     0
 40
0.0
  0
LTYPE
  2
CENTER2
 70
     0
  3
___ _ ___ _ ___ _ ___ _ ___ _ ___ _ ___ _ ___ _
 72
    65
 73
     4
 40
1.125
 49
0.75
 49
-0.125
 49
0.125
 49
-0.125
  0
LTYPE
  2
HIDDEN2
 70
     0
  3
_ _ _ _ _ _ _ _ _ _ _ _ _ _ _ _ _ _ _ _ _ _ _ _
 72
    65
 73
     2
 40
0.1875
 49
0.125
 49
-0.0625
  0
LTYPE
  2
AM_ISO02W050
 70
     0
  3
__ __ __ __ __ __ __ __ __ __ __ __ __ __ __
 72
    65
 73
     2
 40
7.5
 49
6.0
 49
-1.5
  0
LTYPE
  2
AMCONSTR
 70
     0
  3
_______________________
 72
    65
 73
     2
 40
9999.0
 49
9999.0
 49
0.0
  0
LTYPE
  2
ACISOWELD
 70
     0
  3
_ _ _ _ _
 72
    65
 73
     2
 40
2.0
 49
2.0
 49
-1.0
  0
LTYPE
  2
ACISOTGB
 70
     0
  3
__ . . __ . .
 72
    65
 73
     6
 40
9.0
 49
4.0
 49
-1.0
 49
1.0
 49
-1.0
 49
1.0
 49
-1.0
  0
LTYPE
  2
ACISOTGL
 70
     0
  3
_ _ _ _ _
 72
    65
 73
     2
 40
3.0
 49
2.0
 49
-1.0
  0
LTYPE
  2
AM_ISO08W050
 70
     0
  3
____ . ____ . ____ . ____ . ____ . ____ . ____
 72
    65
 73
     4
 40
18.0
 49
12.0
 49
-1.5
 49
3.0
 49
-1.5
  0
LTYPE
  2
AM_ISO09W050
 70
     0
  3
_____ . . _____ . . _____ . . ____ .. ____
 72
    65
 73
     6
 40
22.5
 49
12.0
 49
-1.5
 49
3.0
 49
-1.5
 49
3.0
 49
-1.5
  0
LTYPE
  2
AM_ISO08W050X2
 70
     0
  3
__ . __ . __ . __ . __ . __
 72
    65
 73
     4
 40
9.0
 49
6.0
 49
-0.75
 49
1.5
 49
-0.75
  0
LTYPE
  2
AM_ISO02W050X2
 70
     0
  3
 _ _ _ _ _ _ _ _ _ _ _ _
 72
    65
 73
     2
 40
3.75
 49
3.0
 49
-0.75
  0
LTYPE
  2
AMZIGZAG
 70
     0
  3
/\/-/\/-/\/-/\/-/\/-/\/
 72
    65
 73
     2
 40
11.0001
 49
0.0001
 49
-11.0
  0
ENDTAB
  0
TABLE
  2
LAYER
 70
     9
  0
LAYER
  2
0
 70
     0
 62
     7
  6
CONTINUOUS
  0
LAYER
  2
DEFPOINTS
 70
     0
 62
     7
  6
CONTINUOUS
  0
LAYER
  2
245
 70
     0
 62
     2
  6
CENTER2
  0
LAYER
  2
240
 70
     0
 62
     4
  6
CONTINUOUS
  0
LAYER
  2
241
 70
     0
 62
   211
  6
CONTINUOUS
  0
LAYER
  2
242
 70
     0
 62
     3
  6
CONTINUOUS
  0
LAYER
  2
243
 70
     0
 62
   211
  6
HIDDEN2
  0
LAYER
  2
247
 70
     0
 62
    60
  6
CONTINUOUS
  0
LAYER
  2
250
 70
     0
 62
     3
  6
CONTINUOUS
  0
ENDTAB
  0
TABLE
  2
STYLE
 70
     7
  0
STYLE
  2
STANDARD
 70
     0
 40
0.0
 41
1.0
 50
0.0
 71
     0
 42
3.0
  3
romans.shx
  4
extfont.shx
  0
STYLE
  2
ACISOGDT
 70
     0
 40
0.0
 41
1.0
 50
0.0
 71
     0
 42
3.0
  3
amgdt.shx
  4
extfont.shx
  0
STYLE
  2
YOKO
 70
     0
 40
0.0
 41
1.0
 50
0.0
 71
     0
 42
3.0
  3
romans.shx
  4
extfont.shx
  0
STYLE
  2

 70
     1
 40
0.0
 41
1.0
 50
0.0
 71
     0
 42
3.0
  3
genltshp.shx
  4

  0
ENDTAB
  0
TABLE
  2
VIEW
 70
     0
  0
ENDTAB
  0
TABLE
  2
UCS
 70
     0
  0
ENDTAB
  0
TABLE
  2
APPID
 70
    39
  0
APPID
  2
ACAD
 70
     0
  0
APPID
  2
GLOBAL
 70
     0
  0
APPID
  2
DETAIL
 70
     0
  0
APPID
  2
GRPNAME
 70
     0
  0
APPID
  2
GPARA
 70
     0
  0
APPID
  2
MCAD_NO_VIS
 70
     0
  0
APPID
  2
ACAD_TEMP_GRAPHIC
 70
     0
  0
APPID
  2
ACATTRIBSERVICES
 70
     0
  0
APPID
  2
GENIUS_GENSCREG_15
 70
     0
  0
APPID
  2
GENIUS_GENODEF_13
 70
     0
  0
APPID
  2
GENIUS_GENOBJ-N-SDF_13
 70
     0
  0
APPID
  2
GENIUS_GENREC_14
 70
     0
  0
APPID
  2
GENIUS_GENOBJ-N-REC_13
 70
     0
  0
APPID
  2
GENIUS_GENDIMSH_14
 70
     0
  0
APPID
  2
GENIUS_GENOBJ-N-DIM_13
 70
     0
  0
APPID
  2
GENIUS_GENDIM_13
 70
     0
  0
APPID
  2
GENIUS_GENDTOL_13
 70
     0
  0
APPID
  2
GENIUS_GENOLIS_13
 70
     0
  0
APPID
  2
GENIUS_GENOENT_13
 70
     0
  0
APPID
  2
GENIUS_GENOBJ-F-FEM_13
 70
     0
  0
APPID
  2
GENIUS_GENOREF_13
 70
     0
  0
APPID
  2
GENIUS_GEFFEM_13
 70
     0
  0
APPID
  2
GENIUS_GEFFEMP_13
 70
     0
  0
APPID
  2
AD_DRAW
 70
     0
  0
APPID
  2
DESIGNERASSEMBLIES
 70
     0
  0
APPID
  2
ACADM_DIM_EDIT
 70
     0
  0
APPID
  2
AMDT_DM_ADJ
 70
     0
  0
APPID
  2
ITEMNAME
 70
     0
  0
APPID
  2
GENIUS_GENOBJ-N-FIL_13
 70
     0
  0
APPID
  2
GENIUS_GENFIL_13
 70
     0
  0
APPID
  2
GENIUS_GENOBJ-N-CHA_13
 70
     0
  0
APPID
  2
ACAECLAYERSTANDARD
 70
     0
  0
APPID
  2
ACAD_NAV_VCDISPLAY
 70
     0
  0
APPID
  2
GENIUS_GENOBJ-N-CEN_13
 70
     0
  0
APPID
  2
ACAD_EXEMPT_FROM_CAD_STANDARDS
 70
     0
  0
APPID
  2
ACAD_DSTYLE_DIMJAG
 70
     0
  0
APPID
  2
ACAD_DSTYLE_DIMBREAK
 70
     0
  0
APPID
  2
ACAD_PSEXT
 70
     0
  0
APPID
  2
ACAD_MLEADERVER
 70
     0
  0
ENDTAB
  0
TABLE
  2
DIMSTYLE
 70
    23
  0
DIMSTYLE
  2
BIGT
 70
     0
  3

  4

  5
OPEN
  6

  7

 40
1.0
 41
2.2299999999999991
 42
0.5
 43
7.0
 44
1.0
 45
0.0
 46
0.0
 47
0.0
 48
0.01
140
2.7999999999999989
141
0.0
142
0.0
143
25.399999999999999
144
1.0
145
0.0
146
1.0
147
1.0
 71
     0
 72
     0
 73
     0
 74
     0
 75
     0
 76
     0
 77
     3
 78
     9
170
     0
171
     2
172
     1
173
     0
174
     1
175
     0
176
   256
177
   256
178
    40
  0
DIMSTYLE
  2
AM_ISO
 70
     0
  3

  4
"
  5

  6

  7

 40
1.0
 41
2.5
 42
1.0
 43
10.0
 44
1.0
 45
0.0
 46
0.0
 47
0.1
 48
0.1
140
3.5
141
0.0
142
0.0
143
0.0393701
144
1.0
145
0.0
146
0.71
147
1.5
 71
     0
 72
     0
 73
     0
 74
     0
 75
     0
 76
     0
 77
     1
 78
     8
170
     0
171
     2
172
     1
173
     0
174
     0
175
     0
176
   256
177
   256
178
     2
  0
DIMSTYLE
  2
AM_ISO$3
 70
     0
  3

  4
"
  5

  6

  7

 40
1.0
 41
2.5
 42
1.0
 43
10.0
 44
1.0
 45
0.0
 46
0.0
 47
0.1
 48
0.1
140
3.5
141
0.0
142
0.0
143
0.0393701
144
1.0
145
0.0
146
0.71
147
1.5
 71
     0
 72
     0
 73
     0
 74
     1
 75
     0
 76
     0
 77
     1
 78
     8
170
     0
171
     2
172
     0
173
     0
174
     0
175
     0
176
   256
177
   256
178
     2
  0
DIMSTYLE
  2
AM_ISO$4
 70
     0
  3

  4
"
  5

  6

  7

 40
1.0
 41
2.5
 42
1.0
 43
10.0
 44
1.0
 45
0.0
 46
0.0
 47
0.1
 48
0.1
140
3.5
141
0.0
142
0.0
143
0.0393701
144
1.0
145
0.0
146
0.71
147
1.5
 71
     0
 72
     0
 73
     0
 74
     1
 75
     0
 76
     0
 77
     1
 78
     8
170
     0
171
     2
172
     0
173
     0
174
     0
175
     0
176
   256
177
   256
178
     2
  0
DIMSTYLE
  2
AM_ISO$6
 70
     0
  3

  4
"
  5

  6

  7

 40
1.0
 41
2.5
 42
1.0
 43
10.0
 44
1.0
 45
0.0
 46
0.0
 47
0.1
 48
0.1
140
3.5
141
0.0
142
0.0
143
0.0393701
144
1.0
145
0.0
146
0.71
147
1.5
 71
     0
 72
     0
 73
     0
 74
     0
 75
     0
 76
     0
 77
     0
 78
     8
170
     0
171
     2
172
     1
173
     0
174
     0
175
     0
176
   256
177
   256
178
     2
  0
DIMSTYLE
  2
AM_ISO$7
 70
     0
  3

  4
"
  5

  6

  7

 40
1.0
 41
2.5
 42
1.0
 43
10.0
 44
1.0
 45
0.0
 46
0.0
 47
0.1
 48
0.1
140
5.0
141
0.0
142
0.0
143
0.0393701
144
1.0
145
0.0
146
0.71
147
1.5
 71
     0
 72
     0
 73
     0
 74
     0
 75
     0
 76
     0
 77
     1
 78
     8
170
     0
171
     2
172
     1
173
     0
174
     0
175
     0
176
   256
177
   256
178
     2
  0
DIMSTYLE
  2
AM_ISO$SF
 70
     0
  3

  4
"
  5

  6

  7

 40
1.0
 41
2.5
 42
1.0
 43
10.0
 44
1.0
 45
0.0
 46
0.0
 47
0.1
 48
0.1
140
3.5
141
0.0
142
0.0
143
0.0393701
144
1.0
145
0.0
146
0.71
147
1.5
 71
     0
 72
     0
 73
     0
 74
     0
 75
     1
 76
     1
 77
     1
 78
     8
170
     0
171
     2
172
     1
173
     0
174
     0
175
     0
176
   256
177
   256
178
     2
  0
DIMSTYLE
  2
AM_ISO$SH
 70
     0
  3

  4
"
  5

  6
GENAXEH
  7

 40
1.0
 41
2.5
 42
1.0
 43
10.0
 44
1.0
 45
0.0
 46
0.0
 47
0.1
 48
0.1
140
3.5
141
0.0
142
0.0
143
0.0393701
144
2.0
145
0.0
146
0.71
147
1.5
 71
     0
 72
     0
 73
     0
 74
     0
 75
     1
 76
     1
 77
     1
 78
     8
170
     0
171
     2
172
     1
173
     1
174
     0
175
     0
176
   256
177
   256
178
     2
  0
ENDTAB
  0
ENDSEC
  0
SECTION
  2
BLOCKS
  0
BLOCK
  8
0
  2
$MODEL_SPACE
 70
     0
 10
0.0
 20
0.0
 30
0.0
  3
$MODEL_SPACE
  1

  0
ENDBLK
  5
1C
  8
0
  0
BLOCK
 67
     1
  8
0
  2
$PAPER_SPACE
 70
     0
 10
0.0
 20
0.0
 30
0.0
  3
$PAPER_SPACE
  1

  0
ENDBLK
  5
19
 67
     1
  8
0
  0
BLOCK
  8
0
  2
_OPEN
 70
     0
 10
0.0
 20
0.0
 30
0.0
  3
_OPEN
  1

  0
LINE
  5
3E1A
  8
0
  6
BYBLOCK
 62
     0
 10
-1.0
 20
0.1666666666666666
 30
0.0
 11
0.0
 21
0.0
 31
0.0
  0
LINE
  5
3E1B
  8
0
  6
BYBLOCK
 62
     0
 10
-1.0
 20
-0.1666666666666666
 30
0.0
 11
0.0
 21
0.0
 31
0.0
  0
LINE
  5
3E1C
  8
0
  6
BYBLOCK
 62
     0
 10
0.0
 20
0.0
 30
0.0
 11
-1.0
 21
0.0
 31
0.0
  0
ENDBLK
  5
3E1D
  8
0
  0
BLOCK
  8
0
  2
GENAXEH
 70
     0
 10
0.0
 20
0.0
 30
0.0
  3
GENAXEH
  1

  0
LINE
  5
3E45
  8
0
 10
-1.0
 20
0.0
 30
0.0
 11
1.0
 21
0.0
 31
0.0
  0
ENDBLK
  5
3E46
  8
0
  0
BLOCK
  8
0
  2
*U5
 70
     1
 10
0.0
 20
0.0
 30
0.0
  3
*U5
  1

  0
TEXT
  5
448D
  8
250
 10
40.75
 20
-5.93333333333333
 30
0.0
 40
2.7999999999999989
  1
\U+2205.323
 50
90.0
  0
ENDBLK
  5
448F
  8
0
  0
ENDSEC
  0
SECTION
  2
ENTITIES
  0
LINE
  5
42B6
  8
245
  6
CENTER2
 10
-52.0
 20
0.0
 30
0.0
 11
32.75
 21
0.0
 31
0.0
  0
LINE
  5
42B7
  8
240
  6
CONTINUOUS
 10
-40.499999999999993
 20
8.0
 30
0.0
 11
-35.0
 21
8.0
 31
0.0
  0
LINE
  5
42B8
  8
240
  6
CONTINUOUS
 10
-40.499999999999993
 20
-8.0
 30
0.0
 11
-35.0
 21
-8.0
 31
0.0
  0
LINE
  5
42B9
  8
240
  6
CONTINUOUS
 10
-51.0
 20
-10.0
 30
0.0
 11
-51.0
 21
10.0
 31
0.0
  0
LINE
  5
42BA
  8
240
  6
CONTINUOUS
 10
-51.0
 20
-10.0
 30
0.0
 11
-42.5
 21
-10.0
 31
0.0
  0
LINE
  5
42BB
  8
240
  6
CONTINUOUS
 10
-40.499999999999993
 20
-8.0
 30
0.0
 11
-42.5
 21
-10.0
 31
0.0
  0
LINE
  5
42BC
  8
240
  6
CONTINUOUS
 10
-40.499999999999993
 20
8.0
 30
0.0
 11
-42.5
 21
10.0
 31
0.0
  0
LINE
  5
42BD
  8
240
  6
CONTINUOUS
 10
-51.0
 20
10.0
 30
0.0
 11
-42.5
 21
10.0
 31
0.0
  0
LINE
  5
42BE
  8
241
  6
CONTINUOUS
 10
9.75
 20
-8.1999999999999975
 30
0.0
 11
9.75
 21
8.1999999999999975
 31
0.0
  0
LINE
  5
42BF
  8
241
  6
CONTINUOUS
 10
10.75
 20
-8.1999999999999975
 30
0.0
 11
10.75
 21
8.1999999999999975
 31
0.0
  0
LINE
  5
42C0
  8
241
  6
CONTINUOUS
 10
13.949999999999999
 20
-10.0
 30
0.0
 11
13.949999999999999
 21
10.0
 31
0.0
  0
LINE
  5
42C1
  8
241
  6
CONTINUOUS
 10
12.75
 20
-10.15
 30
0.0
 11
12.75
 21
10.14999999999999
 31
0.0
  0
LINE
  5
42C2
  8
245
  6
CENTER2
 10
-35.0
 20
10.0
 30
0.0
 11
-35.0
 21
-10.0
 31
0.0
1001
GENIUS_GENOBJ-N-CEN_13
1002
{
1000
OWNER
1000
GEN
1002
}
1001
GENIUS_GENODEF_13
1002
{
1000
HIER
1070
     0
1002
}
1002
{
1000
MANEDIT
1070
     0
1002
}
1002
{
1000
NOSEL
1070
     0
1002
}
1002
{
1000
BEHIND
1070
     0
1002
}
1002
{
1000
OTHER
1070
     0
1002
}
1002
{
1000
REACTOR
1002
}
  0
LINE
  5
42C3
  8
241
  6
CONTINUOUS
 10
-25.5
 20
-10.0
 30
0.0
 11
-25.5
 21
10.0
 31
0.0
  0
LINE
  5
42C4
  8
241
  6
CONTINUOUS
 10
-23.5
 20
-10.0
 30
0.0
 11
-23.5
 21
10.0
 31
0.0
  0
LINE
  5
42C5
  8
241
  6
CONTINUOUS
 10
-16.5
 20
-10.0
 30
0.0
 11
-16.5
 21
10.0
 31
0.0
  0
LINE
  5
42C6
  8
241
  6
CONTINUOUS
 10
-14.5
 20
-10.0
 30
0.0
 11
-14.5
 21
10.0
 31
0.0
  0
LINE
  5
42C7
  8
241
  6
CONTINUOUS
 10
-6.5
 20
-10.0
 30
0.0
 11
-6.5
 21
10.0
 31
0.0
  0
LINE
  5
42C8
  8
241
  6
CONTINUOUS
 10
0.93782217
 20
-10.35874398
 30
0.0
 11
0.93782217
 21
10.35874398
 31
0.0
  0
LINE
  5
42C9
  8
241
  6
CONTINUOUS
 10
0.0
 20
-13.5
 30
0.0
 11
0.0
 21
13.5
 31
0.0
  0
LINE
  5
42CA
  8
240
  6
CONTINUOUS
 10
-27.5
 20
-10.0
 30
0.0
 11
-6.5
 21
-10.0
 31
0.0
  0
LINE
  5
42CB
  8
240
  6
CONTINUOUS
 10
-29.5
 20
-8.0
 30
0.0
 11
-27.5
 21
-10.0
 31
0.0
  0
LINE
  5
42CC
  8
240
  6
CONTINUOUS
 10
-35.0
 20
-8.0
 30
0.0
 11
-29.5
 21
-8.0
 31
0.0
  0
LINE
  5
42CD
  8
240
  6
CONTINUOUS
 10
-6.5000000099999991
 20
-13.0
 30
0.0
 11
-5.1262612799999987
 21
-13.5
 31
0.0
  0
LINE
  5
42CE
  8
240
  6
CONTINUOUS
 10
0.0000000055125594
 20
-13.5
 30
0.0
 11
-5.1262612799999987
 21
-13.5
 31
0.0
  0
LINE
  5
42CF
  8
240
  6
CONTINUOUS
 10
13.00980762
 20
-10.0
 30
0.0
 11
31.75
 21
-10.0
 31
0.0
  0
LINE
  5
42D0
  8
240
  6
CONTINUOUS
 10
10.75
 20
-8.1999999999999975
 30
0.0
 11
9.75
 21
-8.1999999999999975
 31
0.0
  0
LINE
  5
42D1
  8
240
  6
CONTINUOUS
 10
9.75
 20
-8.1999999999999975
 30
0.0
 11
9.75
 21
-10.0
 31
0.0
  0
ARC
  5
42D2
  8
240
  6
CONTINUOUS
 10
1.7051491599999991
 20
-11.0
 30
0.0
 40
1.0
 50
90.0
 51
165.00000022
  0
LINE
  5
42D3
  8
240
  6
CONTINUOUS
 10
9.75
 20
-10.0
 30
0.0
 11
1.7051491599999991
 21
-10.0
 31
0.0
  0
LINE
  5
42D4
  8
240
  6
CONTINUOUS
 10
0.0000000055125594
 20
-13.5
 30
0.0
 11
0.73922333
 21
-10.741180959999999
 31
0.0
  0
LINE
  5
42D5
  8
240
  6
CONTINUOUS
 10
10.75
 20
-8.1999999999999975
 30
0.0
 11
10.75
 21
-10.15
 31
0.0
  0
LINE
  5
42D6
  8
240
  6
CONTINUOUS
 10
13.00980762
 20
-10.0
 30
0.0
 11
12.75
 21
-10.15
 31
0.0
  0
LINE
  5
42D7
  8
240
  6
CONTINUOUS
 10
10.75
 20
-10.15
 30
0.0
 11
12.75
 21
-10.15
 31
0.0
  0
LINE
  5
42D8
  8
240
  6
CONTINUOUS
 10
-29.5
 20
8.0
 30
0.0
 11
-27.5
 21
10.0
 31
0.0
  0
LINE
  5
42D9
  8
240
  6
CONTINUOUS
 10
-35.0
 20
8.0
 30
0.0
 11
-29.5
 21
8.0
 31
0.0
  0
LINE
  5
42DA
  8
240
  6
CONTINUOUS
 10
-27.5
 20
10.0
 30
0.0
 11
-6.5
 21
10.0
 31
0.0
  0
LINE
  5
42DB
  8
240
  6
CONTINUOUS
 10
0.0000000055125595
 20
13.5
 30
0.0
 11
-5.1262612799999987
 21
13.5
 31
0.0
  0
LINE
  5
42DC
  8
240
  6
CONTINUOUS
 10
-6.5000000099999991
 20
13.0
 30
0.0
 11
-5.1262612799999987
 21
13.5
 31
0.0
  0
LINE
  5
42DD
  8
240
  6
CONTINUOUS
 10
13.00980762
 20
10.0
 30
0.0
 11
31.75
 21
10.0
 31
0.0
  0
LINE
  5
42DE
  8
240
  6
CONTINUOUS
 10
9.75
 20
8.1999999999999975
 30
0.0
 11
9.75
 21
10.0
 31
0.0
  0
LINE
  5
42DF
  8
240
  6
CONTINUOUS
 10
10.75
 20
8.1999999999999975
 30
0.0
 11
10.75
 21
10.15
 31
0.0
  0
LINE
  5
42E0
  8
240
  6
CONTINUOUS
 10
10.75
 20
8.1999999999999975
 30
0.0
 11
9.75
 21
8.1999999999999975
 31
0.0
  0
LINE
  5
42E1
  8
240
  6
CONTINUOUS
 10
9.75
 20
10.0
 30
0.0
 11
1.7051491599999991
 21
10.0
 31
0.0
  0
ARC
  5
42E2
  8
240
  6
CONTINUOUS
 10
1.7051491599999991
 20
11.0
 30
0.0
 40
1.0
 50
194.99999977999991
 51
270.0
  0
LINE
  5
42E3
  8
240
  6
CONTINUOUS
 10
0.0000000055125595
 20
13.5
 30
0.0
 11
0.73922333
 21
10.741180959999999
 31
0.0
  0
LINE
  5
42E4
  8
240
  6
CONTINUOUS
 10
13.00980762
 20
10.0
 30
0.0
 11
12.75
 21
10.15
 31
0.0
  0
LINE
  5
42E5
  8
240
  6
CONTINUOUS
 10
10.75
 20
10.15
 30
0.0
 11
12.75
 21
10.15
 31
0.0
  0
LINE
  5
42E6
  8
240
  6
CONTINUOUS
 10
31.75
 20
10.0
 30
0.0
 11
31.75
 21
-10.0
 31
0.0
  0
LINE
  5
42E7
  8
240
  6
CONTINUOUS
 10
-6.5
 20
10.0
 30
0.0
 11
-6.5000000099999991
 21
13.0
 31
0.0
  0
LINE
  5
42E8
  8
240
  6
CONTINUOUS
 10
-6.5
 20
-10.0
 30
0.0
 11
-6.5
 21
-13.0
 31
0.0
  0
LINE
  5
42E9
  8
247
  6
CONTINUOUS
 10
3.7378221699999821
 20
-8.25
 30
0.0
 11
3.7378221700000092
 21
-5.4692307694020306
 31
0.0
  0
LINE
  5
42EA
  8
247
  6
CONTINUOUS
 10
2.23782217000001
 20
-7.7729360999927612
 30
0.0
 11
3.4978221699496101
 21
-8.1342352860344231
 31
0.0
  0
LINE
  5
42EB
  8
247
  6
CONTINUOUS
 10
2.8355144776684189
 20
-7.3950908421114141
 30
0.0
 11
2.8355144776684189
 21
-7.9443216113202171
 31
0.0
  0
ARC
  5
42EC
  8
247
  6
CONTINUOUS
 10
2.468653610376486
 20
-7.252358041168093
 30
0.0
 40
0.2326029485596046
 50
72.997889675291987
 51
172.92416621851211
  0
ARC
  5
42ED
  8
247
  6
CONTINUOUS
 10
2.420956048616826
 20
-7.4294865340824572
 30
0.0
 40
0.4159828779215263
 50
4.7429368522005912
 51
73.849226273266453
1001
GENIUS_GENOBJ-N-FIL_13
1002
{
1000
OWNER
1000
GEN
1002
}
1001
GENIUS_GENODEF_13
1002
{
1000
HIER
1070
     0
1002
}
1002
{
1000
MANEDIT
1070
     0
1002
}
1002
{
1000
NOSEL
1070
     0
1002
}
1002
{
1000
BEHIND
1070
     0
1002
}
1002
{
1000
OTHER
1070
     0
1002
}
1002
{
1000
REACTOR
1002
}
  0
LINE
  5
42EE
  8
247
  6
CONTINUOUS
 10
3.4978221699496101
 20
-7.5850045168256193
 30
0.0
 11
3.4978221699496101
 21
-8.1342352860344231
 31
0.0
  0
LINE
  5
42EF
  8
247
  6
CONTINUOUS
 10
2.23782217000001
 20
-7.7729360999927612
 30
0.0
 11
2.23782217000001
 21
-7.2237053307839547
 31
0.0
  0
ARC
  5
42F0
  8
247
  6
CONTINUOUS
 10
3.070272347660727
 20
-7.4269838857600803
 30
0.0
 40
0.2369143806452316
 50
65.990941652528804
 51
172.26344345906921
  0
ARC
  5
42F1
  8
247
  6
CONTINUOUS
 10
3.0725423663995701
 20
-7.6274679662561731
 30
0.0
 40
0.4273944967417014
 50
5.7019851642579757
 51
77.27733843682222
1001
GENIUS_GENOBJ-N-FIL_13
1002
{
1000
OWNER
1000
GEN
1002
}
1001
GENIUS_GENODEF_13
1002
{
1000
HIER
1070
     0
1002
}
1002
{
1000
MANEDIT
1070
     0
1002
}
1002
{
1000
NOSEL
1070
     0
1002
}
1002
{
1000
BEHIND
1070
     0
1002
}
1002
{
1000
OTHER
1070
     0
1002
}
1002
{
1000
REACTOR
1002
}
  0
LINE
  5
42F2
  8
247
  6
CONTINUOUS
 10
3.4978221699496101
 20
-7.010389132238001
 30
0.0
 11
2.23782217000001
 21
-6.649089946196395
 31
0.0
  0
LINE
  5
42F3
  8
247
  6
CONTINUOUS
 10
2.23782217000001
 20
-5.7513976385447707
 30
0.0
 11
2.23782217000001
 21
-5.989007018582126
 31
0.0
  0
LINE
  5
42F4
  8
247
  6
CONTINUOUS
 10
3.4978221699496101
 20
-6.3652437923663561
 30
0.0
 11
3.4978221699496101
 21
-6.1067822539151821
 31
0.0
  0
ARC
  5
42F5
  8
247
  6
CONTINUOUS
 10
3.1128019270500391
 20
-5.6290899462420043
 30
0.0
 40
0.9461130345837279
 50
202.35948814152781
 51
254.99324854284609
  0
ARC
  5
42F6
  8
247
  6
CONTINUOUS
 10
2.57731348512291
 20
-5.9085068196799284
 30
0.0
 40
0.3740824078205668
 50
94.994589319075374
 51
155.16632895730379
1001
GENIUS_GENOBJ-N-FIL_13
1002
{
1000
OWNER
1000
GEN
1002
}
1001
GENIUS_GENODEF_13
1002
{
1000
HIER
1070
     0
1002
}
1002
{
1000
MANEDIT
1070
     0
1002
}
1002
{
1000
NOSEL
1070
     0
1002
}
1002
{
1000
BEHIND
1070
     0
1002
}
1002
{
1000
OTHER
1070
     0
1002
}
1002
{
1000
REACTOR
1002
}
  0
ARC
  5
42F7
  8
247
  6
CONTINUOUS
 10
2.935083443181691
 20
-6.266510370619641
 30
0.0
 40
0.5849683289464192
 50
15.84609655578096
 51
82.325137004169122
  0
ARC
  5
42F8
  8
247
  6
CONTINUOUS
 10
3.0607044111826491
 20
-6.0211269832633443
 30
0.0
 40
0.5563167383215207
 50
249.71360167049701
 51
321.7887456564095
1001
GENIUS_GENOBJ-N-FIL_13
1002
{
1000
OWNER
1000
GEN
1002
}
1001
GENIUS_GENODEF_13
1002
{
1000
HIER
1070
     0
1002
}
1002
{
1000
MANEDIT
1070
     0
1002
}
1002
{
1000
NOSEL
1070
     0
1002
}
1002
{
1000
BEHIND
1070
     0
1002
}
1002
{
1000
OTHER
1070
     0
1002
}
1002
{
1000
REACTOR
1002
}
  0
LINE
  5
42F9
  8
247
  6
CONTINUOUS
 10
3.0132067853536122
 20
-5.9775514846895694
 30
0.0
 11
3.0132067853536122
 21
-5.6867822539319919
 31
0.0
  0
ARC
  5
42FA
  8
247
  6
CONTINUOUS
 10
2.9878221700000092
 20
-8.25
 30
0.0
 40
0.75
 50
180.0
 51
0.0
  0
LINE
  5
42FB
  8
247
  6
CONTINUOUS
 10
2.23782217000001
 20
-8.25
 30
0.0
 11
2.23782217000001
 21
-7.982307692348396
 31
0.0
  0
ARC
  5
42FC
  8
247
  6
CONTINUOUS
 10
2.9878221700000092
 20
-5.469230769402003
 30
0.0
 40
0.75
 50
0.0
 51
180.0
  0
LINE
  5
42FD
  8
250
  6
CONTINUOUS
 10
0.0
 20
13.641256029999999
 30
0.0
 11
0.0
 21
29.0
 31
0.0
  0
LINE
  5
42FE
  8
250
  6
CONTINUOUS
 10
31.75
 20
10.5
 30
0.0
 11
31.75
 21
29.0
 31
0.0
  0
LINE
  5
42FF
  8
250
  6
CONTINUOUS
 10
2.23
 20
28.0
 30
0.0
 11
29.52
 21
28.0
 31
0.0
  0
LINE
  5
4300
  8
250
  6
CONTINUOUS
 10
2.23
 20
27.628333325900002
 30
0.0
 11
0.0
 21
28.0
 31
0.0
  0
LINE
  5
4301
  8
250
  6
CONTINUOUS
 10
2.23
 20
28.371666674099998
 30
0.0
 11
0.0
 21
28.0
 31
0.0
  0
LINE
  5
4302
  8
250
  6
CONTINUOUS
 10
0.0
 20
28.0
 30
0.0
 11
2.23
 21
28.0
 31
0.0
  0
LINE
  5
4303
  8
250
  6
CONTINUOUS
 10
29.52
 20
28.371666674099998
 30
0.0
 11
31.75
 21
28.0
 31
0.0
  0
LINE
  5
4304
  8
250
  6
CONTINUOUS
 10
29.52
 20
27.628333325900002
 30
0.0
 11
31.75
 21
28.0
 31
0.0
  0
LINE
  5
4305
  8
250
  6
CONTINUOUS
 10
31.75
 20
28.0
 30
0.0
 11
29.52
 21
28.0
 31
0.0
  0
TEXT
  5
4306
  8
250
  6
CONTINUOUS
 10
9.6750000000000007
 20
29.0
 30
0.0
 40
2.7999999999999989
  1
1.250
1001
ACAD
1000
MTEXTBEGIN
1070
    73
1070
     1
1070
    44
1040
1.0
1070
    74
1070
     0
1000
MTEXTEND
  0
LINE
  5
4307
  8
250
  6
CONTINUOUS
 10
32.25
 20
-10.0
 30
0.0
 11
49.75
 21
-10.0
 31
0.0
  0
LINE
  5
4308
  8
250
  6
CONTINUOUS
 10
32.25
 20
10.0
 30
0.0
 11
49.75
 21
10.0
 31
0.0
  0
LINE
  5
4309
  8
250
  6
CONTINUOUS
 10
48.75
 20
-7.7699999999999987
 30
0.0
 11
48.75
 21
7.7699999999999987
 31
0.0
  0
LINE
  5
430A
  8
250
  6
CONTINUOUS
 10
49.121666674099998
 20
-7.7699999999999987
 30
0.0
 11
48.75
 21
-10.0
 31
0.0
  0
LINE
  5
430B
  8
250
  6
CONTINUOUS
 10
48.378333325900002
 20
-7.7699999999999987
 30
0.0
 11
48.75
 21
-10.0
 31
0.0
  0
LINE
  5
430C
  8
250
  6
CONTINUOUS
 10
48.75
 20
-10.0
 30
0.0
 11
48.75
 21
-7.7699999999999987
 31
0.0
  0
LINE
  5
430D
  8
250
  6
CONTINUOUS
 10
48.378333325900002
 20
7.7699999999999987
 30
0.0
 11
48.75
 21
10.0
 31
0.0
  0
LINE
  5
430E
  8
250
  6
CONTINUOUS
 10
49.121666674099998
 20
7.7699999999999987
 30
0.0
 11
48.75
 21
10.0
 31
0.0
  0
LINE
  5
430F
  8
250
  6
CONTINUOUS
 10
48.75
 20
10.0
 30
0.0
 11
48.75
 21
7.7699999999999987
 31
0.0
  0
TEXT
  5
4310
  8
250
  6
CONTINUOUS
 10
47.75
 20
-5.9333333333333309
 30
0.0
 40
2.7999999999999989
  1
\U+2205.787
 50
90.0
1001
ACAD
1000
MTEXTBEGIN
1070
    73
1070
     1
1070
    44
1040
1.0
1070
    74
1070
     0
1000
MTEXTEND
  0
TEXT
  5
4311
  8
241
  6
CONTINUOUS
 10
-51.0
 20
42.0
 30
0.0
 40
5.0
  1
MGT12-AU7/16-1.25
  7
YOKO
 11
-51.0
 21
42.0
 31
0.0
 73
     1
  0
LINE
  5
4352
  8
250
  6
CONTINUOUS
 10
8.4856140387118053
 20
6.2403125901219703
 30
0.0
 11
7.5937329599999996
 21
4.4194174100000003
 31
0.0
  0
LINE
  5
4353
  8
250
  6
CONTINUOUS
 10
7.8468436386658089
 20
6.4311445535015448
 30
0.0
 11
7.5937329599999996
 21
4.4194174100000003
 31
0.0
  0
LINE
  5
4354
  8
250
  6
CONTINUOUS
 10
7.5937329599999996
 20
4.4194174100000003
 30
0.0
 11
8.1662288386888093
 21
6.3357285718117584
 31
0.0
  0
LINE
  5
4355
  8
250
  6
CONTINUOUS
 10
8.1662288386888093
 20
6.3357285718117584
 30
0.0
 11
11.55632059
 21
17.683357269999998
 31
0.0
1001
ACAD
1000
DSTYLE
1002
{
1070
     6
1000
OPEN
1070
    41
1040
2.0
1070
    42
1040
2.0
1070
    44
1040
2.0
1070
   140
1040
4.0
1070
   343
1005
594
1002
}
  0
TEXT
  5
4356
  8
250
  6
CONTINUOUS
 10
13.506287626666669
 20
18.683357269999998
 30
0.0
 40
2.7999999999999989
  1
üá.242
  7
YOKO
1001
ITEMNAME
1000
DI010
1001
ACAD
1000
MTEXTBEGIN
1070
    73
1070
     1
1070
    44
1040
1.0
1070
    74
1070
     0
1000
MTEXTEND
1000
MTEXTBEGIN
1070
    73
1070
     1
1070
    44
1040
1.0
1070
    74
1070
     0
1000
MTEXTEND
1000
MTEXTBEGIN
1070
    73
1070
     1
1070
    44
1040
1.0
1070
    74
1070
     0
1000
MTEXTEND
1000
MTEXTBEGIN
1070
    73
1070
     1
1070
    44
1040
1.0
1070
    74
1070
     0
1000
MTEXTEND
1000
MTEXTBEGIN
1070
    73
1070
     1
1070
    44
1040
1.0
1070
    74
1070
     0
1000
MTEXTEND
  0
LINE
  5
4357
  8
250
  6
CONTINUOUS
 10
32.25
 20
4.1020000200000002
 30
0.0
 11
42.75
 21
4.1020000200000002
 31
0.0
  0
LINE
  5
4358
  8
250
  6
CONTINUOUS
 10
41.749999999999993
 20
-1.8720000199999991
 30
0.0
 11
41.749999999999993
 21
1.8720000199999991
 31
0.0
  0
LINE
  5
4359
  8
250
  6
CONTINUOUS
 10
41.378333325900002
 20
1.87200002
 30
0.0
 11
41.749999999999993
 21
4.1020000200000002
 31
0.0
  0
LINE
  5
435A
  8
250
  6
CONTINUOUS
 10
42.121666674099998
 20
1.87200002
 30
0.0
 11
41.749999999999993
 21
4.1020000200000002
 31
0.0
  0
LINE
  5
435B
  8
250
  6
CONTINUOUS
 10
41.749999999999993
 20
4.1020000200000002
 30
0.0
 11
41.749999999999993
 21
1.87200002
 31
0.0
  0
INSERT
  5
435C
  8
240
  2
*U5
 10
0.0
 20
0.0
 30
0.0
  0
LINE
  5
435D
  8
250
  6
CONTINUOUS
 10
11.55632059
 20
17.683357269999998
 30
0.0
 11
29.1396774
 21
17.683357269999998
 31
0.0
1001
ITEMNAME
1000
LNSP2
  0
LINE
  5
435E
  8
243
  6
HIDDEN2
 10
11.75
 20
4.1020000200000002
 30
0.0
 11
31.75
 21
4.1020000200000002
 31
0.0
  0
LINE
  5
435F
  8
242
  6
HIDDEN2
 10
11.75
 20
4.4194174100000003
 30
0.0
 11
0.4500000000246587
 21
0.0
 31
0.0
  0
LINE
  5
4360
  8
242
  6
HIDDEN2
 10
0.4500000000175133
 20
4.4194174100000003
 30
0.0
 11
11.75
 21
0.00000002
 31
0.0
  0
LINE
  5
4361
  8
243
  6
HIDDEN2
 10
0.4500000000175133
 20
4.4194174100000003
 30
0.0
 11
11.75
 21
4.4194174100000003
 31
0.0
  0
LINE
  5
4363
  8
243
  6
HIDDEN2
 10
11.75
 20
4.4194174100000003
 30
0.0
 11
11.75
 21
-4.4194174100000003
 31
0.0
  0
LINE
  5
4364
  8
250
  6
CONTINUOUS
 10
32.25
 20
-4.1020000200000002
 30
0.0
 11
42.75
 21
-4.1020000200000002
 31
0.0
  0
LINE
  5
4365
  8
250
  6
CONTINUOUS
 10
41.378333325900002
 20
-1.87200002
 30
0.0
 11
41.749999999999993
 21
-4.1020000200000002
 31
0.0
  0
LINE
  5
4366
  8
250
  6
CONTINUOUS
 10
42.121666674099998
 20
-1.87200002
 30
0.0
 11
41.749999999999993
 21
-4.1020000200000002
 31
0.0
  0
LINE
  5
4367
  8
250
  6
CONTINUOUS
 10
41.749999999999993
 20
-4.1020000200000002
 30
0.0
 11
41.749999999999993
 21
-1.87200002
 31
0.0
  0
LINE
  5
4368
  8
243
  6
HIDDEN2
 10
11.75
 20
-4.1020000200000002
 30
0.0
 11
31.75
 21
-4.1020000200000002
 31
0.0
  0
LINE
  5
4369
  8
242
  6
HIDDEN2
 10
11.75
 20
-4.4194174100000003
 30
0.0
 11
0.4500000000246587
 21
0.0
 31
0.0
  0
LINE
  5
436A
  8
242
  6
HIDDEN2
 10
0.4500000000318046
 20
-4.4194174100000003
 30
0.0
 11
11.75
 21
-0.00000002
 31
0.0
  0
LINE
  5
436B
  8
243
  6
HIDDEN2
 10
0.4500000000318044
 20
-4.4194174100000003
 30
0.0
 11
11.75
 21
-4.4194174100000003
 31
0.0
  0
LINE
  5
4379
  8
243
  6
HIDDEN2
 10
0.4500000000318044
 20
-4.4194174100000003
 30
0.0
 11
0.4500000000175133
 21
4.4194174100000003
 31
0.0
  0
VIEWPORT
  5
22
 67
     1
  8
0
 10
261.51769911504419
 20
148.5
 30
0.0
 40
523.0353982300885
 41
297.0
 68
     1
 69
     1
1001
ACAD
1000
MVIEW
1002
{
1070
    16
1010
0.0
1020
0.0
1030
0.0
1010
0.0
1020
0.0
1030
1.0
1040
0.0
1040
297.0
1040
261.51769911504419
1040
148.5
1040
50.0
1040
0.0
1040
0.0
1070
     0
1070
   100
1070
     1
1070
     1
1070
     0
1070
     0
1070
     0
1070
     0
1040
0.0
1040
0.0
1040
0.0
1040
1.0
1040
1.0
1040
10.0
1040
10.0
1070
     0
1002
{
1002
}
1002
}
1001
GENIUS_GENODEF_13
1002
{
1000
HIER
1070
     0
1002
}
1002
{
1000
MANEDIT
1070
     0
1002
}
1002
{
1000
NOSEL
1070
     0
1002
}
1002
{
1000
BEHIND
1070
     0
1002
}
1002
{
1000
OTHER
1070
     0
1002
}
1002
{
1000
REACTOR
1002
}
1001
GENIUS_GENOBJ-N-SDF_13
1002
{
1000
OWNER
1000
GEN
1002
}
1001
GENIUS_GENSCREG_15
1000
PF
1040
1.0
1000
DF
1040
1.0
1000
MIN
1011
0.0
1021
0.0
1031
0.0
1021
0.0
1031
0.0
1000
MAX
1011
523.0353982300885
1021
0.0
1031
0.0
1021
297.0
1031
0.0
1000
FLAGS
1070
     4
  0
ENDSEC
  0
EOF
